  0
SECTION
  2
HEADER
  9
$ACADVER
  1
AC1032
  9
$ACADMAINTVER
 90
      329
  9
$DWGCODEPAGE
  3
ANSI_936
  9
$REQUIREDVERSIONS
160
                 0
  9
$INSBASE
 10
0.0
 20
0.0
 30
0.0
  9
$EXTMIN
 10
1.000000000000000E+20
 20
1.000000000000000E+20
 30
1.000000000000000E+20
  9
$EXTMAX
 10
-1.000000000000000E+20
 20
-1.000000000000000E+20
 30
-1.000000000000000E+20
  9
$LIMMIN
 10
0.0
 20
0.0
  9
$LIMMAX
 10
12.0
 20
9.0
  9
$ORTHOMODE
 70
     0
  9
$REGENMODE
 70
     1
  9
$FILLMODE
 70
     1
  9
$QTEXTMODE
 70
     0
  9
$MIRRTEXT
 70
     0
  9
$LTSCALE
 40
1.0
  9
$ATTMODE
 70
     1
  9
$TEXTSIZE
 40
0.2
  9
$TRACEWID
 40
0.05
  9
$TEXTSTYLE
  7
Standard
  9
$CLAYER
  8
0
  9
$CELTYPE
  6
ByLayer
  9
$CECOLOR
 62
   256
  9
$CELTSCALE
 40
1.0
  9
$DISPSILH
 70
     0
  9
$DIMSCALE
 40
1.0
  9
$DIMASZ
 40
0.18
  9
$DIMEXO
 40
0.0625
  9
$DIMDLI
 40
0.38
  9
$DIMRND
 40
0.0
  9
$DIMDLE
 40
0.0
  9
$DIMEXE
 40
0.18
  9
$DIMTP
 40
0.0
  9
$DIMTM
 40
0.0
  9
$DIMTXT
 40
0.18
  9
$DIMCEN
 40
0.09
  9
$DIMTSZ
 40
0.0
  9
$DIMTOL
 70
     0
  9
$DIMLIM
 70
     0
  9
$DIMTIH
 70
     1
  9
$DIMTOH
 70
     1
  9
$DIMSE1
 70
     0
  9
$DIMSE2
 70
     0
  9
$DIMTAD
 70
     0
  9
$DIMZIN
 70
     0
  9
$DIMBLK
  1

  9
$DIMASO
 70
     1
  9
$DIMSHO
 70
     1
  9
$DIMPOST
  1

  9
$DIMAPOST
  1

  9
$DIMALT
 70
     0
  9
$DIMALTD
 70
     2
  9
$DIMALTF
 40
25.4
  9
$DIMLFAC
 40
1.0
  9
$DIMTOFL
 70
     0
  9
$DIMTVP
 40
0.0
  9
$DIMTIX
 70
     0
  9
$DIMSOXD
 70
     0
  9
$DIMSAH
 70
     0
  9
$DIMBLK1
  1

  9
$DIMBLK2
  1

  9
$DIMSTYLE
  2
Standard
  9
$DIMCLRD
 70
     0
  9
$DIMCLRE
 70
     0
  9
$DIMCLRT
 70
     0
  9
$DIMTFAC
 40
1.0
  9
$DIMGAP
 40
0.09
  9
$DIMJUST
 70
     0
  9
$DIMSD1
 70
     0
  9
$DIMSD2
 70
     0
  9
$DIMTOLJ
 70
     1
  9
$DIMTZIN
 70
     0
  9
$DIMALTZ
 70
     0
  9
$DIMALTTZ
 70
     0
  9
$DIMUPT
 70
     0
  9
$DIMDEC
 70
     4
  9
$DIMTDEC
 70
     4
  9
$DIMALTU
 70
     2
  9
$DIMALTTD
 70
     2
  9
$DIMTXSTY
  7
Standard
  9
$DIMAUNIT
 70
     0
  9
$DIMADEC
 70
     0
  9
$DIMALTRND
 40
0.0
  9
$DIMAZIN
 70
     0
  9
$DIMDSEP
 70
    46
  9
$DIMATFIT
 70
     3
  9
$DIMFRAC
 70
     0
  9
$DIMLDRBLK
  1

  9
$DIMLUNIT
 70
     2
  9
$DIMLWD
 70
    -2
  9
$DIMLWE
 70
    -2
  9
$DIMTMOVE
 70
     0
  9
$DIMFXL
 40
1.0
  9
$DIMFXLON
 70
     0
  9
$DIMJOGANG
 40
0.7853981633974483
  9
$DIMTFILL
 70
     0
  9
$DIMTFILLCLR
 70
     0
  9
$DIMARCSYM
 70
     0
  9
$DIMLTYPE
  6

  9
$DIMLTEX1
  6

  9
$DIMLTEX2
  6

  9
$DIMTXTDIRECTION
 70
     0
  9
$LUNITS
 70
     2
  9
$LUPREC
 70
     4
  9
$SKETCHINC
 40
0.1
  9
$FILLETRAD
 40
0.0
  9
$AUNITS
 70
     0
  9
$AUPREC
 70
     0
  9
$MENU
  1
.
  9
$ELEVATION
 40
0.0
  9
$PELEVATION
 40
0.0
  9
$THICKNESS
 40
0.0
  9
$LIMCHECK
 70
     0
  9
$CHAMFERA
 40
0.0
  9
$CHAMFERB
 40
0.0
  9
$CHAMFERC
 40
0.0
  9
$CHAMFERD
 40
0.0
  9
$SKPOLY
 70
     0
  9
$TDCREATE
 40
2460931.821782407
  9
$TDUCREATE
 40
2460931.488449074
  9
$TDUPDATE
 40
2460931.821782407
  9
$TDUUPDATE
 40
2460931.488449074
  9
$TDINDWG
 40
0.0000000000
  9
$TDUSRTIMER
 40
0.0000000000
  9
$USRTIMER
 70
     1
  9
$ANGBASE
 50
0.0
  9
$ANGDIR
 70
     0
  9
$PDMODE
 70
     0
  9
$PDSIZE
 40
0.0
  9
$PLINEWID
 40
0.0
  9
$SPLFRAME
 70
     0
  9
$SPLINETYPE
 70
     6
  9
$SPLINESEGS
 70
     8
  9
$HANDSEED
  5
1A5
  9
$SURFTAB1
 70
     6
  9
$SURFTAB2
 70
     6
  9
$SURFTYPE
 70
     6
  9
$SURFU
 70
     6
  9
$SURFV
 70
     6
  9
$UCSBASE
  2

  9
$UCSNAME
  2

  9
$UCSORG
 10
0.0
 20
0.0
 30
0.0
  9
$UCSXDIR
 10
1.0
 20
0.0
 30
0.0
  9
$UCSYDIR
 10
0.0
 20
1.0
 30
0.0
  9
$UCSORTHOREF
  2

  9
$UCSORTHOVIEW
 70
     0
  9
$UCSORGTOP
 10
0.0
 20
0.0
 30
0.0
  9
$UCSORGBOTTOM
 10
0.0
 20
0.0
 30
0.0
  9
$UCSORGLEFT
 10
0.0
 20
0.0
 30
0.0
  9
$UCSORGRIGHT
 10
0.0
 20
0.0
 30
0.0
  9
$UCSORGFRONT
 10
0.0
 20
0.0
 30
0.0
  9
$UCSORGBACK
 10
0.0
 20
0.0
 30
0.0
  9
$PUCSBASE
  2

  9
$PUCSNAME
  2

  9
$PUCSORG
 10
0.0
 20
0.0
 30
0.0
  9
$PUCSXDIR
 10
1.0
 20
0.0
 30
0.0
  9
$PUCSYDIR
 10
0.0
 20
1.0
 30
0.0
  9
$PUCSORTHOREF
  2

  9
$PUCSORTHOVIEW
 70
     0
  9
$PUCSORGTOP
 10
0.0
 20
0.0
 30
0.0
  9
$PUCSORGBOTTOM
 10
0.0
 20
0.0
 30
0.0
  9
$PUCSORGLEFT
 10
0.0
 20
0.0
 30
0.0
  9
$PUCSORGRIGHT
 10
0.0
 20
0.0
 30
0.0
  9
$PUCSORGFRONT
 10
0.0
 20
0.0
 30
0.0
  9
$PUCSORGBACK
 10
0.0
 20
0.0
 30
0.0
  9
$USERI1
 70
     0
  9
$USERI2
 70
     0
  9
$USERI3
 70
     0
  9
$USERI4
 70
     0
  9
$USERI5
 70
     0
  9
$USERR1
 40
0.0
  9
$USERR2
 40
0.0
  9
$USERR3
 40
0.0
  9
$USERR4
 40
0.0
  9
$USERR5
 40
0.0
  9
$WORLDVIEW
 70
     1
  9
$SHADEDGE
 70
     3
  9
$SHADEDIF
 70
    70
  9
$TILEMODE
 70
     1
  9
$MAXACTVP
 70
    64
  9
$PINSBASE
 10
0.0
 20
0.0
 30
0.0
  9
$PLIMCHECK
 70
     0
  9
$PEXTMIN
 10
1.000000000000000E+20
 20
1.000000000000000E+20
 30
1.000000000000000E+20
  9
$PEXTMAX
 10
-1.000000000000000E+20
 20
-1.000000000000000E+20
 30
-1.000000000000000E+20
  9
$PLIMMIN
 10
0.0
 20
0.0
  9
$PLIMMAX
 10
12.0
 20
9.0
  9
$UNITMODE
 70
     0
  9
$VISRETAIN
 70
     1
  9
$PLINEGEN
 70
     0
  9
$PSLTSCALE
 70
     1
  9
$TREEDEPTH
 70
  3020
  9
$CMLSTYLE
  2
Standard
  9
$CMLJUST
 70
     0
  9
$CMLSCALE
 40
1.0
  9
$PROXYGRAPHICS
 70
     1
  9
$MEASUREMENT
 70
     0
  9
$CELWEIGHT
370
    -1
  9
$ENDCAPS
280
     0
  9
$JOINSTYLE
280
     0
  9
$LWDISPLAY
290
     1
  9
$INSUNITS
 70
     4
  9
$HYPERLINKBASE
  1

  9
$STYLESHEET
  1

  9
$XEDIT
290
     1
  9
$CEPSNTYPE
380
     0
  9
$PSTYLEMODE
290
     1
  9
$FINGERPRINTGUID
  2
{2F1C3B50-D489-9A4F-9FAF-F2F5B8A75548}
  9
$VERSIONGUID
  2
{B523BD73-93B0-224D-89DC-ACDD904A0356}
  9
$EXTNAMES
290
     1
  9
$PSVPSCALE
 40
0.0
  9
$OLESTARTUP
290
     0
  9
$SORTENTS
280
   127
  9
$INDEXCTL
280
     0
  9
$HIDETEXT
280
     1
  9
$XCLIPFRAME
280
     2
  9
$HALOGAP
280
     0
  9
$OBSCOLOR
 70
   257
  9
$OBSLTYPE
280
     0
  9
$INTERSECTIONDISPLAY
280
     0
  9
$INTERSECTIONCOLOR
 70
   257
  9
$DIMASSOC
280
     2
  9
$PROJECTNAME
  1

  9
$CAMERADISPLAY
290
     0
  9
$LENSLENGTH
 40
50.0
  9
$CAMERAHEIGHT
 40
0.0
  9
$STEPSPERSEC
 40
2.0
  9
$STEPSIZE
 40
6.0
  9
$3DDWFPREC
 40
2.0
  9
$PSOLWIDTH
 40
0.25
  9
$PSOLHEIGHT
 40
4.0
  9
$LOFTANG1
 40
1.570796326794896
  9
$LOFTANG2
 40
1.570796326794896
  9
$LOFTMAG1
 40
0.0
  9
$LOFTMAG2
 40
0.0
  9
$LOFTPARAM
 70
     7
  9
$LOFTNORMALS
280
     1
  9
$LATITUDE
 40
37.795
  9
$LONGITUDE
 40
-122.394
  9
$NORTHDIRECTION
 40
0.0
  9
$TIMEZONE
 70
 -8000
  9
$LIGHTGLYPHDISPLAY
280
     1
  9
$TILEMODELIGHTSYNCH
280
     1
  9
$CMATERIAL
347
11
  9
$SOLIDHIST
280
     0
  9
$SHOWHIST
280
     1
  9
$DWFFRAME
280
     2
  9
$DGNFRAME
280
     0
  9
$REALWORLDSCALE
290
     1
  9
$INTERFERECOLOR
 62
     1
  9
$INTERFEREOBJVS
345
33
  9
$INTERFEREVPVS
346
30
  9
$CSHADOW
280
     0
  9
$SHADOWPLANELOCATION
 40
0.0
  0
ENDSEC
  0
SECTION
  2
CLASSES
  0
CLASS
  1
ACDBDICTIONARYWDFLT
  2
AcDbDictionaryWithDefault
  3
ObjectDBX Classes
 90
        0
 91
        1
280
     0
281
     0
  0
CLASS
  1
MATERIAL
  2
AcDbMaterial
  3
ObjectDBX Classes
 90
     1153
 91
        3
280
     0
281
     0
  0
CLASS
  1
VISUALSTYLE
  2
AcDbVisualStyle
  3
ObjectDBX Classes
 90
     4095
 91
       24
280
     0
281
     0
  0
CLASS
  1
SCALE
  2
AcDbScale
  3
ObjectDBX Classes
 90
     1153
 91
       17
280
     0
281
     0
  0
CLASS
  1
TABLESTYLE
  2
AcDbTableStyle
  3
ObjectDBX Classes
 90
     4095
 91
        1
280
     0
281
     0
  0
CLASS
  1
MLEADERSTYLE
  2
AcDbMLeaderStyle
  3
ACDB_MLEADERSTYLE_CLASS
 90
     4095
 91
        1
280
     0
281
     0
  0
CLASS
  1
ACDBSECTIONVIEWSTYLE
  2
AcDbSectionViewStyle
  3
ObjectDBX Classes
 90
     1025
 91
        1
280
     0
281
     0
  0
CLASS
  1
ACDBDETAILVIEWSTYLE
  2
AcDbDetailViewStyle
  3
ObjectDBX Classes
 90
     1025
 91
        1
280
     0
281
     0
  0
CLASS
  1
DICTIONARYVAR
  2
AcDbDictionaryVar
  3
ObjectDBX Classes
 90
        0
 91
        5
280
     0
281
     0
  0
CLASS
  1
CELLSTYLEMAP
  2
AcDbCellStyleMap
  3
ObjectDBX Classes
 90
     1152
 91
        1
280
     0
281
     0
  0
ENDSEC
  0
SECTION
  2
TABLES
  0
TABLE
  2
VPORT
  5
8
330
0
100
AcDbSymbolTable
 70
     1
  0
VPORT
  5
57
330
8
100
AcDbSymbolTableRecord
100
AcDbViewportTableRecord
  2
*Active
 70
     0
 10
0.0
 20
0.0
 11
1.0
 21
1.0
 12
0.0
 22
0.0
 13
0.0
 23
0.0
 14
1.0
 24
1.0
 15
0.0
 25
0.0
 16
0.0
 26
0.0
 36
1.0
 17
26.86383437714983
 27
-197.5753002096657
 37
0.0
 40
1037.892863690729
 41
1.434782511493833
 42
50.0
 43
0.0
 44
0.0
 50
0.0
 51
0.0
 71
     0
 72
   100
 73
     1
 74
     1
 75
     0
 76
     0
 77
     0
 78
     0
281
     0
 65
     1
110
0.0
120
0.0
130
0.0
111
1.0
121
0.0
131
0.0
112
0.0
122
1.0
132
0.0
 79
     0
146
0.0
 60
     3
 61
     5
292
     1
282
     1
141
0.0
142
0.0
 63
   250
421
  3355443
  0
ENDTAB
  0
TABLE
  2
LTYPE
  5
5
330
0
100
AcDbSymbolTable
 70
     1
  0
LTYPE
  5
5B
330
5
100
AcDbSymbolTableRecord
100
AcDbLinetypeTableRecord
  2
ByBlock
 70
     0
  3

 72
    65
 73
     0
 40
0.0
  0
LTYPE
  5
5C
330
5
100
AcDbSymbolTableRecord
100
AcDbLinetypeTableRecord
  2
ByLayer
 70
     0
  3

 72
    65
 73
     0
 40
0.0
  0
LTYPE
  5
5D
330
5
100
AcDbSymbolTableRecord
100
AcDbLinetypeTableRecord
  2
Continuous
 70
     0
  3
Solid line
 72
    65
 73
     0
 40
0.0
  0
ENDTAB
  0
TABLE
  2
LAYER
  5
2
330
0
100
AcDbSymbolTable
 70
     3
  0
LAYER
  5
54
330
2
100
AcDbSymbolTableRecord
100
AcDbLayerTableRecord
  2
0
 70
     0
 62
     7
  6
Continuous
370
    -3
390
F
347
21
348
0
  0
LAYER
  5
78
330
2
100
AcDbSymbolTableRecord
100
AcDbLayerTableRecord
  2
图层 1
 70
     0
 62
     7
  6
Continuous
370
     0
390
F
347
21
348
0
  0
LAYER
  5
D1
330
2
100
AcDbSymbolTableRecord
100
AcDbLayerTableRecord
  2
图层 2
 70
     1
 62
     7
  6
Continuous
370
     0
390
F
347
21
348
0
  0
ENDTAB
  0
TABLE
  2
STYLE
  5
3
330
0
100
AcDbSymbolTable
 70
     2
  0
STYLE
  5
55
330
3
100
AcDbSymbolTableRecord
100
AcDbTextStyleTableRecord
  2
Standard
 70
     0
 40
0.0
 41
1.0
 50
0.0
 71
     0
 42
0.2
  3
txt
  4

  0
STYLE
  5
5A
330
3
100
AcDbSymbolTableRecord
100
AcDbTextStyleTableRecord
  2
Annotative
 70
     0
 40
0.0
 41
1.0
 50
0.0
 71
     0
 42
0.2
  3
txt
  4

1001
AcadAnnotative
1000
AnnotativeData
1002
{
1070
     1
1070
     1
1002
}
  0
ENDTAB
  0
TABLE
  2
VIEW
  5
6
330
0
100
AcDbSymbolTable
 70
     0
  0
ENDTAB
  0
TABLE
  2
UCS
  5
7
330
0
100
AcDbSymbolTable
 70
     0
  0
ENDTAB
  0
TABLE
  2
APPID
  5
9
330
0
100
AcDbSymbolTable
 70
     2
  0
APPID
  5
56
330
9
100
AcDbSymbolTableRecord
100
AcDbRegAppTableRecord
  2
ACAD
 70
     0
  0
APPID
  5
5E
330
9
100
AcDbSymbolTableRecord
100
AcDbRegAppTableRecord
  2
AcadAnnotative
 70
     0
  0
ENDTAB
  0
TABLE
  2
DIMSTYLE
  5
A
330
0
100
AcDbSymbolTable
 70
     2
100
AcDbDimStyleTable
 71
     0
  0
DIMSTYLE
105
58
330
A
100
AcDbSymbolTableRecord
100
AcDbDimStyleTableRecord
  2
Standard
 70
     0
340
55
  0
DIMSTYLE
105
59
330
A
100
AcDbSymbolTableRecord
100
AcDbDimStyleTableRecord
  2
Annotative
 70
     0
340
55
1001
AcadAnnotative
1000
AnnotativeData
1002
{
1070
     1
1070
     1
1002
}
  0
ENDTAB
  0
TABLE
  2
BLOCK_RECORD
  5
1
330
0
100
AcDbSymbolTable
 70
     4
  0
BLOCK_RECORD
  5
70
330
1
100
AcDbSymbolTableRecord
100
AcDbBlockTableRecord
  2
*Model_Space
340
73
 70
     0
280
     1
281
     0
  0
BLOCK_RECORD
  5
6C
330
1
100
AcDbSymbolTableRecord
100
AcDbBlockTableRecord
  2
*Paper_Space
340
6F
 70
     0
280
     1
281
     0
  0
BLOCK_RECORD
  5
74
330
1
100
AcDbSymbolTableRecord
100
AcDbBlockTableRecord
  2
*Paper_Space0
340
77
 70
     0
280
     1
281
     0
  0
BLOCK_RECORD
  5
83
330
1
100
AcDbSymbolTableRecord
100
AcDbBlockTableRecord
  2
Block_0
340
0
102
{BLKREFS
331
84
102
}
 70
     0
280
     1
281
     0
  0
BLOCK_RECORD
  5
98
330
1
100
AcDbSymbolTableRecord
100
AcDbBlockTableRecord
  2
Block_1
340
0
102
{BLKREFS
331
99
102
}
 70
     0
280
     1
281
     0
  0
BLOCK_RECORD
  5
101
330
1
100
AcDbSymbolTableRecord
100
AcDbBlockTableRecord
  2
Block_2
340
0
102
{BLKREFS
331
102
102
}
 70
     0
280
     1
281
     0
  0
ENDTAB
  0
ENDSEC
  0
SECTION
  2
BLOCKS
  0
BLOCK
  5
71
330
70
100
AcDbEntity
  8
0
100
AcDbBlockBegin
  2
*Model_Space
 70
     0
 10
0.0
 20
0.0
 30
0.0
  3
*Model_Space
  1

  0
ENDBLK
  5
72
330
70
100
AcDbEntity
  8
0
100
AcDbBlockEnd
  0
BLOCK
  5
6D
330
6C
100
AcDbEntity
 67
     1
  8
0
100
AcDbBlockBegin
  2
*Paper_Space
 70
     0
 10
0.0
 20
0.0
 30
0.0
  3
*Paper_Space
  1

  0
ENDBLK
  5
6E
330
6C
100
AcDbEntity
 67
     1
  8
0
100
AcDbBlockEnd
  0
BLOCK
  5
75
330
74
100
AcDbEntity
 67
     1
  8
0
100
AcDbBlockBegin
  2
*Paper_Space0
 70
     0
 10
0.0
 20
0.0
 30
0.0
  3
*Paper_Space0
  1

  0
ENDBLK
  5
76
330
74
100
AcDbEntity
 67
     1
  8
0
100
AcDbBlockEnd
  0
BLOCK
  5
85
330
83
100
AcDbEntity
  8
0
100
AcDbBlockBegin
  2
Block_0
 70
     0
 10
0.0
 20
0.0
 30
0.0
  3
Block_0
  1

  0
LINE
  5
87
330
83
100
AcDbEntity
  8
图层 1
 62
   250
420
  2299925
370
    35
100
AcDbLine
 10
-370.3923862343226
 20
-459.150153537687
 30
0.0
 11
447.6076135611755
 21
-459.150153537687
 31
0.0
  0
LINE
  5
88
330
83
100
AcDbEntity
  8
图层 1
 62
   250
420
  2299925
370
    35
100
AcDbLine
 10
-370.3923862343226
 20
-464.4418202030307
 30
0.0
 11
-370.3923862343226
 21
-453.8584868723432
 31
0.0
  0
LINE
  5
89
330
83
100
AcDbEntity
  8
图层 1
 62
   250
420
  2299925
370
    35
100
AcDbLine
 10
447.6076135611755
 20
-464.4418202030307
 30
0.0
 11
447.6076135611755
 21
-453.8584868723432
 31
0.0
  0
LWPOLYLINE
  5
8A
330
83
100
AcDbEntity
  8
图层 1
 62
   250
420
  2299925
370
    35
100
AcDbPolyline
 90
        3
 70
     1
 43
0.0
 10
-370.3923862343226
 20
-459.150153537687
 10
-363.3368306805309
 20
-462.6779313145829
 10
-363.3368306805309
 20
-455.6223757607912
  0
HATCH
  5
8B
330
83
100
AcDbEntity
  8
图层 1
 62
    18
420
        0
440
 33554687
100
AcDbHatch
 10
0.0
 20
0.0
 30
0.0
210
0.0
220
0.0
230
1.0
  2
SOLID
 70
     1
 71
     1
 91
        1
 92
        1
 93
        3
 72
     1
 10
-370.3923862343226
 20
-459.150153537687
 11
-363.3368306805309
 21
-462.6779313145829
 72
     1
 10
-363.3368306805309
 20
-462.6779313145829
 11
-363.3368306805309
 21
-455.6223757607912
 72
     1
 10
-363.3368306805309
 20
-455.6223757607912
 11
-370.3923862343226
 21
-459.150153537687
 97
        1
330
8A
 75
     2
 76
     1
 98
        1
 10
0.0
 20
0.0
450
        0
451
        0
460
0.0
461
0.0
452
        0
462
0.0
453
        0
470

  0
LWPOLYLINE
  5
8C
330
83
100
AcDbEntity
  8
图层 1
 62
   250
420
  2299925
370
    35
100
AcDbPolyline
 90
        3
 70
     1
 43
0.0
 10
447.6076135611755
 20
-459.150153537687
 10
440.5520580073838
 20
-462.6779313145829
 10
440.5520580073838
 20
-455.6223757607912
  0
HATCH
  5
8D
330
83
100
AcDbEntity
  8
图层 1
 62
    18
420
        0
440
 33554687
100
AcDbHatch
 10
0.0
 20
0.0
 30
0.0
210
0.0
220
0.0
230
1.0
  2
SOLID
 70
     1
 71
     1
 91
        1
 92
        1
 93
        3
 72
     1
 10
447.6076135611755
 20
-459.150153537687
 11
440.5520580073838
 21
-462.6779313145829
 72
     1
 10
440.5520580073838
 20
-462.6779313145829
 11
440.5520580073838
 21
-455.6223757607912
 72
     1
 10
440.5520580073838
 20
-455.6223757607912
 11
447.6076135611755
 21
-459.150153537687
 97
        1
330
8C
 75
     2
 76
     1
 98
        1
 10
0.0
 20
0.0
450
        0
451
        0
460
0.0
461
0.0
452
        0
462
0.0
453
        0
470

  0
MTEXT
  5
8E
330
83
100
AcDbEntity
  8
图层 1
100
AcDbMText
 10
-56.45114083468278
 20
-480.6178641919115
 30
0.0
 40
0.2
 41
0.0
 46
0.0
 71
     7
 72
     1
  1
\C18;\c0;\FEffra|b0|i0|c1;\H17.983200;\W1.000000;32-1/4"(818 mm)
 73
     1
 44
1.0
  0
ENDBLK
  5
86
330
83
100
AcDbEntity
  8
0
100
AcDbBlockEnd
  0
BLOCK
  5
9A
330
98
100
AcDbEntity
  8
0
100
AcDbBlockBegin
  2
Block_1
 70
     0
 10
0.0
 20
0.0
 30
0.0
  3
Block_1
  1

  0
SPLINE
  5
9C
330
98
100
AcDbEntity
  8
图层 1
100
AcDbSpline
210
0.0
220
0.0
230
1.0
 70
     9
 71
     3
 72
    17
 73
    13
 74
     0
 42
0.0000000001
 43
0.0000000001
 40
0.0
 40
0.0
 40
0.0
 40
0.0
 40
1.0
 40
1.0
 40
1.0
 40
2.0
 40
2.0
 40
2.0
 40
3.0
 40
3.0
 40
3.0
 40
4.0
 40
4.0
 40
4.0
 40
4.0
 10
-667.084335324376
 20
-653.6678639879389
 30
0.0
 10
-675.3789978849843
 20
-653.6678639879389
 30
0.0
 10
-682.1289741327527
 20
-660.4178524141782
 30
0.0
 10
-682.1289741327527
 20
-668.7156752869823
 30
0.0
 10
-682.1289741327527
 20
-677.0118418882702
 30
0.0
 10
-675.3789978849843
 20
-683.7618303145025
 30
0.0
 10
-667.084335324376
 20
-683.7618303145025
 30
0.0
 10
-658.7865428977335
 20
-683.7618303145025
 30
0.0
 10
-652.0365666499686
 20
-677.0118418882702
 30
0.0
 10
-652.0365666499686
 20
-668.7156752869823
 30
0.0
 10
-652.0365666499686
 20
-660.4178524141782
 30
0.0
 10
-658.7865428977335
 20
-653.6678639879389
 30
0.0
 10
-667.084335324376
 20
-653.6678639879389
 30
0.0
  0
SPLINE
  5
9D
330
98
100
AcDbEntity
  8
图层 1
100
AcDbSpline
210
0.0
220
0.0
230
1.0
 70
     9
 71
     3
 72
    17
 73
    13
 74
     0
 42
0.0000000001
 43
0.0000000001
 40
0.0
 40
0.0
 40
0.0
 40
0.0
 40
1.0
 40
1.0
 40
1.0
 40
2.0
 40
2.0
 40
2.0
 40
3.0
 40
3.0
 40
3.0
 40
4.0
 40
4.0
 40
4.0
 40
4.0
 10
-667.084335324376
 20
-684.617927833361
 30
0.0
 10
-675.8516381014706
 20
-684.617927833361
 30
0.0
 10
-682.9850442500561
 20
-677.4844638370585
 30
0.0
 10
-682.9850442500561
 20
-668.7156752869823
 30
0.0
 10
-682.9850442500561
 20
-659.9452304653899
 30
0.0
 10
-675.8516381014706
 20
-652.810207625301
 30
0.0
 10
-667.084335324376
 20
-652.810207625301
 30
0.0
 10
-658.315473703498
 20
-652.810207625301
 30
0.0
 10
-651.1804995772788
 20
-659.9452304653899
 30
0.0
 10
-651.1804995772788
 20
-668.7156752869823
 30
0.0
 10
-651.1804995772788
 20
-677.4844638370585
 30
0.0
 10
-658.315473703498
 20
-684.617927833361
 30
0.0
 10
-667.084335324376
 20
-684.617927833361
 30
0.0
  0
HATCH
  5
9E
330
98
100
AcDbEntity
  8
图层 1
 62
   250
420
  2170655
440
 33554687
100
AcDbHatch
 10
0.0
 20
0.0
 30
0.0
210
0.0
220
0.0
230
1.0
  2
SOLID
 70
     1
 71
     1
 91
        2
 92
        1
 93
        2
 72
     4
 94
        3
 73
     0
 74
     0
 95
       17
 96
       13
 40
0.0
 40
0.0
 40
0.0
 40
0.0
 40
1.0
 40
1.0
 40
1.0
 40
2.0
 40
2.0
 40
2.0
 40
3.0
 40
3.0
 40
3.0
 40
4.0
 40
4.0
 40
4.0
 40
4.0
 10
-667.084335324376
 20
-653.6678639879389
 10
-675.3789978849843
 20
-653.6678639879389
 10
-682.1289741327527
 20
-660.4178524141782
 10
-682.1289741327527
 20
-668.7156752869823
 10
-682.1289741327527
 20
-677.0118418882702
 10
-675.3789978849843
 20
-683.7618303145025
 10
-667.084335324376
 20
-683.7618303145025
 10
-658.7865428977335
 20
-683.7618303145025
 10
-652.0365666499686
 20
-677.0118418882702
 10
-652.0365666499686
 20
-668.7156752869823
 10
-652.0365666499686
 20
-660.4178524141782
 10
-658.7865428977335
 20
-653.6678639879389
 10
-667.084335324376
 20
-653.6678639879389
 97
        0
 72
     1
 10
-667.084335324376
 20
-653.6678639879389
 11
-667.084335324376
 21
-653.6678639879389
 97
        0
 92
        1
 93
        2
 72
     4
 94
        3
 73
     0
 74
     0
 95
       17
 96
       13
 40
0.0
 40
0.0
 40
0.0
 40
0.0
 40
1.0
 40
1.0
 40
1.0
 40
2.0
 40
2.0
 40
2.0
 40
3.0
 40
3.0
 40
3.0
 40
4.0
 40
4.0
 40
4.0
 40
4.0
 10
-667.084335324376
 20
-684.617927833361
 10
-675.8516381014706
 20
-684.617927833361
 10
-682.9850442500561
 20
-677.4844638370585
 10
-682.9850442500561
 20
-668.7156752869823
 10
-682.9850442500561
 20
-659.9452304653899
 10
-675.8516381014706
 20
-652.810207625301
 10
-667.084335324376
 20
-652.810207625301
 10
-658.315473703498
 20
-652.810207625301
 10
-651.1804995772788
 20
-659.9452304653899
 10
-651.1804995772788
 20
-668.7156752869823
 10
-651.1804995772788
 20
-677.4844638370585
 10
-658.315473703498
 20
-684.617927833361
 10
-667.084335324376
 20
-684.617927833361
 97
        0
 72
     1
 10
-667.084335324376
 20
-684.617927833361
 11
-667.084335324376
 21
-684.617927833361
 97
        0
 75
     2
 76
     1
 98
        1
 10
0.0
 20
0.0
450
        0
451
        0
460
0.0
461
0.0
452
        0
462
0.0
453
        0
470

  0
LWPOLYLINE
  5
9F
330
98
100
AcDbEntity
  8
图层 1
100
AcDbPolyline
 90
        8
 70
     1
 43
0.0
 10
-674.0371195837115
 20
-667.7014525521102
 10
-674.0371195837115
 20
-661.6463187411605
 10
-675.8212558708336
 20
-661.6463187411605
 10
-675.8212558708336
 20
-675.4358508259094
 10
-674.0371195837115
 20
-675.4358508259094
 10
-674.0371195837115
 20
-669.3244037833734
 10
-672.0573544913429
 20
-669.3244037833734
 10
-672.0573544913429
 20
-667.7014525521102
  0
HATCH
  5
A0
330
98
100
AcDbEntity
  8
图层 1
 62
   250
420
  2170655
440
 33554687
100
AcDbHatch
 10
0.0
 20
0.0
 30
0.0
210
0.0
220
0.0
230
1.0
  2
SOLID
 70
     1
 71
     1
 91
        1
 92
        1
 93
        8
 72
     1
 10
-674.0371195837115
 20
-667.7014525521102
 11
-674.0371195837115
 21
-661.6463187411605
 72
     1
 10
-674.0371195837115
 20
-661.6463187411605
 11
-675.8212558708336
 21
-661.6463187411605
 72
     1
 10
-675.8212558708336
 20
-661.6463187411605
 11
-675.8212558708336
 21
-675.4358508259094
 72
     1
 10
-675.8212558708336
 20
-675.4358508259094
 11
-674.0371195837115
 21
-675.4358508259094
 72
     1
 10
-674.0371195837115
 20
-675.4358508259094
 11
-674.0371195837115
 21
-669.3244037833734
 72
     1
 10
-674.0371195837115
 20
-669.3244037833734
 11
-672.0573544913429
 21
-669.3244037833734
 72
     1
 10
-672.0573544913429
 20
-669.3244037833734
 11
-672.0573544913429
 21
-667.7014525521102
 72
     1
 10
-672.0573544913429
 20
-667.7014525521102
 11
-674.0371195837115
 21
-667.7014525521102
 97
        1
330
9F
 75
     2
 76
     1
 98
        1
 10
0.0
 20
0.0
450
        0
451
        0
460
0.0
461
0.0
452
        0
462
0.0
453
        0
470

  0
LWPOLYLINE
  5
A1
330
98
100
AcDbEntity
  8
图层 1
100
AcDbPolyline
 90
        8
 70
     1
 43
0.0
 10
-660.1063294598016
 20
-667.7014525521102
 10
-660.1063294598016
 20
-661.6463187411605
 10
-658.3237550610832
 20
-661.6463187411605
 10
-658.3237550610832
 20
-675.4358508259094
 10
-660.1063294598016
 20
-675.4358508259094
 10
-660.1063294598016
 20
-669.3244037833734
 10
-662.0829616415268
 20
-669.3244037833734
 10
-662.0829616415268
 20
-667.7014525521102
  0
HATCH
  5
A2
330
98
100
AcDbEntity
  8
图层 1
 62
   250
420
  2170655
440
 33554687
100
AcDbHatch
 10
0.0
 20
0.0
 30
0.0
210
0.0
220
0.0
230
1.0
  2
SOLID
 70
     1
 71
     1
 91
        1
 92
        1
 93
        8
 72
     1
 10
-660.1063294598016
 20
-667.7014525521102
 11
-660.1063294598016
 21
-661.6463187411605
 72
     1
 10
-660.1063294598016
 20
-661.6463187411605
 11
-658.3237550610832
 21
-661.6463187411605
 72
     1
 10
-658.3237550610832
 20
-661.6463187411605
 11
-658.3237550610832
 21
-675.4358508259094
 72
     1
 10
-658.3237550610832
 20
-675.4358508259094
 11
-660.1063294598016
 21
-675.4358508259094
 72
     1
 10
-660.1063294598016
 20
-675.4358508259094
 11
-660.1063294598016
 21
-669.3244037833734
 72
     1
 10
-660.1063294598016
 20
-669.3244037833734
 11
-662.0829616415268
 21
-669.3244037833734
 72
     1
 10
-662.0829616415268
 20
-669.3244037833734
 11
-662.0829616415268
 21
-667.7014525521102
 72
     1
 10
-662.0829616415268
 20
-667.7014525521102
 11
-660.1063294598016
 21
-667.7014525521102
 97
        1
330
A1
 75
     2
 76
     1
 98
        1
 10
0.0
 20
0.0
450
        0
451
        0
460
0.0
461
0.0
452
        0
462
0.0
453
        0
470

  0
SPLINE
  5
A3
330
98
100
AcDbEntity
  8
图层 1
100
AcDbSpline
210
0.0
220
0.0
230
1.0
 70
     9
 71
     3
 72
   155
 73
   151
 74
     0
 42
0.0000000001
 43
0.0000000001
 40
0.0
 40
0.0
 40
0.0
 40
0.0
 40
1.0
 40
1.0
 40
1.0
 40
2.0
 40
2.0
 40
2.0
 40
3.0
 40
3.0
 40
3.0
 40
4.0
 40
4.0
 40
4.0
 40
5.0
 40
5.0
 40
5.0
 40
6.0
 40
6.0
 40
6.0
 40
7.0
 40
7.0
 40
7.0
 40
8.0
 40
8.0
 40
8.0
 40
9.0
 40
9.0
 40
9.0
 40
10.0
 40
10.0
 40
10.0
 40
11.0
 40
11.0
 40
11.0
 40
12.0
 40
12.0
 40
12.0
 40
13.0
 40
13.0
 40
13.0
 40
14.0
 40
14.0
 40
14.0
 40
15.0
 40
15.0
 40
15.0
 40
16.0
 40
16.0
 40
16.0
 40
17.0
 40
17.0
 40
17.0
 40
18.0
 40
18.0
 40
18.0
 40
19.0
 40
19.0
 40
19.0
 40
20.0
 40
20.0
 40
20.0
 40
21.0
 40
21.0
 40
21.0
 40
22.0
 40
22.0
 40
22.0
 40
23.0
 40
23.0
 40
23.0
 40
24.0
 40
24.0
 40
24.0
 40
25.0
 40
25.0
 40
25.0
 40
26.0
 40
26.0
 40
26.0
 40
27.0
 40
27.0
 40
27.0
 40
28.0
 40
28.0
 40
28.0
 40
29.0
 40
29.0
 40
29.0
 40
30.0
 40
30.0
 40
30.0
 40
31.0
 40
31.0
 40
31.0
 40
32.0
 40
32.0
 40
32.0
 40
33.0
 40
33.0
 40
33.0
 40
34.0
 40
34.0
 40
34.0
 40
35.0
 40
35.0
 40
35.0
 40
36.0
 40
36.0
 40
36.0
 40
37.0
 40
37.0
 40
37.0
 40
38.0
 40
38.0
 40
38.0
 40
39.0
 40
39.0
 40
39.0
 40
40.0
 40
40.0
 40
40.0
 40
41.0
 40
41.0
 40
41.0
 40
42.0
 40
42.0
 40
42.0
 40
43.0
 40
43.0
 40
43.0
 40
44.0
 40
44.0
 40
44.0
 40
45.0
 40
45.0
 40
45.0
 40
46.0
 40
46.0
 40
46.0
 40
47.0
 40
47.0
 40
47.0
 40
48.0
 40
48.0
 40
48.0
 40
49.0
 40
49.0
 40
49.0
 40
50.0
 40
50.0
 40
50.0
 40
50.0
 10
-662.3965906585215
 20
-670.2699399641511
 30
0.0
 10
-662.6579557842269
 20
-669.7487990026915
 30
0.0
 10
-663.0179086452134
 20
-669.3058925134722
 30
0.0
 10
-663.4561142461518
 20
-668.9427793402977
 30
0.0
 10
-663.880241539194
 20
-668.5937931888713
 30
0.0
 10
-664.3622683091464
 20
-668.3121296032282
 30
0.0
 10
-664.9022067344804
 20
-668.1023676869814
 30
0.0
 10
-665.4077105442671
 20
-667.9082916362736
 30
0.0
 10
-665.9319935502203
 20
-667.7549403793421
 30
0.0
 10
-666.4484549357204
 20
-667.6109421850915
 30
0.0
 10
-666.8678813404851
 20
-667.4935417628549
 30
0.0
 10
-667.1887139207348
 20
-667.3809152996926
 30
0.0
 10
-667.7114319936747
 20
-667.2056428020897
 30
0.0
 10
-668.1574683489172
 20
-667.0663211391889
 30
0.0
 10
-668.5706380662455
 20
-666.8988428604867
 30
0.0
 10
-668.9368537039056
 20
-666.6954137470942
 30
0.0
 10
-669.2733356142959
 20
-666.4982200088277
 30
0.0
 10
-669.5534738469375
 20
-666.2462718827567
 30
0.0
 10
-669.7600571832918
 20
-665.9582754942594
 30
0.0
 10
-669.9509942341225
 20
-665.6844061275286
 30
0.0
 10
-670.0448963042145
 20
-665.3228517981226
 30
0.0
 10
-670.0448963042145
 20
-664.8862781117717
 30
0.0
 10
-670.0448963042145
 20
-664.587369816807
 30
0.0
 10
-669.9901206040967
 20
-664.2931380531875
 30
0.0
 10
-669.8790012262308
 20
-664.0144947273709
 30
0.0
 10
-669.7694498259955
 20
-663.7453018919784
 30
0.0
 10
-669.5972950159552
 20
-663.4917949221248
 30
0.0
 10
-669.3641078183572
 20
-663.2711210994107
 30
0.0
 10
-669.1246547994727
 20
-663.0457707453539
 30
0.0
 10
-668.8132148619266
 20
-662.8627040288463
 30
0.0
 10
-668.446999224263
 20
-662.7233823659447
 30
0.0
 10
-668.0588684351683
 20
-662.5809430154742
 30
0.0
 10
-667.5909260623427
 20
-662.5120616059076
 30
0.0
 10
-667.0541235922724
 20
-662.5120616059076
 30
0.0
 10
-666.561136201986
 20
-662.5120616059076
 30
0.0
 10
-666.1385799311911
 20
-662.5621394623687
 30
0.0
 10
-665.7770590925743
 20
-662.6560598001621
 30
0.0
 10
-665.4202300083806
 20
-662.7593332006358
 30
0.0
 10
-665.1056571601874
 20
-662.876733622873
 30
0.0
 10
-664.8411682576892
 20
-663.0300848798116
 30
0.0
 10
-664.5954585513575
 20
-663.1725242302752
 30
0.0
 10
-664.368528041203
 20
-663.3400025089733
 30
0.0
 10
-664.182291878653
 20
-663.5137161628001
 30
0.0
 10
-663.9866630733991
 20
-663.7062333697246
 30
0.0
 10
-663.836417325556
 20
-663.8736142206798
 30
0.0
 10
-663.7221711262806
 20
-664.0223863740085
 30
0.0
 10
-663.7221711262806
 20
-664.0223863740085
 30
0.0
 10
-663.4952436607428
 20
-664.3306477316579
 30
0.0
 10
-663.4952436607428
 20
-664.3306477316579
 30
0.0
 10
-663.4952436607428
 20
-664.3306477316579
 30
0.0
 10
-662.216614228028
 20
-663.2429644836211
 30
0.0
 10
-662.216614228028
 20
-663.2429644836211
 30
0.0
 10
-662.216614228028
 20
-663.2429644836211
 30
0.0
 10
-662.4122430332817
 20
-662.9706539606659
 30
0.0
 10
-662.4122430332817
 20
-662.9706539606659
 30
0.0
 10
-662.5687424239446
 20
-662.7562155130732
 30
0.0
 10
-662.7800266485758
 20
-662.5215120963355
 30
0.0
 10
-663.044515551074
 20
-662.2616723236205
 30
0.0
 10
-663.3043096545325
 20
-662.0081653537702
 30
0.0
 10
-663.6251422347787
 20
-661.7796973121515
 30
0.0
 10
-664.0038773365526
 20
-661.565258864562
 30
0.0
 10
-664.3622683091464
 20
-661.3680651262915
 30
0.0
 10
-664.8036068207284
 20
-661.1943514724718
 30
0.0
 10
-665.3044188760848
 20
-661.048794434445
 30
0.0
 10
-665.7989681547713
 20
-660.9141493028759
 30
0.0
 10
-666.3749000394325
 20
-660.8469241648358
 30
0.0
 10
-667.0087344456247
 20
-660.8469241648358
 30
0.0
 10
-667.7489934306358
 20
-660.8469241648358
 30
0.0
 10
-668.4235252290489
 20
-660.9501975653102
 30
0.0
 10
-669.0104086001938
 20
-661.1536266787027
 30
0.0
 10
-669.5972950159552
 20
-661.3570557920952
 30
0.0
 10
-670.1059317363854
 20
-661.6466110243752
 30
0.0
 10
-670.5222282751233
 20
-662.0081653537702
 30
0.0
 10
-670.9447845459147
 20
-662.3665045678814
 30
0.0
 10
-671.2703119252079
 20
-662.8062933695271
 30
0.0
 10
-671.4909827033055
 20
-663.2930423400782
 30
0.0
 10
-671.7069586823631
 20
-663.7875855295276
 30
0.0
 10
-671.8180750156086
 20
-664.3071676472142
 30
0.0
 10
-671.8180750156086
 20
-664.8408767866495
 30
0.0
 10
-671.8180750156086
 20
-665.6139658741826
 30
0.0
 10
-671.6709621784192
 20
-666.2634191643429
 30
0.0
 10
-671.3736035933832
 20
-666.7814424382502
 30
0.0
 10
-671.0731181869374
 20
-667.277641899215
 30
0.0
 10
-670.6881203084898
 20
-667.6922943449016
 30
0.0
 10
-670.2201779356642
 20
-668.0084473491886
 30
0.0
 10
-669.775709558052
 20
-668.3214826659162
 30
0.0
 10
-669.2514235074784
 20
-668.5687542606444
 30
0.0
 10
-668.6707968237737
 20
-668.7612714675696
 30
0.0
 10
-668.1527735498771
 20
-668.9365439651757
 30
0.0
 10
-667.8147236618538
 20
-669.0586209187549
 30
0.0
 10
-667.1965385858051
 20
-669.2495792818968
 30
0.0
 10
-666.7552031188399
 20
-669.3825681419435
 30
0.0
 10
-666.3138615626445
 20
-669.5203309610759
 30
0.0
 10
-665.8897373142195
 20
-669.676799905563
 30
0.0
 10
-665.4843983511986
 20
-669.8223569436001
 30
0.0
 10
-665.1213095349444
 20
-670.0101001914426
 30
0.0
 10
-664.8114345304152
 20
-670.2355479732394
 30
0.0
 10
-664.5062543249295
 20
-670.4686925462009
 30
0.0
 10
-664.2621065069978
 20
-670.7472384442781
 30
0.0
 10
-664.085256897914
 20
-671.0618326047852
 30
0.0
 10
-663.905280467421
 20
-671.3748679215102
 30
0.0
 10
-663.8129433303423
 20
-671.778608460732
 30
0.0
 10
-663.8129433303423
 20
-672.2387596592697
 30
0.0
 10
-663.8129433303423
 20
-672.6738719295842
 30
0.0
 10
-663.8958878247206
 20
-673.0667005623387
 30
0.0
 10
-664.0570881036607
 20
-673.4062362233372
 30
0.0
 10
-664.2292429136975
 20
-673.7411927807297
 30
0.0
 10
-664.4561703792383
 20
-674.0150621474676
 30
0.0
 10
-664.7410064555404
 20
-674.2231677921989
 30
0.0
 10
-665.039926928973
 20
-674.4501744177783
 30
0.0
 10
-665.4108404102903
 20
-674.6238880715947
 30
0.0
 10
-665.8287018820451
 20
-674.7349556909738
 30
0.0
 10
-666.2528261304665
 20
-674.8507972694381
 30
0.0
 10
-666.7348559450395
 20
-674.9181198352135
 30
0.0
 10
-667.2653986830529
 20
-674.9181198352135
 30
0.0
 10
-668.1825072771476
 20
-674.9181198352135
 30
0.0
 10
-668.9587627661062
 20
-674.7380733785364
 30
0.0
 10
-669.5800807527981
 20
-674.40321424888
 30
0.0
 10
-670.1826164987035
 20
-674.068257691488
 30
0.0
 10
-670.7115973483203
 20
-673.6394782240316
 30
0.0
 10
-671.156065725929
 20
-673.1245726376979
 30
0.0
 10
-671.156065725929
 20
-673.1245726376979
 30
0.0
 10
-672.4425198237176
 20
-674.3624894551108
 30
0.0
 10
-672.4425198237176
 20
-674.3624894551108
 30
0.0
 10
-672.239069398007
 20
-674.6191141125159
 30
0.0
 10
-671.9933566470619
 20
-674.8727185101023
 30
0.0
 10
-671.7006989503031
 20
-675.1153135734847
 30
0.0
 10
-671.3657789283132
 20
-675.3938594715613
 30
0.0
 10
-670.9682646303657
 20
-675.6473664414149
 30
0.0
 10
-670.5144036100498
 20
-675.8680402641296
 30
0.0
 10
-670.0808897635416
 20
-676.0855963992811
 30
0.0
 10
-669.5847755518417
 20
-676.2593100531046
 30
0.0
 10
-669.0307527293807
 20
-676.4048670911308
 30
0.0
 10
-668.4814277505803
 20
-676.5300617322798
 30
0.0
 10
-667.8851517367318
 20
-676.602060829398
 30
0.0
 10
-667.2653986830529
 20
-676.602060829398
 30
0.0
 10
-666.548616737869
 20
-676.602060829398
 30
0.0
 10
-665.8615685199592
 20
-676.5065816478258
 30
0.0
 10
-665.2261661361365
 20
-676.306270221996
 30
0.0
 10
-664.5860659086574
 20
-676.1075176399454
 30
0.0
 10
-664.0273543763867
 20
-675.8210800952313
 30
0.0
 10
-663.5453245618135
 20
-675.4486138593649
 30
0.0
 10
-663.0726843453312
 20
-675.0745887797116
 30
0.0
 10
-662.6923843105408
 20
-674.6159964249533
 30
0.0
 10
-662.4075512788553
 20
-674.0792670256876
 30
0.0
 10
-662.1227091133192
 20
-673.5314308644791
 30
0.0
 10
-661.9834209411966
 20
-672.9132518776679
 30
0.0
 10
-661.9834209411966
 20
-672.2387596592697
 30
0.0
 10
-661.9834209411966
 20
-671.4672294155231
 30
0.0
 10
-662.1211472249227
 20
-670.8020902598173
 30
0.0
 10
-662.3965906585215
 20
-670.2699399641511
 30
0.0
  0
HATCH
  5
A4
330
98
100
AcDbEntity
  8
图层 1
 62
   250
420
  2170655
440
 33554687
100
AcDbHatch
 10
0.0
 20
0.0
 30
0.0
210
0.0
220
0.0
230
1.0
  2
SOLID
 70
     1
 71
     1
 91
        1
 92
        1
 93
        2
 72
     4
 94
        3
 73
     0
 74
     0
 95
      155
 96
      151
 40
0.0
 40
0.0
 40
0.0
 40
0.0
 40
1.0
 40
1.0
 40
1.0
 40
2.0
 40
2.0
 40
2.0
 40
3.0
 40
3.0
 40
3.0
 40
4.0
 40
4.0
 40
4.0
 40
5.0
 40
5.0
 40
5.0
 40
6.0
 40
6.0
 40
6.0
 40
7.0
 40
7.0
 40
7.0
 40
8.0
 40
8.0
 40
8.0
 40
9.0
 40
9.0
 40
9.0
 40
10.0
 40
10.0
 40
10.0
 40
11.0
 40
11.0
 40
11.0
 40
12.0
 40
12.0
 40
12.0
 40
13.0
 40
13.0
 40
13.0
 40
14.0
 40
14.0
 40
14.0
 40
15.0
 40
15.0
 40
15.0
 40
16.0
 40
16.0
 40
16.0
 40
17.0
 40
17.0
 40
17.0
 40
18.0
 40
18.0
 40
18.0
 40
19.0
 40
19.0
 40
19.0
 40
20.0
 40
20.0
 40
20.0
 40
21.0
 40
21.0
 40
21.0
 40
22.0
 40
22.0
 40
22.0
 40
23.0
 40
23.0
 40
23.0
 40
24.0
 40
24.0
 40
24.0
 40
25.0
 40
25.0
 40
25.0
 40
26.0
 40
26.0
 40
26.0
 40
27.0
 40
27.0
 40
27.0
 40
28.0
 40
28.0
 40
28.0
 40
29.0
 40
29.0
 40
29.0
 40
30.0
 40
30.0
 40
30.0
 40
31.0
 40
31.0
 40
31.0
 40
32.0
 40
32.0
 40
32.0
 40
33.0
 40
33.0
 40
33.0
 40
34.0
 40
34.0
 40
34.0
 40
35.0
 40
35.0
 40
35.0
 40
36.0
 40
36.0
 40
36.0
 40
37.0
 40
37.0
 40
37.0
 40
38.0
 40
38.0
 40
38.0
 40
39.0
 40
39.0
 40
39.0
 40
40.0
 40
40.0
 40
40.0
 40
41.0
 40
41.0
 40
41.0
 40
42.0
 40
42.0
 40
42.0
 40
43.0
 40
43.0
 40
43.0
 40
44.0
 40
44.0
 40
44.0
 40
45.0
 40
45.0
 40
45.0
 40
46.0
 40
46.0
 40
46.0
 40
47.0
 40
47.0
 40
47.0
 40
48.0
 40
48.0
 40
48.0
 40
49.0
 40
49.0
 40
49.0
 40
50.0
 40
50.0
 40
50.0
 40
50.0
 10
-662.3965906585215
 20
-670.2699399641511
 10
-662.6579557842269
 20
-669.7487990026915
 10
-663.0179086452134
 20
-669.3058925134722
 10
-663.4561142461518
 20
-668.9427793402977
 10
-663.880241539194
 20
-668.5937931888713
 10
-664.3622683091464
 20
-668.3121296032282
 10
-664.9022067344804
 20
-668.1023676869814
 10
-665.4077105442671
 20
-667.9082916362736
 10
-665.9319935502203
 20
-667.7549403793421
 10
-666.4484549357204
 20
-667.6109421850915
 10
-666.8678813404851
 20
-667.4935417628549
 10
-667.1887139207348
 20
-667.3809152996926
 10
-667.7114319936747
 20
-667.2056428020897
 10
-668.1574683489172
 20
-667.0663211391889
 10
-668.5706380662455
 20
-666.8988428604867
 10
-668.9368537039056
 20
-666.6954137470942
 10
-669.2733356142959
 20
-666.4982200088277
 10
-669.5534738469375
 20
-666.2462718827567
 10
-669.7600571832918
 20
-665.9582754942594
 10
-669.9509942341225
 20
-665.6844061275286
 10
-670.0448963042145
 20
-665.3228517981226
 10
-670.0448963042145
 20
-664.8862781117717
 10
-670.0448963042145
 20
-664.587369816807
 10
-669.9901206040967
 20
-664.2931380531875
 10
-669.8790012262308
 20
-664.0144947273709
 10
-669.7694498259955
 20
-663.7453018919784
 10
-669.5972950159552
 20
-663.4917949221248
 10
-669.3641078183572
 20
-663.2711210994107
 10
-669.1246547994727
 20
-663.0457707453539
 10
-668.8132148619266
 20
-662.8627040288463
 10
-668.446999224263
 20
-662.7233823659447
 10
-668.0588684351683
 20
-662.5809430154742
 10
-667.5909260623427
 20
-662.5120616059076
 10
-667.0541235922724
 20
-662.5120616059076
 10
-666.561136201986
 20
-662.5120616059076
 10
-666.1385799311911
 20
-662.5621394623687
 10
-665.7770590925743
 20
-662.6560598001621
 10
-665.4202300083806
 20
-662.7593332006358
 10
-665.1056571601874
 20
-662.876733622873
 10
-664.8411682576892
 20
-663.0300848798116
 10
-664.5954585513575
 20
-663.1725242302752
 10
-664.368528041203
 20
-663.3400025089733
 10
-664.182291878653
 20
-663.5137161628001
 10
-663.9866630733991
 20
-663.7062333697246
 10
-663.836417325556
 20
-663.8736142206798
 10
-663.7221711262806
 20
-664.0223863740085
 10
-663.7221711262806
 20
-664.0223863740085
 10
-663.4952436607428
 20
-664.3306477316579
 10
-663.4952436607428
 20
-664.3306477316579
 10
-663.4952436607428
 20
-664.3306477316579
 10
-662.216614228028
 20
-663.2429644836211
 10
-662.216614228028
 20
-663.2429644836211
 10
-662.216614228028
 20
-663.2429644836211
 10
-662.4122430332817
 20
-662.9706539606659
 10
-662.4122430332817
 20
-662.9706539606659
 10
-662.5687424239446
 20
-662.7562155130732
 10
-662.7800266485758
 20
-662.5215120963355
 10
-663.044515551074
 20
-662.2616723236205
 10
-663.3043096545325
 20
-662.0081653537702
 10
-663.6251422347787
 20
-661.7796973121515
 10
-664.0038773365526
 20
-661.565258864562
 10
-664.3622683091464
 20
-661.3680651262915
 10
-664.8036068207284
 20
-661.1943514724718
 10
-665.3044188760848
 20
-661.048794434445
 10
-665.7989681547713
 20
-660.9141493028759
 10
-666.3749000394325
 20
-660.8469241648358
 10
-667.0087344456247
 20
-660.8469241648358
 10
-667.7489934306358
 20
-660.8469241648358
 10
-668.4235252290489
 20
-660.9501975653102
 10
-669.0104086001938
 20
-661.1536266787027
 10
-669.5972950159552
 20
-661.3570557920952
 10
-670.1059317363854
 20
-661.6466110243752
 10
-670.5222282751233
 20
-662.0081653537702
 10
-670.9447845459147
 20
-662.3665045678814
 10
-671.2703119252079
 20
-662.8062933695271
 10
-671.4909827033055
 20
-663.2930423400782
 10
-671.7069586823631
 20
-663.7875855295276
 10
-671.8180750156086
 20
-664.3071676472142
 10
-671.8180750156086
 20
-664.8408767866495
 10
-671.8180750156086
 20
-665.6139658741826
 10
-671.6709621784192
 20
-666.2634191643429
 10
-671.3736035933832
 20
-666.7814424382502
 10
-671.0731181869374
 20
-667.277641899215
 10
-670.6881203084898
 20
-667.6922943449016
 10
-670.2201779356642
 20
-668.0084473491886
 10
-669.775709558052
 20
-668.3214826659162
 10
-669.2514235074784
 20
-668.5687542606444
 10
-668.6707968237737
 20
-668.7612714675696
 10
-668.1527735498771
 20
-668.9365439651757
 10
-667.8147236618538
 20
-669.0586209187549
 10
-667.1965385858051
 20
-669.2495792818968
 10
-666.7552031188399
 20
-669.3825681419435
 10
-666.3138615626445
 20
-669.5203309610759
 10
-665.8897373142195
 20
-669.676799905563
 10
-665.4843983511986
 20
-669.8223569436001
 10
-665.1213095349444
 20
-670.0101001914426
 10
-664.8114345304152
 20
-670.2355479732394
 10
-664.5062543249295
 20
-670.4686925462009
 10
-664.2621065069978
 20
-670.7472384442781
 10
-664.085256897914
 20
-671.0618326047852
 10
-663.905280467421
 20
-671.3748679215102
 10
-663.8129433303423
 20
-671.778608460732
 10
-663.8129433303423
 20
-672.2387596592697
 10
-663.8129433303423
 20
-672.6738719295842
 10
-663.8958878247206
 20
-673.0667005623387
 10
-664.0570881036607
 20
-673.4062362233372
 10
-664.2292429136975
 20
-673.7411927807297
 10
-664.4561703792383
 20
-674.0150621474676
 10
-664.7410064555404
 20
-674.2231677921989
 10
-665.039926928973
 20
-674.4501744177783
 10
-665.4108404102903
 20
-674.6238880715947
 10
-665.8287018820451
 20
-674.7349556909738
 10
-666.2528261304665
 20
-674.8507972694381
 10
-666.7348559450395
 20
-674.9181198352135
 10
-667.2653986830529
 20
-674.9181198352135
 10
-668.1825072771476
 20
-674.9181198352135
 10
-668.9587627661062
 20
-674.7380733785364
 10
-669.5800807527981
 20
-674.40321424888
 10
-670.1826164987035
 20
-674.068257691488
 10
-670.7115973483203
 20
-673.6394782240316
 10
-671.156065725929
 20
-673.1245726376979
 10
-671.156065725929
 20
-673.1245726376979
 10
-672.4425198237176
 20
-674.3624894551108
 10
-672.4425198237176
 20
-674.3624894551108
 10
-672.239069398007
 20
-674.6191141125159
 10
-671.9933566470619
 20
-674.8727185101023
 10
-671.7006989503031
 20
-675.1153135734847
 10
-671.3657789283132
 20
-675.3938594715613
 10
-670.9682646303657
 20
-675.6473664414149
 10
-670.5144036100498
 20
-675.8680402641296
 10
-670.0808897635416
 20
-676.0855963992811
 10
-669.5847755518417
 20
-676.2593100531046
 10
-669.0307527293807
 20
-676.4048670911308
 10
-668.4814277505803
 20
-676.5300617322798
 10
-667.8851517367318
 20
-676.602060829398
 10
-667.2653986830529
 20
-676.602060829398
 10
-666.548616737869
 20
-676.602060829398
 10
-665.8615685199592
 20
-676.5065816478258
 10
-665.2261661361365
 20
-676.306270221996
 10
-664.5860659086574
 20
-676.1075176399454
 10
-664.0273543763867
 20
-675.8210800952313
 10
-663.5453245618135
 20
-675.4486138593649
 10
-663.0726843453312
 20
-675.0745887797116
 10
-662.6923843105408
 20
-674.6159964249533
 10
-662.4075512788553
 20
-674.0792670256876
 10
-662.1227091133192
 20
-673.5314308644791
 10
-661.9834209411966
 20
-672.9132518776679
 10
-661.9834209411966
 20
-672.2387596592697
 10
-661.9834209411966
 20
-671.4672294155231
 10
-662.1211472249227
 20
-670.8020902598173
 10
-662.3965906585215
 20
-670.2699399641511
 97
        0
 72
     1
 10
-662.3965906585215
 20
-670.2699399641512
 11
-662.3965906585215
 21
-670.2699399641511
 97
        0
 75
     2
 76
     1
 98
        1
 10
0.0
 20
0.0
450
        0
451
        0
460
0.0
461
0.0
452
        0
462
0.0
453
        0
470

  0
SPLINE
  5
A5
330
98
100
AcDbEntity
  8
图层 1
100
AcDbSpline
210
0.0
220
0.0
230
1.0
 70
     9
 71
     3
 72
   149
 73
   145
 74
     0
 42
0.0000000001
 43
0.0000000001
 40
0.0
 40
0.0
 40
0.0
 40
0.0
 40
1.0
 40
1.0
 40
1.0
 40
2.0
 40
2.0
 40
2.0
 40
3.0
 40
3.0
 40
3.0
 40
4.0
 40
4.0
 40
4.0
 40
5.0
 40
5.0
 40
5.0
 40
6.0
 40
6.0
 40
6.0
 40
7.0
 40
7.0
 40
7.0
 40
8.0
 40
8.0
 40
8.0
 40
9.0
 40
9.0
 40
9.0
 40
10.0
 40
10.0
 40
10.0
 40
11.0
 40
11.0
 40
11.0
 40
12.0
 40
12.0
 40
12.0
 40
13.0
 40
13.0
 40
13.0
 40
14.0
 40
14.0
 40
14.0
 40
15.0
 40
15.0
 40
15.0
 40
16.0
 40
16.0
 40
16.0
 40
17.0
 40
17.0
 40
17.0
 40
18.0
 40
18.0
 40
18.0
 40
19.0
 40
19.0
 40
19.0
 40
20.0
 40
20.0
 40
20.0
 40
21.0
 40
21.0
 40
21.0
 40
22.0
 40
22.0
 40
22.0
 40
23.0
 40
23.0
 40
23.0
 40
24.0
 40
24.0
 40
24.0
 40
25.0
 40
25.0
 40
25.0
 40
26.0
 40
26.0
 40
26.0
 40
27.0
 40
27.0
 40
27.0
 40
28.0
 40
28.0
 40
28.0
 40
29.0
 40
29.0
 40
29.0
 40
30.0
 40
30.0
 40
30.0
 40
31.0
 40
31.0
 40
31.0
 40
32.0
 40
32.0
 40
32.0
 40
33.0
 40
33.0
 40
33.0
 40
34.0
 40
34.0
 40
34.0
 40
35.0
 40
35.0
 40
35.0
 40
36.0
 40
36.0
 40
36.0
 40
37.0
 40
37.0
 40
37.0
 40
38.0
 40
38.0
 40
38.0
 40
39.0
 40
39.0
 40
39.0
 40
40.0
 40
40.0
 40
40.0
 40
41.0
 40
41.0
 40
41.0
 40
42.0
 40
42.0
 40
42.0
 40
43.0
 40
43.0
 40
43.0
 40
44.0
 40
44.0
 40
44.0
 40
45.0
 40
45.0
 40
45.0
 40
46.0
 40
46.0
 40
46.0
 40
47.0
 40
47.0
 40
47.0
 40
48.0
 40
48.0
 40
48.0
 40
48.0
 10
-640.6028189612177
 20
-672.8119270319173
 30
0.0
 10
-640.1411393650692
 20
-673.3691162558105
 30
0.0
 10
-639.5886814756216
 20
-673.8229346514835
 30
0.0
 10
-638.9438925383293
 20
-674.176597334252
 30
0.0
 10
-638.3006624448197
 20
-674.527239757183
 30
0.0
 10
-637.5165822907911
 20
-674.7040710985685
 30
0.0
 10
-636.59478194227
 20
-674.7040710985685
 30
0.0
 10
-636.0642331150228
 20
-674.7040710985685
 30
0.0
 10
-635.5790734344234
 20
-674.6414250641246
 30
0.0
 10
-635.1393029004715
 20
-674.5209069543248
 30
0.0
 10
-634.6979613442726
 20
-674.3988300007455
 30
0.0
 10
-634.3176582648653
 20
-674.2188809718006
 30
0.0
 10
-633.9999585952626
 20
-673.9825212835474
 30
0.0
 10
-633.6806939926465
 20
-673.7447001792361
 30
0.0
 10
-633.4334163086879
 20
-673.4473507280507
 30
0.0
 10
-633.2565727888384
 20
-673.085796398655
 30
0.0
 10
-633.0812820235343
 20
-672.7274571845446
 30
0.0
 10
-632.992080841723
 20
-672.3095896235632
 30
0.0
 10
-632.992080841723
 20
-671.8353114032588
 30
0.0
 10
-632.992080841723
 20
-671.3329739949046
 30
0.0
 10
-633.0906716216211
 20
-670.9057533712386
 30
0.0
 10
-633.2863004268749
 20
-670.5535521045174
 30
0.0
 10
-633.4834941651457
 20
-670.1983305779695
 30
0.0
 10
-633.746427268481
 20
-669.90409881435
 30
0.0
 10
-634.070380580907
 20
-669.6677391260898
 30
0.0
 10
-634.3974820270606
 20
-669.4299180217893
 30
0.0
 10
-634.7652595531208
 20
-669.2358419710816
 30
0.0
 10
-635.1799972480757
 20
-669.0871672454851
 30
0.0
 10
-635.5931639207838
 20
-668.9384925198994
 30
0.0
 10
-636.011025392535
 20
-668.8022885445502
 30
0.0
 10
-636.4304517973001
 20
-668.6802115909678
 30
0.0
 10
-636.9469101381869
 20
-668.5441050433618
 30
0.0
 10
-637.4633745683038
 20
-668.3923126302058
 30
0.0
 10
-637.9782679761773
 20
-668.223275507725
 30
0.0
 10
-638.4931613840469
 20
-668.0526795414719
 30
0.0
 10
-638.9548470694294
 20
-667.8288880311905
 30
0.0
 10
-639.3617540100806
 20
-667.5503421331178
 30
0.0
 10
-639.7686609507317
 20
-667.2732576510845
 30
0.0
 10
-640.0973151514349
 20
-666.9195949683161
 30
0.0
 10
-640.3492876344365
 20
-666.4923743446493
 30
0.0
 10
-640.5996890951914
 20
-666.0650562932406
 30
0.0
 10
-640.7233309817836
 20
-665.5141998722121
 30
0.0
 10
-640.7233309817836
 20
-664.8333748509596
 30
0.0
 10
-640.7233309817836
 20
-664.3733210801548
 30
0.0
 10
-640.6294289116917
 20
-663.9319734347258
 30
0.0
 10
-640.4400598384983
 20
-663.5109881861811
 30
0.0
 10
-640.2506907653013
 20
-663.0915617814127
 30
0.0
 10
-639.976809220099
 20
-662.7253309206685
 30
0.0
 10
-639.6152914260954
 20
-662.4122956039371
 30
0.0
 10
-639.2568974088885
 20
-662.0992602872127
 30
0.0
 10
-638.8155558526896
 20
-661.8519886924883
 30
0.0
 10
-638.2944027127631
 20
-661.6704808197633
 30
0.0
 10
-637.7716846398197
 20
-661.4857578317396
 30
0.0
 10
-637.1785324027711
 20
-661.3950526092454
 30
0.0
 10
-636.5133993362916
 20
-661.3950526092454
 30
0.0
 10
-635.9421622506739
 20
-661.3950526092454
 30
0.0
 10
-635.4382172846702
 20
-661.4560423721744
 30
0.0
 10
-634.9968879069353
 20
-661.5796781695332
 30
0.0
 10
-634.5555463507404
 20
-661.698637435553
 30
0.0
 10
-634.1689774500422
 20
-661.8519886924883
 30
0.0
 10
-633.8371933833092
 20
-662.0367116805113
 30
0.0
 10
-633.505409316576
 20
-662.2182195532325
 30
0.0
 10
-633.2268329723303
 20
-662.4200898228417
 30
0.0
 10
-633.0030353728196
 20
-662.6360871142209
 30
0.0
 10
-632.7776667510651
 20
-662.8536432493731
 30
0.0
 10
-632.5914275438948
 20
-663.0633077378877
 30
0.0
 10
-632.4427528183019
 20
-663.2683931227957
 30
0.0
 10
-632.4427528183019
 20
-663.2683931227957
 30
0.0
 10
-633.1344958352556
 20
-663.8568566500379
 30
0.0
 10
-633.1344958352556
 20
-663.8568566500379
 30
0.0
 10
-633.2565727888384
 20
-663.6940549026824
 30
0.0
 10
-633.413072179501
 20
-663.5203412488659
 30
0.0
 10
-633.6024412526983
 20
-663.3388333761376
 30
0.0
 10
-633.7933752589083
 20
-663.1541103881179
 30
0.0
 10
-634.0234325904759
 20
-662.9850732656371
 30
0.0
 10
-634.2941842696517
 20
-662.8301631649293
 30
0.0
 10
-634.5665008818367
 20
-662.6752530642075
 30
0.0
 10
-634.8873365067036
 20
-662.543725620208
 30
0.0
 10
-635.2598088318074
 20
-662.4451287510757
 30
0.0
 10
-635.6354110229374
 20
-662.341855350602
 30
0.0
 10
-636.0642331150228
 20
-662.2917774941372
 30
0.0
 10
-636.5540875946622
 20
-662.2917774941372
 30
0.0
 10
-637.10967535014
 20
-662.2917774941372
 30
0.0
 10
-637.5870103656659
 20
-662.365335435042
 30
0.0
 10
-637.9876575742605
 20
-662.5140101606352
 30
0.0
 10
-638.3883047828548
 20
-662.6626848862279
 30
0.0
 10
-638.7169589835544
 20
-662.8614374682745
 30
0.0
 10
-638.9751911986129
 20
-663.1040325316568
 30
0.0
 10
-639.2318523914278
 20
-663.3481864388256
 30
0.0
 10
-639.4227924868754
 20
-663.6236146493435
 30
0.0
 10
-639.5432984182041
 20
-663.9288557471632
 30
0.0
 10
-639.6669342155663
 20
-664.23399941725
 30
0.0
 10
-639.7279726923578
 20
-664.550152421537
 30
0.0
 10
-639.7279726923578
 20
-664.8756584885088
 30
0.0
 10
-639.7279726923578
 20
-665.3624074590568
 30
0.0
 10
-639.6152914260954
 20
-665.7661479982785
 30
0.0
 10
-639.3914877373508
 20
-666.0869775339152
 30
0.0
 10
-639.1692550708569
 20
-666.4046893819817
 30
0.0
 10
-638.873464463451
 20
-666.6692056860322
 30
0.0
 10
-638.5072457811737
 20
-666.87887017455
 30
0.0
 10
-638.1410270988928
 20
-667.0886320907968
 30
0.0
 10
-637.7309902922154
 20
-667.2623457446203
 30
0.0
 10
-637.2755643388898
 20
-667.3984522922258
 30
0.0
 10
-636.821709407811
 20
-667.5330974237884
 30
0.0
 10
-636.3631535884555
 20
-667.6614097525
 30
0.0
 10
-635.9014739923033
 20
-667.7850455498555
 30
0.0
 10
-635.42726275357
 20
-667.9071225034379
 30
0.0
 10
-634.9530636933048
 20
-668.0604737603765
 30
0.0
 10
-634.4772936107921
 20
-668.2420790608376
 30
0.0
 10
-634.0030884612925
 20
-668.4251457773381
 30
0.0
 10
-633.5789672574808
 20
-668.6692996845037
 30
0.0
 10
-633.2064888431469
 20
-668.9760021983699
 30
0.0
 10
-632.8340104288096
 20
-669.2796844524134
 30
0.0
 10
-632.5272652903105
 20
-669.6646214385303
 30
0.0
 10
-632.2893832936695
 20
-670.1247726370681
 30
0.0
 10
-632.0530601408076
 20
-670.5864826793819
 30
0.0
 10
-631.9341191424888
 20
-671.1561426535192
 30
0.0
 10
-631.9341191424888
 20
-671.8353114032588
 30
0.0
 10
-631.9341191424888
 20
-672.4175395553796
 30
0.0
 10
-632.0561900068415
 20
-672.9433570481806
 30
0.0
 10
-632.3003378247696
 20
-673.4113024656267
 30
0.0
 10
-632.544479553464
 20
-673.8792478830698
 30
0.0
 10
-632.8731337541669
 20
-674.2751942033869
 30
0.0
 10
-633.2863004268749
 20
-674.6007976980909
 30
0.0
 10
-633.70103812183
 20
-674.9278626088458
 30
0.0
 10
-634.1940224675031
 20
-675.1782518911368
 30
0.0
 10
-634.7621296870905
 20
-675.355083232519
 30
0.0
 10
-635.3333667727119
 20
-675.5319145738943
 30
0.0
 10
-635.9421622506739
 20
-675.6195995365657
 30
0.0
 10
-636.59478194227
 20
-675.6195995365657
 30
0.0
 10
-637.1644480056374
 20
-675.6195995365657
 30
0.0
 10
-637.6934318998714
 20
-675.5585123459115
 30
0.0
 10
-638.181721446501
 20
-675.4364353923221
 30
0.0
 10
-638.6700109931272
 20
-675.3127995949633
 30
0.0
 10
-639.1144824153559
 20
-675.1563306504692
 30
0.0
 10
-639.5135586017
 20
-674.9575780684219
 30
0.0
 10
-639.9142058102945
 20
-674.7603843301548
 30
0.0
 10
-640.2663461846786
 20
-674.5381516636503
 30
0.0
 10
-640.5730852339476
 20
-674.2877623813665
 30
0.0
 10
-640.8782715286704
 20
-674.0358142552962
 30
0.0
 10
-641.1255431233951
 20
-673.7759744825922
 30
0.0
 10
-641.3149121965886
 20
-673.503663959637
 30
0.0
 10
-641.3149121965886
 20
-673.503663959637
 30
0.0
 10
-640.6028189612177
 20
-672.8119270319173
 30
0.0
 10
-640.6028189612177
 20
-672.8119270319173
 30
0.0
  0
HATCH
  5
A6
330
98
100
AcDbEntity
  8
图层 1
 62
   250
420
  2170655
440
 33554687
100
AcDbHatch
 10
0.0
 20
0.0
 30
0.0
210
0.0
220
0.0
230
1.0
  2
SOLID
 70
     1
 71
     1
 91
        1
 92
        1
 93
        1
 72
     4
 94
        3
 73
     0
 74
     0
 95
      149
 96
      145
 40
0.0
 40
0.0
 40
0.0
 40
0.0
 40
1.0
 40
1.0
 40
1.0
 40
2.0
 40
2.0
 40
2.0
 40
3.0
 40
3.0
 40
3.0
 40
4.0
 40
4.0
 40
4.0
 40
5.0
 40
5.0
 40
5.0
 40
6.0
 40
6.0
 40
6.0
 40
7.0
 40
7.0
 40
7.0
 40
8.0
 40
8.0
 40
8.0
 40
9.0
 40
9.0
 40
9.0
 40
10.0
 40
10.0
 40
10.0
 40
11.0
 40
11.0
 40
11.0
 40
12.0
 40
12.0
 40
12.0
 40
13.0
 40
13.0
 40
13.0
 40
14.0
 40
14.0
 40
14.0
 40
15.0
 40
15.0
 40
15.0
 40
16.0
 40
16.0
 40
16.0
 40
17.0
 40
17.0
 40
17.0
 40
18.0
 40
18.0
 40
18.0
 40
19.0
 40
19.0
 40
19.0
 40
20.0
 40
20.0
 40
20.0
 40
21.0
 40
21.0
 40
21.0
 40
22.0
 40
22.0
 40
22.0
 40
23.0
 40
23.0
 40
23.0
 40
24.0
 40
24.0
 40
24.0
 40
25.0
 40
25.0
 40
25.0
 40
26.0
 40
26.0
 40
26.0
 40
27.0
 40
27.0
 40
27.0
 40
28.0
 40
28.0
 40
28.0
 40
29.0
 40
29.0
 40
29.0
 40
30.0
 40
30.0
 40
30.0
 40
31.0
 40
31.0
 40
31.0
 40
32.0
 40
32.0
 40
32.0
 40
33.0
 40
33.0
 40
33.0
 40
34.0
 40
34.0
 40
34.0
 40
35.0
 40
35.0
 40
35.0
 40
36.0
 40
36.0
 40
36.0
 40
37.0
 40
37.0
 40
37.0
 40
38.0
 40
38.0
 40
38.0
 40
39.0
 40
39.0
 40
39.0
 40
40.0
 40
40.0
 40
40.0
 40
41.0
 40
41.0
 40
41.0
 40
42.0
 40
42.0
 40
42.0
 40
43.0
 40
43.0
 40
43.0
 40
44.0
 40
44.0
 40
44.0
 40
45.0
 40
45.0
 40
45.0
 40
46.0
 40
46.0
 40
46.0
 40
47.0
 40
47.0
 40
47.0
 40
48.0
 40
48.0
 40
48.0
 40
48.0
 10
-640.6028189612177
 20
-672.8119270319173
 10
-640.1411393650692
 20
-673.3691162558105
 10
-639.5886814756216
 20
-673.8229346514835
 10
-638.9438925383293
 20
-674.176597334252
 10
-638.3006624448197
 20
-674.527239757183
 10
-637.5165822907911
 20
-674.7040710985685
 10
-636.59478194227
 20
-674.7040710985685
 10
-636.0642331150228
 20
-674.7040710985685
 10
-635.5790734344234
 20
-674.6414250641246
 10
-635.1393029004715
 20
-674.5209069543248
 10
-634.6979613442726
 20
-674.3988300007455
 10
-634.3176582648653
 20
-674.2188809718006
 10
-633.9999585952626
 20
-673.9825212835474
 10
-633.6806939926465
 20
-673.7447001792361
 10
-633.4334163086879
 20
-673.4473507280507
 10
-633.2565727888384
 20
-673.085796398655
 10
-633.0812820235343
 20
-672.7274571845446
 10
-632.992080841723
 20
-672.3095896235632
 10
-632.992080841723
 20
-671.8353114032588
 10
-632.992080841723
 20
-671.3329739949046
 10
-633.0906716216211
 20
-670.9057533712386
 10
-633.2863004268749
 20
-670.5535521045174
 10
-633.4834941651457
 20
-670.1983305779695
 10
-633.746427268481
 20
-669.90409881435
 10
-634.070380580907
 20
-669.6677391260898
 10
-634.3974820270606
 20
-669.4299180217893
 10
-634.7652595531208
 20
-669.2358419710816
 10
-635.1799972480757
 20
-669.0871672454851
 10
-635.5931639207838
 20
-668.9384925198994
 10
-636.011025392535
 20
-668.8022885445502
 10
-636.4304517973001
 20
-668.6802115909678
 10
-636.9469101381869
 20
-668.5441050433618
 10
-637.4633745683038
 20
-668.3923126302058
 10
-637.9782679761773
 20
-668.223275507725
 10
-638.4931613840469
 20
-668.0526795414719
 10
-638.9548470694294
 20
-667.8288880311905
 10
-639.3617540100806
 20
-667.5503421331178
 10
-639.7686609507317
 20
-667.2732576510845
 10
-640.0973151514349
 20
-666.9195949683161
 10
-640.3492876344365
 20
-666.4923743446493
 10
-640.5996890951914
 20
-666.0650562932406
 10
-640.7233309817836
 20
-665.5141998722121
 10
-640.7233309817836
 20
-664.8333748509596
 10
-640.7233309817836
 20
-664.3733210801548
 10
-640.6294289116917
 20
-663.9319734347258
 10
-640.4400598384983
 20
-663.5109881861811
 10
-640.2506907653013
 20
-663.0915617814127
 10
-639.976809220099
 20
-662.7253309206685
 10
-639.6152914260954
 20
-662.4122956039371
 10
-639.2568974088885
 20
-662.0992602872127
 10
-638.8155558526896
 20
-661.8519886924883
 10
-638.2944027127631
 20
-661.6704808197633
 10
-637.7716846398197
 20
-661.4857578317396
 10
-637.1785324027711
 20
-661.3950526092454
 10
-636.5133993362916
 20
-661.3950526092454
 10
-635.9421622506739
 20
-661.3950526092454
 10
-635.4382172846702
 20
-661.4560423721744
 10
-634.9968879069353
 20
-661.5796781695332
 10
-634.5555463507404
 20
-661.698637435553
 10
-634.1689774500422
 20
-661.8519886924883
 10
-633.8371933833092
 20
-662.0367116805113
 10
-633.505409316576
 20
-662.2182195532325
 10
-633.2268329723303
 20
-662.4200898228417
 10
-633.0030353728196
 20
-662.6360871142209
 10
-632.7776667510651
 20
-662.8536432493731
 10
-632.5914275438948
 20
-663.0633077378877
 10
-632.4427528183019
 20
-663.2683931227957
 10
-632.4427528183019
 20
-663.2683931227957
 10
-633.1344958352556
 20
-663.8568566500379
 10
-633.1344958352556
 20
-663.8568566500379
 10
-633.2565727888384
 20
-663.6940549026824
 10
-633.413072179501
 20
-663.5203412488659
 10
-633.6024412526983
 20
-663.3388333761376
 10
-633.7933752589083
 20
-663.1541103881179
 10
-634.0234325904759
 20
-662.9850732656371
 10
-634.2941842696517
 20
-662.8301631649293
 10
-634.5665008818367
 20
-662.6752530642075
 10
-634.8873365067036
 20
-662.543725620208
 10
-635.2598088318074
 20
-662.4451287510757
 10
-635.6354110229374
 20
-662.341855350602
 10
-636.0642331150228
 20
-662.2917774941372
 10
-636.5540875946622
 20
-662.2917774941372
 10
-637.10967535014
 20
-662.2917774941372
 10
-637.5870103656659
 20
-662.365335435042
 10
-637.9876575742605
 20
-662.5140101606352
 10
-638.3883047828548
 20
-662.6626848862279
 10
-638.7169589835544
 20
-662.8614374682745
 10
-638.9751911986129
 20
-663.1040325316568
 10
-639.2318523914278
 20
-663.3481864388256
 10
-639.4227924868754
 20
-663.6236146493435
 10
-639.5432984182041
 20
-663.9288557471632
 10
-639.6669342155663
 20
-664.23399941725
 10
-639.7279726923578
 20
-664.550152421537
 10
-639.7279726923578
 20
-664.8756584885088
 10
-639.7279726923578
 20
-665.3624074590568
 10
-639.6152914260954
 20
-665.7661479982785
 10
-639.3914877373508
 20
-666.0869775339152
 10
-639.1692550708569
 20
-666.4046893819817
 10
-638.873464463451
 20
-666.6692056860322
 10
-638.5072457811737
 20
-666.87887017455
 10
-638.1410270988928
 20
-667.0886320907968
 10
-637.7309902922154
 20
-667.2623457446203
 10
-637.2755643388898
 20
-667.3984522922258
 10
-636.821709407811
 20
-667.5330974237884
 10
-636.3631535884555
 20
-667.6614097525
 10
-635.9014739923033
 20
-667.7850455498555
 10
-635.42726275357
 20
-667.9071225034379
 10
-634.9530636933048
 20
-668.0604737603765
 10
-634.4772936107921
 20
-668.2420790608376
 10
-634.0030884612925
 20
-668.4251457773381
 10
-633.5789672574808
 20
-668.6692996845037
 10
-633.2064888431469
 20
-668.9760021983699
 10
-632.8340104288096
 20
-669.2796844524134
 10
-632.5272652903105
 20
-669.6646214385303
 10
-632.2893832936695
 20
-670.1247726370681
 10
-632.0530601408076
 20
-670.5864826793819
 10
-631.9341191424888
 20
-671.1561426535192
 10
-631.9341191424888
 20
-671.8353114032588
 10
-631.9341191424888
 20
-672.4175395553796
 10
-632.0561900068415
 20
-672.9433570481806
 10
-632.3003378247696
 20
-673.4113024656267
 10
-632.544479553464
 20
-673.8792478830698
 10
-632.8731337541669
 20
-674.2751942033869
 10
-633.2863004268749
 20
-674.6007976980909
 10
-633.70103812183
 20
-674.9278626088458
 10
-634.1940224675031
 20
-675.1782518911368
 10
-634.7621296870905
 20
-675.355083232519
 10
-635.3333667727119
 20
-675.5319145738943
 10
-635.9421622506739
 20
-675.6195995365657
 10
-636.59478194227
 20
-675.6195995365657
 10
-637.1644480056374
 20
-675.6195995365657
 10
-637.6934318998714
 20
-675.5585123459115
 10
-638.181721446501
 20
-675.4364353923221
 10
-638.6700109931272
 20
-675.3127995949633
 10
-639.1144824153559
 20
-675.1563306504692
 10
-639.5135586017
 20
-674.9575780684219
 10
-639.9142058102945
 20
-674.7603843301548
 10
-640.2663461846786
 20
-674.5381516636503
 10
-640.5730852339476
 20
-674.2877623813665
 10
-640.8782715286704
 20
-674.0358142552962
 10
-641.1255431233951
 20
-673.7759744825922
 10
-641.3149121965886
 20
-673.503663959637
 10
-641.3149121965886
 20
-673.503663959637
 10
-640.6028189612177
 20
-672.8119270319173
 10
-640.6028189612177
 20
-672.8119270319173
 97
        0
 97
        1
330
A5
 75
     2
 76
     1
 98
        1
 10
0.0
 20
0.0
450
        0
451
        0
460
0.0
461
0.0
452
        0
462
0.0
453
        0
470

  0
LWPOLYLINE
  5
A7
330
98
100
AcDbEntity
  8
图层 1
100
AcDbPolyline
 90
        4
 70
     1
 43
0.0
 10
-627.8248181701242
 20
-661.7214355258485
 10
-626.8466741438516
 20
-661.7214355258485
 10
-626.8466741438516
 20
-675.294872891482
 10
-627.8248181701242
 20
-675.294872891482
  0
HATCH
  5
A8
330
98
100
AcDbEntity
  8
图层 1
 62
   250
420
  2170655
440
 33554687
100
AcDbHatch
 10
0.0
 20
0.0
 30
0.0
210
0.0
220
0.0
230
1.0
  2
SOLID
 70
     1
 71
     1
 91
        1
 92
        1
 93
        4
 72
     1
 10
-627.8248181701242
 20
-661.7214355258485
 11
-626.8466741438516
 21
-661.7214355258485
 72
     1
 10
-626.8466741438516
 20
-661.7214355258485
 11
-626.8466741438516
 21
-675.294872891482
 72
     1
 10
-626.8466741438516
 20
-675.294872891482
 11
-627.8248181701242
 21
-675.294872891482
 72
     1
 10
-627.8248181701242
 20
-675.294872891482
 11
-627.8248181701242
 21
-661.7214355258485
 97
        1
330
A7
 75
     2
 76
     1
 98
        1
 10
0.0
 20
0.0
450
        0
451
        0
460
0.0
461
0.0
452
        0
462
0.0
453
        0
470

  0
SPLINE
  5
A9
330
98
100
AcDbEntity
  8
图层 1
100
AcDbSpline
210
0.0
220
0.0
230
1.0
 70
    11
 71
     3
 72
   113
 73
   109
 74
     0
 42
0.0000000001
 43
0.0000000001
 40
0.0
 40
0.0
 40
0.0
 40
0.0
 40
1.0
 40
1.0
 40
1.0
 40
2.0
 40
2.0
 40
2.0
 40
3.0
 40
3.0
 40
3.0
 40
4.0
 40
4.0
 40
4.0
 40
5.0
 40
5.0
 40
5.0
 40
6.0
 40
6.0
 40
6.0
 40
7.0
 40
7.0
 40
7.0
 40
8.0
 40
8.0
 40
8.0
 40
9.0
 40
9.0
 40
9.0
 40
10.0
 40
10.0
 40
10.0
 40
11.0
 40
11.0
 40
11.0
 40
12.0
 40
12.0
 40
12.0
 40
13.0
 40
13.0
 40
13.0
 40
14.0
 40
14.0
 40
14.0
 40
15.0
 40
15.0
 40
15.0
 40
16.0
 40
16.0
 40
16.0
 40
17.0
 40
17.0
 40
17.0
 40
18.0
 40
18.0
 40
18.0
 40
19.0
 40
19.0
 40
19.0
 40
20.0
 40
20.0
 40
20.0
 40
21.0
 40
21.0
 40
21.0
 40
22.0
 40
22.0
 40
22.0
 40
23.0
 40
23.0
 40
23.0
 40
24.0
 40
24.0
 40
24.0
 40
25.0
 40
25.0
 40
25.0
 40
26.0
 40
26.0
 40
26.0
 40
27.0
 40
27.0
 40
27.0
 40
28.0
 40
28.0
 40
28.0
 40
29.0
 40
29.0
 40
29.0
 40
30.0
 40
30.0
 40
30.0
 40
31.0
 40
31.0
 40
31.0
 40
32.0
 40
32.0
 40
32.0
 40
33.0
 40
33.0
 40
33.0
 40
34.0
 40
34.0
 40
34.0
 40
35.0
 40
35.0
 40
35.0
 40
36.0
 40
36.0
 40
36.0
 40
36.0
 10
-611.9106855291512
 20
-669.7795861673601
 30
0.0
 10
-611.9106855291512
 20
-669.7795861673601
 30
0.0
 10
-615.5321719151022
 20
-669.7795861673601
 30
0.0
 10
-615.5321719151022
 20
-669.7795861673601
 30
0.0
 10
-615.5321719151022
 20
-669.7795861673601
 30
0.0
 10
-615.5321719151022
 20
-668.8640577293668
 30
0.0
 10
-615.5321719151022
 20
-668.8640577293668
 30
0.0
 10
-615.5321719151022
 20
-668.8640577293668
 30
0.0
 10
-610.9341186143595
 20
-668.8640577293668
 30
0.0
 10
-610.9341186143595
 20
-668.8640577293668
 30
0.0
 10
-610.9341186143595
 20
-668.8640577293668
 30
0.0
 10
-610.9341186143595
 20
-673.9503701305639
 30
0.0
 10
-610.9341186143595
 20
-673.9503701305639
 30
0.0
 10
-611.1641698566967
 20
-674.155455515468
 30
0.0
 10
-611.442746200942
 20
-674.3542080975185
 30
0.0
 10
-611.768276624849
 20
-674.5514018357858
 30
0.0
 10
-612.0938009595216
 20
-674.7485955740562
 30
0.0
 10
-612.4709680836652
 20
-674.9285446030017
 30
0.0
 10
-612.8982252427374
 20
-675.0913463503573
 30
0.0
 10
-613.3254763125755
 20
-675.2540506699729
 30
0.0
 10
-613.8075061271486
 20
-675.3823629986851
 30
0.0
 10
-614.342743664202
 20
-675.4778421802542
 30
0.0
 10
-614.8779872904928
 20
-675.5733213618263
 30
0.0
 10
-615.4789581033809
 20
-675.6187226869383
 30
0.0
 10
-616.1425323260774
 20
-675.6187226869383
 30
0.0
 10
-617.1206763523463
 20
-675.6187226869383
 30
0.0
 10
-618.0158728396273
 20
-675.4465678768981
 30
0.0
 10
-618.8296867209261
 20
-675.0991405692587
 30
0.0
 10
-619.6435066914626
 20
-674.7548309491783
 30
0.0
 10
-620.3399445074593
 20
-674.266523134851
 30
0.0
 10
-620.9158763921208
 20
-673.6358733977923
 30
0.0
 10
-621.4918021875445
 20
-673.0051262330008
 30
0.0
 10
-621.9394034758038
 20
-672.2523021146166
 30
0.0
 10
-622.2586741676535
 20
-671.3774984703924
 30
0.0
 10
-622.5779387702731
 20
-670.5010385546495
 30
0.0
 10
-622.7360030939494
 20
-669.5401087915372
 30
0.0
 10
-622.7360030939494
 20
-668.4978268686186
 30
0.0
 10
-622.7360030939494
 20
-667.5087404897174
 30
0.0
 10
-622.5779387702731
 20
-666.5822027175167
 30
0.0
 10
-622.2586741676535
 20
-665.7198698235398
 30
0.0
 10
-621.9394034758038
 20
-664.8590957733424
 30
0.0
 10
-621.4918021875445
 20
-664.1063690826975
 30
0.0
 10
-620.9158763921208
 20
-663.4600334800966
 30
0.0
 10
-620.3399445074593
 20
-662.8167181373146
 30
0.0
 10
-619.6435066914626
 20
-662.3112630413979
 30
0.0
 10
-618.8296867209261
 20
-661.9450321806499
 30
0.0
 10
-618.0158728396273
 20
-661.5803601636883
 30
0.0
 10
-617.1206763523463
 20
-661.3941757596213
 30
0.0
 10
-616.1425323260774
 20
-661.3941757596213
 30
0.0
 10
-615.3427967526713
 20
-661.3941757596213
 30
0.0
 10
-614.6541896909817
 20
-661.5052433790042
 30
0.0
 10
-614.0766928733072
 20
-661.7212406703731
 30
0.0
 10
-613.5007609886424
 20
-661.9387968055279
 30
0.0
 10
-613.0156013080462
 20
-662.1923037753781
 30
0.0
 10
-612.622778764522
 20
-662.4834178514381
 30
0.0
 10
-612.2299562210011
 20
-662.7745319274983
 30
0.0
 10
-611.9216461494813
 20
-663.064087159779
 30
0.0
 10
-611.6978485499706
 20
-663.3488684329814
 30
0.0
 10
-611.4724799282162
 20
-663.6337471339195
 30
0.0
 10
-611.3206692473596
 20
-663.8449704662136
 30
0.0
 10
-611.2392988198487
 20
-663.9780567539929
 30
0.0
 10
-611.2392988198487
 20
-663.9780567539929
 30
0.0
 10
-611.9717240059392
 20
-664.4881883812485
 30
0.0
 10
-611.9717240059392
 20
-664.4881883812485
 30
0.0
 10
-612.0531066119174
 20
-664.3817972932115
 30
0.0
 10
-612.1876969403801
 20
-664.2080836393918
 30
0.0
 10
-612.378637035824
 20
-663.9701651073554
 30
0.0
 10
-612.5695710420378
 20
-663.7307851592717
 30
0.0
 10
-612.8309331231228
 20
-663.491307783445
 30
0.0
 10
-613.1611522568391
 20
-663.2471538762834
 30
0.0
 10
-613.4944951673555
 20
-663.0014411253345
 30
0.0
 10
-613.8982722419732
 20
-662.7870026777457
 30
0.0
 10
-614.3724834807096
 20
-662.5961417423327
 30
0.0
 10
-614.8482535632187
 20
-662.4067422229708
 30
0.0
 10
-615.4038352294628
 20
-662.3112630413979
 30
0.0
 10
-616.0407995016817
 20
-662.3112630413979
 30
0.0
 10
-616.9234826140794
 20
-662.3112630413979
 30
0.0
 10
-617.7138164109344
 20
-662.4708496734585
 30
0.0
 10
-618.4118252491783
 20
-662.7901203653051
 30
0.0
 10
-619.111392931202
 20
-663.1093910571547
 30
0.0
 10
-619.70140921299
 20
-663.5460621712487
 30
0.0
 10
-620.1818740945461
 20
-664.1016925513548
 30
0.0
 10
-620.6654688421323
 20
-664.6587843475087
 30
0.0
 10
-621.0332524574261
 20
-665.3130115967613
 30
0.0
 10
-621.2930496055014
 20
-666.065738287399
 30
0.0
 10
-621.5497107983094
 20
-666.8170035619976
 30
0.0
 10
-621.6780413947151
 20
-667.6292585995165
 30
0.0
 10
-621.6780413947151
 20
-668.4978268686186
 30
0.0
 10
-621.6780413947151
 20
-669.3663951377208
 30
0.0
 10
-621.5544055973529
 20
-670.1755324876778
 30
0.0
 10
-621.3024392035849
 20
-670.929915449842
 30
0.0
 10
-621.0504667205831
 20
-671.6826421404761
 30
0.0
 10
-620.6858129713192
 20
-672.3384282335048
 30
0.0
 10
-620.2022182237332
 20
-672.9034116763033
 30
0.0
 10
-619.721753342177
 20
-673.4668362753114
 30
0.0
 10
-619.1379967924458
 20
-673.9081839207475
 30
0.0
 10
-618.4540845297959
 20
-674.2257983410817
 30
0.0
 10
-617.7670302226521
 20
-674.5435101891481
 30
0.0
 10
-616.9986054880009
 20
-674.7047530927243
 30
0.0
 10
-616.1425323260774
 20
-674.7047530927243
 30
0.0
 10
-615.0986550239732
 20
-674.7047530927243
 30
0.0
 10
-614.24101692904
 20
-674.5889115142671
 30
0.0
 10
-613.5696180412735
 20
-674.3573257850812
 30
0.0
 10
-612.8982252427374
 20
-674.1256426281668
 30
0.0
 10
-612.3457734425235
 20
-673.854890948991
 30
0.0
 10
-611.9106855291512
 20
-673.5435119037789
 30
0.0
 10
-611.9106855291512
 20
-673.5435119037789
 30
0.0
 10
-611.9106855291512
 20
-669.7795861673601
 30
0.0
 10
-611.9106855291512
 20
-669.7795861673601
 30
0.0
  0
HATCH
  5
AA
330
98
100
AcDbEntity
  8
图层 1
 62
   250
420
  2170655
440
 33554687
100
AcDbHatch
 10
0.0
 20
0.0
 30
0.0
210
0.0
220
0.0
230
1.0
  2
SOLID
 70
     1
 71
     1
 91
        1
 92
        1
 93
        1
 72
     4
 94
        3
 73
     0
 74
     0
 95
      113
 96
      109
 40
0.0
 40
0.0
 40
0.0
 40
0.0
 40
1.0
 40
1.0
 40
1.0
 40
2.0
 40
2.0
 40
2.0
 40
3.0
 40
3.0
 40
3.0
 40
4.0
 40
4.0
 40
4.0
 40
5.0
 40
5.0
 40
5.0
 40
6.0
 40
6.0
 40
6.0
 40
7.0
 40
7.0
 40
7.0
 40
8.0
 40
8.0
 40
8.0
 40
9.0
 40
9.0
 40
9.0
 40
10.0
 40
10.0
 40
10.0
 40
11.0
 40
11.0
 40
11.0
 40
12.0
 40
12.0
 40
12.0
 40
13.0
 40
13.0
 40
13.0
 40
14.0
 40
14.0
 40
14.0
 40
15.0
 40
15.0
 40
15.0
 40
16.0
 40
16.0
 40
16.0
 40
17.0
 40
17.0
 40
17.0
 40
18.0
 40
18.0
 40
18.0
 40
19.0
 40
19.0
 40
19.0
 40
20.0
 40
20.0
 40
20.0
 40
21.0
 40
21.0
 40
21.0
 40
22.0
 40
22.0
 40
22.0
 40
23.0
 40
23.0
 40
23.0
 40
24.0
 40
24.0
 40
24.0
 40
25.0
 40
25.0
 40
25.0
 40
26.0
 40
26.0
 40
26.0
 40
27.0
 40
27.0
 40
27.0
 40
28.0
 40
28.0
 40
28.0
 40
29.0
 40
29.0
 40
29.0
 40
30.0
 40
30.0
 40
30.0
 40
31.0
 40
31.0
 40
31.0
 40
32.0
 40
32.0
 40
32.0
 40
33.0
 40
33.0
 40
33.0
 40
34.0
 40
34.0
 40
34.0
 40
35.0
 40
35.0
 40
35.0
 40
36.0
 40
36.0
 40
36.0
 40
36.0
 10
-611.9106855291512
 20
-669.7795861673601
 10
-611.9106855291512
 20
-669.7795861673601
 10
-615.5321719151022
 20
-669.7795861673601
 10
-615.5321719151022
 20
-669.7795861673601
 10
-615.5321719151022
 20
-669.7795861673601
 10
-615.5321719151022
 20
-668.8640577293668
 10
-615.5321719151022
 20
-668.8640577293668
 10
-615.5321719151022
 20
-668.8640577293668
 10
-610.9341186143595
 20
-668.8640577293668
 10
-610.9341186143595
 20
-668.8640577293668
 10
-610.9341186143595
 20
-668.8640577293668
 10
-610.9341186143595
 20
-673.9503701305639
 10
-610.9341186143595
 20
-673.9503701305639
 10
-611.1641698566967
 20
-674.155455515468
 10
-611.442746200942
 20
-674.3542080975185
 10
-611.768276624849
 20
-674.5514018357858
 10
-612.0938009595216
 20
-674.7485955740562
 10
-612.4709680836652
 20
-674.9285446030017
 10
-612.8982252427374
 20
-675.0913463503573
 10
-613.3254763125755
 20
-675.2540506699729
 10
-613.8075061271486
 20
-675.3823629986851
 10
-614.342743664202
 20
-675.4778421802542
 10
-614.8779872904928
 20
-675.5733213618263
 10
-615.4789581033809
 20
-675.6187226869383
 10
-616.1425323260774
 20
-675.6187226869383
 10
-617.1206763523463
 20
-675.6187226869383
 10
-618.0158728396273
 20
-675.4465678768981
 10
-618.8296867209261
 20
-675.0991405692587
 10
-619.6435066914626
 20
-674.7548309491783
 10
-620.3399445074593
 20
-674.266523134851
 10
-620.9158763921208
 20
-673.6358733977923
 10
-621.4918021875445
 20
-673.0051262330008
 10
-621.9394034758038
 20
-672.2523021146166
 10
-622.2586741676535
 20
-671.3774984703924
 10
-622.5779387702731
 20
-670.5010385546495
 10
-622.7360030939494
 20
-669.5401087915372
 10
-622.7360030939494
 20
-668.4978268686186
 10
-622.7360030939494
 20
-667.5087404897174
 10
-622.5779387702731
 20
-666.5822027175167
 10
-622.2586741676535
 20
-665.7198698235398
 10
-621.9394034758038
 20
-664.8590957733424
 10
-621.4918021875445
 20
-664.1063690826975
 10
-620.9158763921208
 20
-663.4600334800966
 10
-620.3399445074593
 20
-662.8167181373146
 10
-619.6435066914626
 20
-662.3112630413979
 10
-618.8296867209261
 20
-661.9450321806499
 10
-618.0158728396273
 20
-661.5803601636883
 10
-617.1206763523463
 20
-661.3941757596213
 10
-616.1425323260774
 20
-661.3941757596213
 10
-615.3427967526713
 20
-661.3941757596213
 10
-614.6541896909817
 20
-661.5052433790042
 10
-614.0766928733072
 20
-661.7212406703731
 10
-613.5007609886424
 20
-661.9387968055279
 10
-613.0156013080462
 20
-662.1923037753781
 10
-612.622778764522
 20
-662.4834178514381
 10
-612.2299562210011
 20
-662.7745319274983
 10
-611.9216461494813
 20
-663.064087159779
 10
-611.6978485499706
 20
-663.3488684329814
 10
-611.4724799282162
 20
-663.6337471339195
 10
-611.3206692473596
 20
-663.8449704662136
 10
-611.2392988198487
 20
-663.9780567539929
 10
-611.2392988198487
 20
-663.9780567539929
 10
-611.9717240059392
 20
-664.4881883812485
 10
-611.9717240059392
 20
-664.4881883812485
 10
-612.0531066119174
 20
-664.3817972932115
 10
-612.1876969403801
 20
-664.2080836393918
 10
-612.378637035824
 20
-663.9701651073554
 10
-612.5695710420378
 20
-663.7307851592717
 10
-612.8309331231228
 20
-663.491307783445
 10
-613.1611522568391
 20
-663.2471538762834
 10
-613.4944951673555
 20
-663.0014411253345
 10
-613.8982722419732
 20
-662.7870026777457
 10
-614.3724834807096
 20
-662.5961417423327
 10
-614.8482535632187
 20
-662.4067422229708
 10
-615.4038352294628
 20
-662.3112630413979
 10
-616.0407995016817
 20
-662.3112630413979
 10
-616.9234826140794
 20
-662.3112630413979
 10
-617.7138164109344
 20
-662.4708496734585
 10
-618.4118252491783
 20
-662.7901203653051
 10
-619.111392931202
 20
-663.1093910571547
 10
-619.70140921299
 20
-663.5460621712487
 10
-620.1818740945461
 20
-664.1016925513548
 10
-620.6654688421323
 20
-664.6587843475087
 10
-621.0332524574261
 20
-665.3130115967613
 10
-621.2930496055014
 20
-666.065738287399
 10
-621.5497107983094
 20
-666.8170035619976
 10
-621.6780413947151
 20
-667.6292585995165
 10
-621.6780413947151
 20
-668.4978268686186
 10
-621.6780413947151
 20
-669.3663951377208
 10
-621.5544055973529
 20
-670.1755324876778
 10
-621.3024392035849
 20
-670.929915449842
 10
-621.0504667205831
 20
-671.6826421404761
 10
-620.6858129713192
 20
-672.3384282335048
 10
-620.2022182237332
 20
-672.9034116763033
 10
-619.721753342177
 20
-673.4668362753114
 10
-619.1379967924458
 20
-673.9081839207475
 10
-618.4540845297959
 20
-674.2257983410817
 10
-617.7670302226521
 20
-674.5435101891481
 10
-616.9986054880009
 20
-674.7047530927243
 10
-616.1425323260774
 20
-674.7047530927243
 10
-615.0986550239732
 20
-674.7047530927243
 10
-614.24101692904
 20
-674.5889115142671
 10
-613.5696180412735
 20
-674.3573257850812
 10
-612.8982252427374
 20
-674.1256426281668
 10
-612.3457734425235
 20
-673.854890948991
 10
-611.9106855291512
 20
-673.5435119037789
 10
-611.9106855291512
 20
-673.5435119037789
 10
-611.9106855291512
 20
-669.7795861673601
 10
-611.9106855291512
 20
-669.7795861673601
 97
        0
 97
        1
330
A9
 75
     2
 76
     1
 98
        1
 10
0.0
 20
0.0
450
        0
451
        0
460
0.0
461
0.0
452
        0
462
0.0
453
        0
470

  0
LWPOLYLINE
  5
AB
330
98
100
AcDbEntity
  8
图层 1
100
AcDbPolyline
 90
       10
 70
     1
 43
0.0
 10
-606.3151000826182
 20
-661.720948387161
 10
-605.2962738872086
 20
-661.720948387161
 10
-596.5868797208753
 20
-673.8295597375525
 10
-596.5868797208753
 20
-661.720948387161
 10
-595.6306386675728
 20
-661.720948387161
 10
-595.6306386675728
 20
-675.2944831805383
 10
-596.6479181976668
 20
-675.2944831805383
 10
-605.3573001855361
 20
-663.3485761497699
 10
-605.3573001855361
 20
-675.2944831805383
 10
-606.3151000826182
 20
-675.2944831805383
  0
HATCH
  5
AC
330
98
100
AcDbEntity
  8
图层 1
 62
   250
420
  2170655
440
 33554687
100
AcDbHatch
 10
0.0
 20
0.0
 30
0.0
210
0.0
220
0.0
230
1.0
  2
SOLID
 70
     1
 71
     1
 91
        1
 92
        1
 93
       10
 72
     1
 10
-606.3151000826182
 20
-661.720948387161
 11
-605.2962738872086
 21
-661.720948387161
 72
     1
 10
-605.2962738872086
 20
-661.720948387161
 11
-596.5868797208753
 21
-673.8295597375525
 72
     1
 10
-596.5868797208753
 20
-673.8295597375525
 11
-596.5868797208753
 21
-661.720948387161
 72
     1
 10
-596.5868797208753
 20
-661.720948387161
 11
-595.6306386675728
 21
-661.720948387161
 72
     1
 10
-595.6306386675728
 20
-661.720948387161
 11
-595.6306386675728
 21
-675.2944831805383
 72
     1
 10
-595.6306386675728
 20
-675.2944831805383
 11
-596.6479181976668
 21
-675.2944831805383
 72
     1
 10
-596.6479181976668
 20
-675.2944831805383
 11
-605.3573001855361
 21
-663.3485761497699
 72
     1
 10
-605.3573001855361
 20
-663.3485761497699
 11
-605.3573001855361
 21
-675.2944831805383
 72
     1
 10
-605.3573001855361
 20
-675.2944831805383
 11
-606.3151000826182
 21
-675.2944831805383
 72
     1
 10
-606.3151000826182
 20
-675.2944831805383
 11
-606.3151000826182
 21
-661.720948387161
 97
        1
330
AB
 75
     2
 76
     1
 98
        1
 10
0.0
 20
0.0
450
        0
451
        0
460
0.0
461
0.0
452
        0
462
0.0
453
        0
470

  0
SPLINE
  5
AD
330
98
100
AcDbEntity
  8
图层 1
100
AcDbSpline
210
0.0
220
0.0
230
1.0
 70
    11
 71
     3
 72
    14
 73
    10
 74
     0
 42
0.0000000001
 43
0.0000000001
 40
0.0
 40
0.0
 40
0.0
 40
0.0
 40
1.0
 40
1.0
 40
1.0
 40
2.0
 40
2.0
 40
2.0
 40
3.0
 40
3.0
 40
3.0
 40
3.0
 10
-583.4209460407724
 20
-670.0030853944261
 30
0.0
 10
-583.4209460407724
 20
-670.0030853944261
 30
0.0
 10
-586.2505397860963
 20
-662.961982892137
 30
0.0
 10
-586.2505397860963
 20
-662.961982892137
 30
0.0
 10
-586.2505397860963
 20
-662.961982892137
 30
0.0
 10
-589.0785503306944
 20
-670.0030853944261
 30
0.0
 10
-589.0785503306944
 20
-670.0030853944261
 30
0.0
 10
-589.0785503306944
 20
-670.0030853944261
 30
0.0
 10
-583.4209460407724
 20
-670.0030853944261
 30
0.0
 10
-583.4209460407724
 20
-670.0030853944261
 30
0.0
  0
SPLINE
  5
AE
330
98
100
AcDbEntity
  8
图层 1
100
AcDbSpline
210
0.0
220
0.0
230
1.0
 70
    11
 71
     3
 72
    29
 73
    25
 74
     0
 42
0.0000000001
 43
0.0000000001
 40
0.0
 40
0.0
 40
0.0
 40
0.0
 40
1.0
 40
1.0
 40
1.0
 40
2.0
 40
2.0
 40
2.0
 40
3.0
 40
3.0
 40
3.0
 40
4.0
 40
4.0
 40
4.0
 40
5.0
 40
5.0
 40
5.0
 40
6.0
 40
6.0
 40
6.0
 40
7.0
 40
7.0
 40
7.0
 40
8.0
 40
8.0
 40
8.0
 40
8.0
 10
-586.6965639628672
 20
-661.720948387161
 30
0.0
 10
-586.6965639628672
 20
-661.720948387161
 30
0.0
 10
-585.7199848696118
 20
-661.720948387161
 30
0.0
 10
-585.7199848696118
 20
-661.720948387161
 30
0.0
 10
-585.7199848696118
 20
-661.720948387161
 30
0.0
 10
-580.1641316717865
 20
-675.2944831805383
 30
0.0
 10
-580.1641316717865
 20
-675.2944831805383
 30
0.0
 10
-580.1641316717865
 20
-675.2944831805383
 30
0.0
 10
-581.2846846023582
 20
-675.2944831805383
 30
0.0
 10
-581.2846846023582
 20
-675.2944831805383
 30
0.0
 10
-581.2846846023582
 20
-675.2944831805383
 30
0.0
 10
-583.0547395369628
 20
-670.9186138324297
 30
0.0
 10
-583.0547395369628
 20
-670.9186138324297
 30
0.0
 10
-583.0547395369628
 20
-670.9186138324297
 30
0.0
 10
-589.4447690129752
 20
-670.9186138324297
 30
0.0
 10
-589.4447690129752
 20
-670.9186138324297
 30
0.0
 10
-589.4447690129752
 20
-670.9186138324297
 30
0.0
 10
-591.1944615506918
 20
-675.2944831805383
 30
0.0
 10
-591.1944615506918
 20
-675.2944831805383
 30
0.0
 10
-591.1944615506918
 20
-675.2944831805383
 30
0.0
 10
-592.2524293391561
 20
-675.2944831805383
 30
0.0
 10
-592.2524293391561
 20
-675.2944831805383
 30
0.0
 10
-592.2524293391561
 20
-675.2944831805383
 30
0.0
 10
-586.6965639628672
 20
-661.720948387161
 30
0.0
 10
-586.6965639628672
 20
-661.720948387161
 30
0.0
  0
HATCH
  5
AF
330
98
100
AcDbEntity
  8
图层 1
 62
   250
420
  2170655
440
 33554687
100
AcDbHatch
 10
0.0
 20
0.0
 30
0.0
210
0.0
220
0.0
230
1.0
  2
SOLID
 70
     1
 71
     1
 91
        2
 92
        1
 93
        1
 72
     4
 94
        3
 73
     0
 74
     0
 95
       14
 96
       10
 40
0.0
 40
0.0
 40
0.0
 40
0.0
 40
1.0
 40
1.0
 40
1.0
 40
2.0
 40
2.0
 40
2.0
 40
3.0
 40
3.0
 40
3.0
 40
3.0
 10
-583.4209460407724
 20
-670.0030853944261
 10
-583.4209460407724
 20
-670.0030853944261
 10
-586.2505397860963
 20
-662.961982892137
 10
-586.2505397860963
 20
-662.961982892137
 10
-586.2505397860963
 20
-662.961982892137
 10
-589.0785503306944
 20
-670.0030853944261
 10
-589.0785503306944
 20
-670.0030853944261
 10
-589.0785503306944
 20
-670.0030853944261
 10
-583.4209460407724
 20
-670.0030853944261
 10
-583.4209460407724
 20
-670.0030853944261
 97
        0
 97
        1
330
AD
 92
        1
 93
        1
 72
     4
 94
        3
 73
     0
 74
     0
 95
       29
 96
       25
 40
0.0
 40
0.0
 40
0.0
 40
0.0
 40
1.0
 40
1.0
 40
1.0
 40
2.0
 40
2.0
 40
2.0
 40
3.0
 40
3.0
 40
3.0
 40
4.0
 40
4.0
 40
4.0
 40
5.0
 40
5.0
 40
5.0
 40
6.0
 40
6.0
 40
6.0
 40
7.0
 40
7.0
 40
7.0
 40
8.0
 40
8.0
 40
8.0
 40
8.0
 10
-586.6965639628672
 20
-661.720948387161
 10
-586.6965639628672
 20
-661.720948387161
 10
-585.7199848696118
 20
-661.720948387161
 10
-585.7199848696118
 20
-661.720948387161
 10
-585.7199848696118
 20
-661.720948387161
 10
-580.1641316717865
 20
-675.2944831805383
 10
-580.1641316717865
 20
-675.2944831805383
 10
-580.1641316717865
 20
-675.2944831805383
 10
-581.2846846023582
 20
-675.2944831805383
 10
-581.2846846023582
 20
-675.2944831805383
 10
-581.2846846023582
 20
-675.2944831805383
 10
-583.0547395369628
 20
-670.9186138324297
 10
-583.0547395369628
 20
-670.9186138324297
 10
-583.0547395369628
 20
-670.9186138324297
 10
-589.4447690129752
 20
-670.9186138324297
 10
-589.4447690129752
 20
-670.9186138324297
 10
-589.4447690129752
 20
-670.9186138324297
 10
-591.1944615506918
 20
-675.2944831805383
 10
-591.1944615506918
 20
-675.2944831805383
 10
-591.1944615506918
 20
-675.2944831805383
 10
-592.2524293391561
 20
-675.2944831805383
 10
-592.2524293391561
 20
-675.2944831805383
 10
-592.2524293391561
 20
-675.2944831805383
 10
-586.6965639628672
 20
-661.720948387161
 10
-586.6965639628672
 20
-661.720948387161
 97
        0
 97
        1
330
AE
 75
     2
 76
     1
 98
        1
 10
0.0
 20
0.0
450
        0
451
        0
460
0.0
461
0.0
452
        0
462
0.0
453
        0
470

  0
LWPOLYLINE
  5
B0
330
98
100
AcDbEntity
  8
图层 1
100
AcDbPolyline
 90
        8
 70
     1
 43
0.0
 10
-575.0995456557822
 20
-662.5962391700689
 10
-580.3690100227551
 20
-662.5962391700689
 10
-580.3690100227551
 20
-661.7214355258485
 10
-568.8519555302374
 20
-661.7214355258485
 10
-568.8519555302374
 20
-662.5962391700689
 10
-574.1229787409937
 20
-662.5962391700689
 10
-574.1229787409937
 20
-675.2933140477026
 10
-575.0995456557822
 20
-675.2933140477026
  0
HATCH
  5
B1
330
98
100
AcDbEntity
  8
图层 1
 62
   250
420
  2170655
440
 33554687
100
AcDbHatch
 10
0.0
 20
0.0
 30
0.0
210
0.0
220
0.0
230
1.0
  2
SOLID
 70
     1
 71
     1
 91
        1
 92
        1
 93
        8
 72
     1
 10
-575.0995456557822
 20
-662.5962391700689
 11
-580.3690100227551
 21
-662.5962391700689
 72
     1
 10
-580.3690100227551
 20
-662.5962391700689
 11
-580.3690100227551
 21
-661.7214355258485
 72
     1
 10
-580.3690100227551
 20
-661.7214355258485
 11
-568.8519555302374
 21
-661.7214355258485
 72
     1
 10
-568.8519555302374
 20
-661.7214355258485
 11
-568.8519555302374
 21
-662.5962391700689
 72
     1
 10
-568.8519555302374
 20
-662.5962391700689
 11
-574.1229787409937
 21
-662.5962391700689
 72
     1
 10
-574.1229787409937
 20
-662.5962391700689
 11
-574.1229787409937
 21
-675.2933140477026
 72
     1
 10
-574.1229787409937
 20
-675.2933140477026
 11
-575.0995456557822
 21
-675.2933140477026
 72
     1
 10
-575.0995456557822
 20
-675.2933140477026
 11
-575.0995456557822
 21
-662.5962391700689
 97
        1
330
B0
 75
     2
 76
     1
 98
        1
 10
0.0
 20
0.0
450
        0
451
        0
460
0.0
461
0.0
452
        0
462
0.0
453
        0
470

  0
SPLINE
  5
B2
330
98
100
AcDbEntity
  8
图层 1
100
AcDbSpline
210
0.0
220
0.0
230
1.0
 70
    11
 71
     3
 72
    71
 73
    67
 74
     0
 42
0.0000000001
 43
0.0000000001
 40
0.0
 40
0.0
 40
0.0
 40
0.0
 40
1.0
 40
1.0
 40
1.0
 40
2.0
 40
2.0
 40
2.0
 40
3.0
 40
3.0
 40
3.0
 40
4.0
 40
4.0
 40
4.0
 40
5.0
 40
5.0
 40
5.0
 40
6.0
 40
6.0
 40
6.0
 40
7.0
 40
7.0
 40
7.0
 40
8.0
 40
8.0
 40
8.0
 40
9.0
 40
9.0
 40
9.0
 40
10.0
 40
10.0
 40
10.0
 40
11.0
 40
11.0
 40
11.0
 40
12.0
 40
12.0
 40
12.0
 40
13.0
 40
13.0
 40
13.0
 40
14.0
 40
14.0
 40
14.0
 40
15.0
 40
15.0
 40
15.0
 40
16.0
 40
16.0
 40
16.0
 40
17.0
 40
17.0
 40
17.0
 40
18.0
 40
18.0
 40
18.0
 40
19.0
 40
19.0
 40
19.0
 40
20.0
 40
20.0
 40
20.0
 40
21.0
 40
21.0
 40
21.0
 40
22.0
 40
22.0
 40
22.0
 40
22.0
 10
-565.4732468846768
 20
-661.720948387161
 30
0.0
 10
-565.4732468846768
 20
-661.720948387161
 30
0.0
 10
-564.4966799698884
 20
-661.720948387161
 30
0.0
 10
-564.4966799698884
 20
-661.720948387161
 30
0.0
 10
-564.4966799698884
 20
-661.720948387161
 30
0.0
 10
-564.4966799698884
 20
-669.3723382296314
 30
0.0
 10
-564.4966799698884
 20
-669.3723382296314
 30
0.0
 10
-564.4966799698884
 20
-670.1470835886799
 30
0.0
 10
-564.4356414930971
 20
-670.8591829132847
 30
0.0
 10
-564.3135645395143
 20
-671.5101950472352
 30
0.0
 10
-564.1914997643992
 20
-672.1613046089109
 30
0.0
 10
-563.9708259416811
 20
-672.723072936414
 30
0.0
 10
-563.6515674282986
 20
-673.1989100004938
 30
0.0
 10
-563.332296736449
 20
-673.6746496368448
 30
0.0
 10
-562.9034685551297
 20
-674.0424393413659
 30
0.0
 10
-562.3604063530028
 20
-674.3069556454157
 30
0.0
 10
-561.8173441508758
 20
-674.5713745217333
 30
0.0
 10
-561.1255950446887
 20
-674.7044608095128
 30
0.0
 10
-560.2836245475965
 20
-674.7044608095128
 30
0.0
 10
-559.4431885373527
 20
-674.7044608095128
 30
0.0
 10
-558.7498805873856
 20
-674.5713745217333
 30
0.0
 10
-558.2083772290381
 20
-674.3069556454157
 30
0.0
 10
-557.6668860491548
 20
-674.0424393413659
 30
0.0
 10
-557.2349280018126
 20
-673.6746496368448
 30
0.0
 10
-556.9172405106772
 20
-673.1989100004938
 30
0.0
 10
-556.5963987965769
 20
-672.723072936414
 30
0.0
 10
-556.3757371523297
 20
-672.1613046089109
 30
0.0
 10
-556.2552190425267
 20
-671.5101950472352
 30
0.0
 10
-556.1331542674115
 20
-670.8591829132847
 30
0.0
 10
-556.0721157906234
 20
-670.1470835886799
 30
0.0
 10
-556.0721157906234
 20
-669.3723382296314
 30
0.0
 10
-556.0721157906234
 20
-669.3723382296314
 30
0.0
 10
-556.0721157906234
 20
-661.720948387161
 30
0.0
 10
-556.0721157906234
 20
-661.720948387161
 30
0.0
 10
-556.0721157906234
 20
-661.720948387161
 30
0.0
 10
-555.0955366973641
 20
-661.720948387161
 30
0.0
 10
-555.0955366973641
 20
-661.720948387161
 30
0.0
 10
-555.0955366973641
 20
-661.720948387161
 30
0.0
 10
-555.0955366973641
 20
-669.8825672846262
 30
0.0
 10
-555.0955366973641
 20
-669.8825672846262
 30
0.0
 10
-555.0955366973641
 20
-670.6823515719023
 30
0.0
 10
-555.1800552586065
 20
-671.4319605749847
 30
0.0
 10
-555.3506390463962
 20
-672.1283740340465
 30
0.0
 10
-555.5196639904063
 20
-672.8280026084038
 30
0.0
 10
-555.8045061559422
 20
-673.4351722610149
 30
0.0
 10
-556.2051411860692
 20
-673.9500778473524
 30
0.0
 10
-556.6042295508841
 20
-674.4665422774763
 30
0.0
 10
-557.1379021549244
 20
-674.8734979319904
 30
0.0
 10
-557.8014824668542
 20
-675.172406226959
 30
0.0
 10
-558.4666094440966
 20
-675.4697556781413
 30
0.0
 10
-559.2945138117633
 20
-675.6199892475095
 30
0.0
 10
-560.2836245475965
 20
-675.6199892475095
 30
0.0
 10
-561.2742819487489
 20
-675.6199892475095
 30
0.0
 10
-562.1021741379443
 20
-675.4697556781413
 30
0.0
 10
-562.7657544498746
 20
-675.172406226959
 30
0.0
 10
-563.4324646278312
 20
-674.8734979319904
 30
0.0
 10
-563.964566209628
 20
-674.4665422774763
 30
0.0
 10
-564.3652255966864
 20
-673.9500778473524
 30
0.0
 10
-564.7643017830339
 20
-673.4351722610149
 30
0.0
 10
-565.0491317700988
 20
-672.8280026084038
 30
0.0
 10
-565.2181567141089
 20
-672.1283740340465
 30
0.0
 10
-565.3887526803694
 20
-671.4319605749847
 30
0.0
 10
-565.4732468846768
 20
-670.6823515719023
 30
0.0
 10
-565.4732468846768
 20
-669.8825672846262
 30
0.0
 10
-565.4732468846768
 20
-669.8825672846262
 30
0.0
 10
-565.4732468846768
 20
-661.720948387161
 30
0.0
 10
-565.4732468846768
 20
-661.720948387161
 30
0.0
  0
HATCH
  5
B3
330
98
100
AcDbEntity
  8
图层 1
 62
   250
420
  2170655
440
 33554687
100
AcDbHatch
 10
0.0
 20
0.0
 30
0.0
210
0.0
220
0.0
230
1.0
  2
SOLID
 70
     1
 71
     1
 91
        1
 92
        1
 93
        1
 72
     4
 94
        3
 73
     0
 74
     0
 95
       71
 96
       67
 40
0.0
 40
0.0
 40
0.0
 40
0.0
 40
1.0
 40
1.0
 40
1.0
 40
2.0
 40
2.0
 40
2.0
 40
3.0
 40
3.0
 40
3.0
 40
4.0
 40
4.0
 40
4.0
 40
5.0
 40
5.0
 40
5.0
 40
6.0
 40
6.0
 40
6.0
 40
7.0
 40
7.0
 40
7.0
 40
8.0
 40
8.0
 40
8.0
 40
9.0
 40
9.0
 40
9.0
 40
10.0
 40
10.0
 40
10.0
 40
11.0
 40
11.0
 40
11.0
 40
12.0
 40
12.0
 40
12.0
 40
13.0
 40
13.0
 40
13.0
 40
14.0
 40
14.0
 40
14.0
 40
15.0
 40
15.0
 40
15.0
 40
16.0
 40
16.0
 40
16.0
 40
17.0
 40
17.0
 40
17.0
 40
18.0
 40
18.0
 40
18.0
 40
19.0
 40
19.0
 40
19.0
 40
20.0
 40
20.0
 40
20.0
 40
21.0
 40
21.0
 40
21.0
 40
22.0
 40
22.0
 40
22.0
 40
22.0
 10
-565.4732468846768
 20
-661.720948387161
 10
-565.4732468846768
 20
-661.720948387161
 10
-564.4966799698884
 20
-661.720948387161
 10
-564.4966799698884
 20
-661.720948387161
 10
-564.4966799698884
 20
-661.720948387161
 10
-564.4966799698884
 20
-669.3723382296314
 10
-564.4966799698884
 20
-669.3723382296314
 10
-564.4966799698884
 20
-670.1470835886799
 10
-564.4356414930971
 20
-670.8591829132847
 10
-564.3135645395143
 20
-671.5101950472352
 10
-564.1914997643992
 20
-672.1613046089109
 10
-563.9708259416811
 20
-672.723072936414
 10
-563.6515674282986
 20
-673.1989100004938
 10
-563.332296736449
 20
-673.6746496368448
 10
-562.9034685551297
 20
-674.0424393413659
 10
-562.3604063530028
 20
-674.3069556454157
 10
-561.8173441508758
 20
-674.5713745217333
 10
-561.1255950446887
 20
-674.7044608095128
 10
-560.2836245475965
 20
-674.7044608095128
 10
-559.4431885373527
 20
-674.7044608095128
 10
-558.7498805873856
 20
-674.5713745217333
 10
-558.2083772290381
 20
-674.3069556454157
 10
-557.6668860491548
 20
-674.0424393413659
 10
-557.2349280018126
 20
-673.6746496368448
 10
-556.9172405106772
 20
-673.1989100004938
 10
-556.5963987965769
 20
-672.723072936414
 10
-556.3757371523297
 20
-672.1613046089109
 10
-556.2552190425267
 20
-671.5101950472352
 10
-556.1331542674115
 20
-670.8591829132847
 10
-556.0721157906234
 20
-670.1470835886799
 10
-556.0721157906234
 20
-669.3723382296314
 10
-556.0721157906234
 20
-669.3723382296314
 10
-556.0721157906234
 20
-661.720948387161
 10
-556.0721157906234
 20
-661.720948387161
 10
-556.0721157906234
 20
-661.720948387161
 10
-555.0955366973641
 20
-661.720948387161
 10
-555.0955366973641
 20
-661.720948387161
 10
-555.0955366973641
 20
-661.720948387161
 10
-555.0955366973641
 20
-669.8825672846262
 10
-555.0955366973641
 20
-669.8825672846262
 10
-555.0955366973641
 20
-670.6823515719023
 10
-555.1800552586065
 20
-671.4319605749847
 10
-555.3506390463962
 20
-672.1283740340465
 10
-555.5196639904063
 20
-672.8280026084038
 10
-555.8045061559422
 20
-673.4351722610149
 10
-556.2051411860692
 20
-673.9500778473524
 10
-556.6042295508841
 20
-674.4665422774763
 10
-557.1379021549244
 20
-674.8734979319904
 10
-557.8014824668542
 20
-675.172406226959
 10
-558.4666094440966
 20
-675.4697556781413
 10
-559.2945138117633
 20
-675.6199892475095
 10
-560.2836245475965
 20
-675.6199892475095
 10
-561.2742819487489
 20
-675.6199892475095
 10
-562.1021741379443
 20
-675.4697556781413
 10
-562.7657544498746
 20
-675.172406226959
 10
-563.4324646278312
 20
-674.8734979319904
 10
-563.964566209628
 20
-674.4665422774763
 10
-564.3652255966864
 20
-673.9500778473524
 10
-564.7643017830339
 20
-673.4351722610149
 10
-565.0491317700988
 20
-672.8280026084038
 10
-565.2181567141089
 20
-672.1283740340465
 10
-565.3887526803694
 20
-671.4319605749847
 10
-565.4732468846768
 20
-670.6823515719023
 10
-565.4732468846768
 20
-669.8825672846262
 10
-565.4732468846768
 20
-669.8825672846262
 10
-565.4732468846768
 20
-661.720948387161
 10
-565.4732468846768
 20
-661.720948387161
 97
        0
 97
        1
330
B2
 75
     2
 76
     1
 98
        1
 10
0.0
 20
0.0
450
        0
451
        0
460
0.0
461
0.0
452
        0
462
0.0
453
        0
470

  0
SPLINE
  5
B4
330
98
100
AcDbEntity
  8
图层 1
100
AcDbSpline
210
0.0
220
0.0
230
1.0
 70
     9
 71
     3
 72
    23
 73
    19
 74
     0
 42
0.0000000001
 43
0.0000000001
 40
0.0
 40
0.0
 40
0.0
 40
0.0
 40
1.0
 40
1.0
 40
1.0
 40
2.0
 40
2.0
 40
2.0
 40
3.0
 40
3.0
 40
3.0
 40
4.0
 40
4.0
 40
4.0
 40
5.0
 40
5.0
 40
5.0
 40
6.0
 40
6.0
 40
6.0
 40
6.0
 10
-545.9786144885615
 20
-668.4976320131401
 30
0.0
 10
-543.7406263149848
 20
-668.4976320131401
 30
0.0
 10
-542.6216200497293
 20
-667.5210163844854
 30
0.0
 10
-542.6216200497293
 20
-665.5678825549156
 30
0.0
 10
-542.6216200497293
 20
-664.5913643539938
 30
0.0
 10
-542.9158518133485
 20
-663.8573437887177
 30
0.0
 10
-543.5058741843737
 20
-663.3705948181698
 30
0.0
 10
-544.0974432207112
 20
-662.880728160063
 30
0.0
 10
-544.9613471369351
 20
-662.6365742529014
 30
0.0
 10
-546.1006914421443
 20
-662.6365742529014
 30
0.0
 10
-546.1006914421443
 20
-662.6365742529014
 30
0.0
 10
-549.4983619608831
 20
-662.6365742529014
 30
0.0
 10
-549.4983619608831
 20
-662.6365742529014
 30
0.0
 10
-549.4983619608831
 20
-662.6365742529014
 30
0.0
 10
-549.4983619608831
 20
-668.4976320131401
 30
0.0
 10
-549.4983619608831
 20
-668.4976320131401
 30
0.0
 10
-549.4983619608831
 20
-668.4976320131401
 30
0.0
 10
-545.9786144885615
 20
-668.4976320131401
 30
0.0
 10
-545.9786144885615
 20
-668.4976320131401
 30
0.0
  0
SPLINE
  5
B5
330
98
100
AcDbEntity
  8
图层 1
100
AcDbSpline
210
0.0
220
0.0
230
1.0
 70
    11
 71
     3
 72
    47
 73
    43
 74
     0
 42
0.0000000001
 43
0.0000000001
 40
0.0
 40
0.0
 40
0.0
 40
0.0
 40
1.0
 40
1.0
 40
1.0
 40
2.0
 40
2.0
 40
2.0
 40
3.0
 40
3.0
 40
3.0
 40
4.0
 40
4.0
 40
4.0
 40
5.0
 40
5.0
 40
5.0
 40
6.0
 40
6.0
 40
6.0
 40
7.0
 40
7.0
 40
7.0
 40
8.0
 40
8.0
 40
8.0
 40
9.0
 40
9.0
 40
9.0
 40
10.0
 40
10.0
 40
10.0
 40
11.0
 40
11.0
 40
11.0
 40
12.0
 40
12.0
 40
12.0
 40
13.0
 40
13.0
 40
13.0
 40
14.0
 40
14.0
 40
14.0
 40
14.0
 10
-550.4765120763893
 20
-661.7210458149042
 30
0.0
 10
-550.4765120763893
 20
-661.7210458149042
 30
0.0
 10
-546.3855214292126
 20
-661.7210458149042
 30
0.0
 10
-546.3855214292126
 20
-661.7210458149042
 30
0.0
 10
-545.5028504952824
 20
-661.7210458149042
 30
0.0
 10
-544.7578814881437
 20
-661.8149661526976
 30
0.0
 10
-544.1475210771653
 20
-662.0043656720595
 30
0.0
 10
-543.5371606661899
 20
-662.1967854512448
 30
0.0
 10
-543.0410464544904
 20
-662.4644194428573
 30
0.0
 10
-542.6623204865673
 20
-662.8087290629416
 30
0.0
 10
-542.2835701617056
 20
-663.1545975267977
 30
0.0
 10
-542.0065709289409
 20
-663.563112025095
 30
0.0
 10
-541.8375459849309
 20
-664.0310574425374
 30
0.0
 10
-541.6685210409208
 20
-664.4974440162003
 30
0.0
 10
-541.5824436358991
 20
-665.0107907587584
 30
0.0
 10
-541.5824436358991
 20
-665.5678825549156
 30
0.0
 10
-541.5824436358991
 20
-666.4490190019972
 30
0.0
 10
-541.8109360344534
 20
-667.2331174237305
 30
0.0
 10
-542.2648031439994
 20
-667.9169627048025
 30
0.0
 10
-542.7202290973321
 20
-668.6009054136209
 30
0.0
 10
-543.4417058415522
 20
-669.0594977683791
 30
0.0
 10
-544.4323632427047
 20
-669.2910834975574
 30
0.0
 10
-544.4323632427047
 20
-669.2910834975574
 30
0.0
 10
-541.1958747352009
 20
-675.2945806082744
 30
0.0
 10
-541.1958747352009
 20
-675.2945806082744
 30
0.0
 10
-541.1958747352009
 20
-675.2945806082744
 30
0.0
 10
-542.3164398442398
 20
-675.2945806082744
 30
0.0
 10
-542.3164398442398
 20
-675.2945806082744
 30
0.0
 10
-542.3164398442398
 20
-675.2945806082744
 30
0.0
 10
-545.4699808127485
 20
-669.4131604511437
 30
0.0
 10
-545.4699808127485
 20
-669.4131604511437
 30
0.0
 10
-545.4699808127485
 20
-669.4131604511437
 30
0.0
 10
-549.4983619608831
 20
-669.4131604511437
 30
0.0
 10
-549.4983619608831
 20
-669.4131604511437
 30
0.0
 10
-549.4983619608831
 20
-669.4131604511437
 30
0.0
 10
-549.4983619608831
 20
-675.2945806082744
 30
0.0
 10
-549.4983619608831
 20
-675.2945806082744
 30
0.0
 10
-549.4983619608831
 20
-675.2945806082744
 30
0.0
 10
-550.4765120763893
 20
-675.2945806082744
 30
0.0
 10
-550.4765120763893
 20
-675.2945806082744
 30
0.0
 10
-550.4765120763893
 20
-675.2945806082744
 30
0.0
 10
-550.4765120763893
 20
-661.7210458149042
 30
0.0
 10
-550.4765120763893
 20
-661.7210458149042
 30
0.0
  0
HATCH
  5
B6
330
98
100
AcDbEntity
  8
图层 1
 62
   250
420
  2170655
440
 33554687
100
AcDbHatch
 10
0.0
 20
0.0
 30
0.0
210
0.0
220
0.0
230
1.0
  2
SOLID
 70
     1
 71
     1
 91
        2
 92
        1
 93
        1
 72
     4
 94
        3
 73
     0
 74
     0
 95
       23
 96
       19
 40
0.0
 40
0.0
 40
0.0
 40
0.0
 40
1.0
 40
1.0
 40
1.0
 40
2.0
 40
2.0
 40
2.0
 40
3.0
 40
3.0
 40
3.0
 40
4.0
 40
4.0
 40
4.0
 40
5.0
 40
5.0
 40
5.0
 40
6.0
 40
6.0
 40
6.0
 40
6.0
 10
-545.9786144885615
 20
-668.4976320131401
 10
-543.7406263149848
 20
-668.4976320131401
 10
-542.6216200497293
 20
-667.5210163844854
 10
-542.6216200497293
 20
-665.5678825549156
 10
-542.6216200497293
 20
-664.5913643539938
 10
-542.9158518133485
 20
-663.8573437887177
 10
-543.5058741843737
 20
-663.3705948181698
 10
-544.0974432207112
 20
-662.880728160063
 10
-544.9613471369351
 20
-662.6365742529014
 10
-546.1006914421443
 20
-662.6365742529014
 10
-546.1006914421443
 20
-662.6365742529014
 10
-549.4983619608831
 20
-662.6365742529014
 10
-549.4983619608831
 20
-662.6365742529014
 10
-549.4983619608831
 20
-662.6365742529014
 10
-549.4983619608831
 20
-668.4976320131401
 10
-549.4983619608831
 20
-668.4976320131401
 10
-549.4983619608831
 20
-668.4976320131401
 10
-545.9786144885615
 20
-668.4976320131401
 10
-545.9786144885615
 20
-668.4976320131401
 97
        0
 97
        1
330
B4
 92
        1
 93
        1
 72
     4
 94
        3
 73
     0
 74
     0
 95
       47
 96
       43
 40
0.0
 40
0.0
 40
0.0
 40
0.0
 40
1.0
 40
1.0
 40
1.0
 40
2.0
 40
2.0
 40
2.0
 40
3.0
 40
3.0
 40
3.0
 40
4.0
 40
4.0
 40
4.0
 40
5.0
 40
5.0
 40
5.0
 40
6.0
 40
6.0
 40
6.0
 40
7.0
 40
7.0
 40
7.0
 40
8.0
 40
8.0
 40
8.0
 40
9.0
 40
9.0
 40
9.0
 40
10.0
 40
10.0
 40
10.0
 40
11.0
 40
11.0
 40
11.0
 40
12.0
 40
12.0
 40
12.0
 40
13.0
 40
13.0
 40
13.0
 40
14.0
 40
14.0
 40
14.0
 40
14.0
 10
-550.4765120763893
 20
-661.7210458149042
 10
-550.4765120763893
 20
-661.7210458149042
 10
-546.3855214292126
 20
-661.7210458149042
 10
-546.3855214292126
 20
-661.7210458149042
 10
-545.5028504952824
 20
-661.7210458149042
 10
-544.7578814881437
 20
-661.8149661526976
 10
-544.1475210771653
 20
-662.0043656720595
 10
-543.5371606661899
 20
-662.1967854512448
 10
-543.0410464544904
 20
-662.4644194428573
 10
-542.6623204865673
 20
-662.8087290629416
 10
-542.2835701617056
 20
-663.1545975267977
 10
-542.0065709289409
 20
-663.563112025095
 10
-541.8375459849309
 20
-664.0310574425374
 10
-541.6685210409208
 20
-664.4974440162003
 10
-541.5824436358991
 20
-665.0107907587584
 10
-541.5824436358991
 20
-665.5678825549156
 10
-541.5824436358991
 20
-666.4490190019972
 10
-541.8109360344534
 20
-667.2331174237305
 10
-542.2648031439994
 20
-667.9169627048025
 10
-542.7202290973321
 20
-668.6009054136209
 10
-543.4417058415522
 20
-669.0594977683791
 10
-544.4323632427047
 20
-669.2910834975574
 10
-544.4323632427047
 20
-669.2910834975574
 10
-541.1958747352009
 20
-675.2945806082744
 10
-541.1958747352009
 20
-675.2945806082744
 10
-541.1958747352009
 20
-675.2945806082744
 10
-542.3164398442398
 20
-675.2945806082744
 10
-542.3164398442398
 20
-675.2945806082744
 10
-542.3164398442398
 20
-675.2945806082744
 10
-545.4699808127485
 20
-669.4131604511437
 10
-545.4699808127485
 20
-669.4131604511437
 10
-545.4699808127485
 20
-669.4131604511437
 10
-549.4983619608831
 20
-669.4131604511437
 10
-549.4983619608831
 20
-669.4131604511437
 10
-549.4983619608831
 20
-669.4131604511437
 10
-549.4983619608831
 20
-675.2945806082744
 10
-549.4983619608831
 20
-675.2945806082744
 10
-549.4983619608831
 20
-675.2945806082744
 10
-550.4765120763893
 20
-675.2945806082744
 10
-550.4765120763893
 20
-675.2945806082744
 10
-550.4765120763893
 20
-675.2945806082744
 10
-550.4765120763893
 20
-661.7210458149042
 10
-550.4765120763893
 20
-661.7210458149042
 97
        0
 97
        1
330
B5
 75
     2
 76
     1
 98
        1
 10
0.0
 20
0.0
450
        0
451
        0
460
0.0
461
0.0
452
        0
462
0.0
453
        0
470

  0
LWPOLYLINE
  5
B7
330
98
100
AcDbEntity
  8
图层 1
100
AcDbPolyline
 90
       12
 70
     1
 43
0.0
 10
-537.1270123626351
 20
-661.720948387161
 10
-528.9873025273701
 20
-661.720948387161
 10
-528.9873025273701
 20
-662.6364768251653
 10
-536.150445447847
 20
-662.6364768251653
 10
-536.150445447847
 20
-667.7650728639181
 10
-530.5538918131802
 20
-667.7650728639181
 10
-530.5538918131802
 20
-668.6806013019147
 10
-536.150445447847
 20
-668.6806013019147
 10
-536.150445447847
 20
-674.378954742541
 10
-528.4598896553867
 20
-674.378954742541
 10
-528.4598896553867
 20
-675.2944831805383
 10
-537.1270123626351
 20
-675.2944831805383
  0
HATCH
  5
B8
330
98
100
AcDbEntity
  8
图层 1
 62
   250
420
  2170655
440
 33554687
100
AcDbHatch
 10
0.0
 20
0.0
 30
0.0
210
0.0
220
0.0
230
1.0
  2
SOLID
 70
     1
 71
     1
 91
        1
 92
        1
 93
       12
 72
     1
 10
-537.1270123626351
 20
-661.720948387161
 11
-528.9873025273701
 21
-661.720948387161
 72
     1
 10
-528.9873025273701
 20
-661.720948387161
 11
-528.9873025273701
 21
-662.6364768251653
 72
     1
 10
-528.9873025273701
 20
-662.6364768251653
 11
-536.150445447847
 21
-662.6364768251653
 72
     1
 10
-536.150445447847
 20
-662.6364768251653
 11
-536.150445447847
 21
-667.7650728639181
 72
     1
 10
-536.150445447847
 20
-667.7650728639181
 11
-530.5538918131802
 21
-667.7650728639181
 72
     1
 10
-530.5538918131802
 20
-667.7650728639181
 11
-530.5538918131802
 21
-668.6806013019147
 72
     1
 10
-530.5538918131802
 20
-668.6806013019147
 11
-536.150445447847
 21
-668.6806013019147
 72
     1
 10
-536.150445447847
 20
-668.6806013019147
 11
-536.150445447847
 21
-674.378954742541
 72
     1
 10
-536.150445447847
 20
-674.378954742541
 11
-528.4598896553867
 21
-674.378954742541
 72
     1
 10
-528.4598896553867
 20
-674.378954742541
 11
-528.4598896553867
 21
-675.2944831805383
 72
     1
 10
-528.4598896553867
 20
-675.2944831805383
 11
-537.1270123626351
 21
-675.2944831805383
 72
     1
 10
-537.1270123626351
 20
-675.2944831805383
 11
-537.1270123626351
 21
-661.720948387161
 97
        1
330
B7
 75
     2
 76
     1
 98
        1
 10
0.0
 20
0.0
450
        0
451
        0
460
0.0
461
0.0
452
        0
462
0.0
453
        0
470

  0
LWPOLYLINE
  5
B9
330
98
100
AcDbEntity
  8
图层 1
100
AcDbPolyline
 90
       12
 70
     1
 43
0.0
 10
-516.8193698640439
 20
-661.720948387161
 10
-515.8396609047612
 20
-661.720948387161
 10
-515.8396609047612
 20
-667.7650728639181
 10
-507.2946151510959
 20
-667.7650728639181
 10
-507.2946151510959
 20
-661.720948387161
 10
-506.3180238793726
 20
-661.720948387161
 10
-506.3180238793726
 20
-675.2944831805383
 10
-507.2946151510959
 20
-675.2944831805383
 10
-507.2946151510959
 20
-668.6806013019147
 10
-515.8396609047612
 20
-668.6806013019147
 10
-515.8396609047612
 20
-675.2944831805383
 10
-516.8193698640439
 20
-675.2944831805383
  0
HATCH
  5
BA
330
98
100
AcDbEntity
  8
图层 1
 62
   250
420
  2170655
440
 33554687
100
AcDbHatch
 10
0.0
 20
0.0
 30
0.0
210
0.0
220
0.0
230
1.0
  2
SOLID
 70
     1
 71
     1
 91
        1
 92
        1
 93
       12
 72
     1
 10
-516.8193698640439
 20
-661.720948387161
 11
-515.8396609047612
 21
-661.720948387161
 72
     1
 10
-515.8396609047612
 20
-661.720948387161
 11
-515.8396609047612
 21
-667.7650728639181
 72
     1
 10
-515.8396609047612
 20
-667.7650728639181
 11
-507.2946151510959
 21
-667.7650728639181
 72
     1
 10
-507.2946151510959
 20
-667.7650728639181
 11
-507.2946151510959
 21
-661.720948387161
 72
     1
 10
-507.2946151510959
 20
-661.720948387161
 11
-506.3180238793726
 21
-661.720948387161
 72
     1
 10
-506.3180238793726
 20
-661.720948387161
 11
-506.3180238793726
 21
-675.2944831805383
 72
     1
 10
-506.3180238793726
 20
-675.2944831805383
 11
-507.2946151510959
 21
-675.2944831805383
 72
     1
 10
-507.2946151510959
 20
-675.2944831805383
 11
-507.2946151510959
 21
-668.6806013019147
 72
     1
 10
-507.2946151510959
 20
-668.6806013019147
 11
-515.8396609047612
 21
-668.6806013019147
 72
     1
 10
-515.8396609047612
 20
-668.6806013019147
 11
-515.8396609047612
 21
-675.2944831805383
 72
     1
 10
-515.8396609047612
 20
-675.2944831805383
 11
-516.8193698640439
 21
-675.2944831805383
 72
     1
 10
-516.8193698640439
 20
-675.2944831805383
 11
-516.8193698640439
 21
-661.720948387161
 97
        1
330
B9
 75
     2
 76
     1
 98
        1
 10
0.0
 20
0.0
450
        0
451
        0
460
0.0
461
0.0
452
        0
462
0.0
453
        0
470

  0
SPLINE
  5
BB
330
98
100
AcDbEntity
  8
图层 1
100
AcDbSpline
210
0.0
220
0.0
230
1.0
 70
    11
 71
     3
 72
    14
 73
    10
 74
     0
 42
0.0000000001
 43
0.0000000001
 40
0.0
 40
0.0
 40
0.0
 40
0.0
 40
1.0
 40
1.0
 40
1.0
 40
2.0
 40
2.0
 40
2.0
 40
3.0
 40
3.0
 40
3.0
 40
3.0
 10
-494.1081607540352
 20
-670.0030853944261
 30
0.0
 10
-494.1081607540352
 20
-670.0030853944261
 30
0.0
 10
-496.937754499355
 20
-662.961982892137
 30
0.0
 10
-496.937754499355
 20
-662.961982892137
 30
0.0
 10
-496.937754499355
 20
-662.961982892137
 30
0.0
 10
-499.765740687022
 20
-670.0030853944261
 30
0.0
 10
-499.765740687022
 20
-670.0030853944261
 30
0.0
 10
-499.765740687022
 20
-670.0030853944261
 30
0.0
 10
-494.1081607540352
 20
-670.0030853944261
 30
0.0
 10
-494.1081607540352
 20
-670.0030853944261
 30
0.0
  0
SPLINE
  5
BC
330
98
100
AcDbEntity
  8
图层 1
100
AcDbSpline
210
0.0
220
0.0
230
1.0
 70
    11
 71
     3
 72
    29
 73
    25
 74
     0
 42
0.0000000001
 43
0.0000000001
 40
0.0
 40
0.0
 40
0.0
 40
0.0
 40
1.0
 40
1.0
 40
1.0
 40
2.0
 40
2.0
 40
2.0
 40
3.0
 40
3.0
 40
3.0
 40
4.0
 40
4.0
 40
4.0
 40
5.0
 40
5.0
 40
5.0
 40
6.0
 40
6.0
 40
6.0
 40
7.0
 40
7.0
 40
7.0
 40
8.0
 40
8.0
 40
8.0
 40
8.0
 10
-497.3853375199096
 20
-661.720948387161
 30
0.0
 10
-497.3853375199096
 20
-661.720948387161
 30
0.0
 10
-496.4087462481863
 20
-661.720948387161
 30
0.0
 10
-496.4087462481863
 20
-661.720948387161
 30
0.0
 10
-496.4087462481863
 20
-661.720948387161
 30
0.0
 10
-490.8529052288325
 20
-675.2944831805383
 30
0.0
 10
-490.8529052288325
 20
-675.2944831805383
 30
0.0
 10
-490.8529052288325
 20
-675.2944831805383
 30
0.0
 10
-491.9719114940845
 20
-675.2944831805383
 30
0.0
 10
-491.9719114940845
 20
-675.2944831805383
 30
0.0
 10
-491.9719114940845
 20
-675.2944831805383
 30
0.0
 10
-493.7419542502255
 20
-670.9186138324297
 30
0.0
 10
-493.7419542502255
 20
-670.9186138324297
 30
0.0
 10
-493.7419542502255
 20
-670.9186138324297
 30
0.0
 10
-500.13197154777
 20
-670.9186138324297
 30
0.0
 10
-500.13197154777
 20
-670.9186138324297
 30
0.0
 10
-500.13197154777
 20
-670.9186138324297
 30
0.0
 10
-501.8816762639544
 20
-675.2944831805383
 30
0.0
 10
-501.8816762639544
 20
-675.2944831805383
 30
0.0
 10
-501.8816762639544
 20
-675.2944831805383
 30
0.0
 10
-502.939619695484
 20
-675.2944831805383
 30
0.0
 10
-502.939619695484
 20
-675.2944831805383
 30
0.0
 10
-502.939619695484
 20
-675.2944831805383
 30
0.0
 10
-497.3853375199096
 20
-661.720948387161
 30
0.0
 10
-497.3853375199096
 20
-661.720948387161
 30
0.0
  0
HATCH
  5
BD
330
98
100
AcDbEntity
  8
图层 1
 62
   250
420
  2170655
440
 33554687
100
AcDbHatch
 10
0.0
 20
0.0
 30
0.0
210
0.0
220
0.0
230
1.0
  2
SOLID
 70
     1
 71
     1
 91
        2
 92
        1
 93
        1
 72
     4
 94
        3
 73
     0
 74
     0
 95
       14
 96
       10
 40
0.0
 40
0.0
 40
0.0
 40
0.0
 40
1.0
 40
1.0
 40
1.0
 40
2.0
 40
2.0
 40
2.0
 40
3.0
 40
3.0
 40
3.0
 40
3.0
 10
-494.1081607540352
 20
-670.0030853944261
 10
-494.1081607540352
 20
-670.0030853944261
 10
-496.937754499355
 20
-662.961982892137
 10
-496.937754499355
 20
-662.961982892137
 10
-496.937754499355
 20
-662.961982892137
 10
-499.765740687022
 20
-670.0030853944261
 10
-499.765740687022
 20
-670.0030853944261
 10
-499.765740687022
 20
-670.0030853944261
 10
-494.1081607540352
 20
-670.0030853944261
 10
-494.1081607540352
 20
-670.0030853944261
 97
        0
 97
        1
330
BB
 92
        1
 93
        1
 72
     4
 94
        3
 73
     0
 74
     0
 95
       29
 96
       25
 40
0.0
 40
0.0
 40
0.0
 40
0.0
 40
1.0
 40
1.0
 40
1.0
 40
2.0
 40
2.0
 40
2.0
 40
3.0
 40
3.0
 40
3.0
 40
4.0
 40
4.0
 40
4.0
 40
5.0
 40
5.0
 40
5.0
 40
6.0
 40
6.0
 40
6.0
 40
7.0
 40
7.0
 40
7.0
 40
8.0
 40
8.0
 40
8.0
 40
8.0
 10
-497.3853375199096
 20
-661.720948387161
 10
-497.3853375199096
 20
-661.720948387161
 10
-496.4087462481863
 20
-661.720948387161
 10
-496.4087462481863
 20
-661.720948387161
 10
-496.4087462481863
 20
-661.720948387161
 10
-490.8529052288325
 20
-675.2944831805383
 10
-490.8529052288325
 20
-675.2944831805383
 10
-490.8529052288325
 20
-675.2944831805383
 10
-491.9719114940845
 20
-675.2944831805383
 10
-491.9719114940845
 20
-675.2944831805383
 10
-491.9719114940845
 20
-675.2944831805383
 10
-493.7419542502255
 20
-670.9186138324297
 10
-493.7419542502255
 20
-670.9186138324297
 10
-493.7419542502255
 20
-670.9186138324297
 10
-500.13197154777
 20
-670.9186138324297
 10
-500.13197154777
 20
-670.9186138324297
 10
-500.13197154777
 20
-670.9186138324297
 10
-501.8816762639544
 20
-675.2944831805383
 10
-501.8816762639544
 20
-675.2944831805383
 10
-501.8816762639544
 20
-675.2944831805383
 10
-502.939619695484
 20
-675.2944831805383
 10
-502.939619695484
 20
-675.2944831805383
 10
-502.939619695484
 20
-675.2944831805383
 10
-497.3853375199096
 20
-661.720948387161
 10
-497.3853375199096
 20
-661.720948387161
 97
        0
 97
        1
330
BC
 75
     2
 76
     1
 98
        1
 10
0.0
 20
0.0
450
        0
451
        0
460
0.0
461
0.0
452
        0
462
0.0
453
        0
470

  0
SPLINE
  5
BE
330
98
100
AcDbEntity
  8
图层 1
100
AcDbSpline
210
0.0
220
0.0
230
1.0
 70
     9
 71
     3
 72
    23
 73
    19
 74
     0
 42
0.0000000001
 43
0.0000000001
 40
0.0
 40
0.0
 40
0.0
 40
0.0
 40
1.0
 40
1.0
 40
1.0
 40
2.0
 40
2.0
 40
2.0
 40
3.0
 40
3.0
 40
3.0
 40
4.0
 40
4.0
 40
4.0
 40
5.0
 40
5.0
 40
5.0
 40
6.0
 40
6.0
 40
6.0
 40
6.0
 10
-482.9764329585784
 20
-668.4976320131401
 30
0.0
 10
-480.738444785002
 20
-668.4976320131401
 30
0.0
 10
-479.6194628766776
 20
-667.5210163844854
 30
0.0
 10
-479.6194628766776
 20
-665.5678825549156
 30
0.0
 10
-479.6194628766776
 20
-664.5913643539938
 30
0.0
 10
-479.9152534840799
 20
-663.8573437887177
 30
0.0
 10
-480.5052514981706
 20
-663.3705948181698
 30
0.0
 10
-481.0952738691923
 20
-662.880728160063
 30
0.0
 10
-481.9591656069523
 20
-662.6365742529014
 30
0.0
 10
-483.0985099121612
 20
-662.6365742529014
 30
0.0
 10
-483.0985099121612
 20
-662.6365742529014
 30
0.0
 10
-486.4977636316148
 20
-662.6365742529014
 30
0.0
 10
-486.4977636316148
 20
-662.6365742529014
 30
0.0
 10
-486.4977636316148
 20
-662.6365742529014
 30
0.0
 10
-486.4977636316148
 20
-668.4976320131401
 30
0.0
 10
-486.4977636316148
 20
-668.4976320131401
 30
0.0
 10
-486.4977636316148
 20
-668.4976320131401
 30
0.0
 10
-482.9764329585784
 20
-668.4976320131401
 30
0.0
 10
-482.9764329585784
 20
-668.4976320131401
 30
0.0
  0
SPLINE
  5
BF
330
98
100
AcDbEntity
  8
图层 1
100
AcDbSpline
210
0.0
220
0.0
230
1.0
 70
    11
 71
     3
 72
    47
 73
    43
 74
     0
 42
0.0000000001
 43
0.0000000001
 40
0.0
 40
0.0
 40
0.0
 40
0.0
 40
1.0
 40
1.0
 40
1.0
 40
2.0
 40
2.0
 40
2.0
 40
3.0
 40
3.0
 40
3.0
 40
4.0
 40
4.0
 40
4.0
 40
5.0
 40
5.0
 40
5.0
 40
6.0
 40
6.0
 40
6.0
 40
7.0
 40
7.0
 40
7.0
 40
8.0
 40
8.0
 40
8.0
 40
9.0
 40
9.0
 40
9.0
 40
10.0
 40
10.0
 40
10.0
 40
11.0
 40
11.0
 40
11.0
 40
12.0
 40
12.0
 40
12.0
 40
13.0
 40
13.0
 40
13.0
 40
14.0
 40
14.0
 40
14.0
 40
14.0
 10
-487.4743549033379
 20
-661.7210458149042
 30
0.0
 10
-487.4743549033379
 20
-661.7210458149042
 30
0.0
 10
-483.3833642561647
 20
-661.7210458149042
 30
0.0
 10
-483.3833642561647
 20
-661.7210458149042
 30
0.0
 10
-482.5022521660139
 20
-661.7210458149042
 30
0.0
 10
-481.7557121366284
 20
-661.8149661526976
 30
0.0
 10
-481.1453517256497
 20
-662.0043656720595
 30
0.0
 10
-480.5349913146748
 20
-662.1967854512448
 30
0.0
 10
-480.0404481252218
 20
-662.4644194428573
 30
0.0
 10
-479.6601633135158
 20
-662.8087290629416
 30
0.0
 10
-479.2814129886574
 20
-663.1545975267977
 30
0.0
 10
-479.00598477814
 20
-663.563112025095
 30
0.0
 10
-478.8369476556623
 20
-664.0310574425374
 30
0.0
 10
-478.6663516894053
 20
-664.4974440162003
 30
0.0
 10
-478.581833128163
 20
-665.0107907587584
 30
0.0
 10
-478.581833128163
 20
-665.5678825549156
 30
0.0
 10
-478.581833128163
 20
-666.4490190019972
 30
0.0
 10
-478.8087666829379
 20
-667.2331174237305
 30
0.0
 10
-479.2641926362671
 20
-667.9169627048025
 30
0.0
 10
-479.7180597458095
 20
-668.6009054136209
 30
0.0
 10
-480.4410953338164
 20
-669.0594977683791
 30
0.0
 10
-481.4302060696532
 20
-669.2910834975574
 30
0.0
 10
-481.4302060696532
 20
-669.2910834975574
 30
0.0
 10
-478.1952885844
 20
-675.2945806082744
 30
0.0
 10
-478.1952885844
 20
-675.2945806082744
 30
0.0
 10
-478.1952885844
 20
-675.2945806082744
 30
0.0
 10
-479.314270492721
 20
-675.2945806082744
 30
0.0
 10
-479.314270492721
 20
-675.2945806082744
 30
0.0
 10
-479.314270492721
 20
-675.2945806082744
 30
0.0
 10
-482.4678114612329
 20
-669.4131604511437
 30
0.0
 10
-482.4678114612329
 20
-669.4131604511437
 30
0.0
 10
-482.4678114612329
 20
-669.4131604511437
 30
0.0
 10
-486.4977636316148
 20
-669.4131604511437
 30
0.0
 10
-486.4977636316148
 20
-669.4131604511437
 30
0.0
 10
-486.4977636316148
 20
-669.4131604511437
 30
0.0
 10
-486.4977636316148
 20
-675.2945806082744
 30
0.0
 10
-486.4977636316148
 20
-675.2945806082744
 30
0.0
 10
-486.4977636316148
 20
-675.2945806082744
 30
0.0
 10
-487.4743549033379
 20
-675.2945806082744
 30
0.0
 10
-487.4743549033379
 20
-675.2945806082744
 30
0.0
 10
-487.4743549033379
 20
-675.2945806082744
 30
0.0
 10
-487.4743549033379
 20
-661.7210458149042
 30
0.0
 10
-487.4743549033379
 20
-661.7210458149042
 30
0.0
  0
HATCH
  5
C0
330
98
100
AcDbEntity
  8
图层 1
 62
   250
420
  2170655
440
 33554687
100
AcDbHatch
 10
0.0
 20
0.0
 30
0.0
210
0.0
220
0.0
230
1.0
  2
SOLID
 70
     1
 71
     1
 91
        2
 92
        1
 93
        1
 72
     4
 94
        3
 73
     0
 74
     0
 95
       23
 96
       19
 40
0.0
 40
0.0
 40
0.0
 40
0.0
 40
1.0
 40
1.0
 40
1.0
 40
2.0
 40
2.0
 40
2.0
 40
3.0
 40
3.0
 40
3.0
 40
4.0
 40
4.0
 40
4.0
 40
5.0
 40
5.0
 40
5.0
 40
6.0
 40
6.0
 40
6.0
 40
6.0
 10
-482.9764329585784
 20
-668.4976320131401
 10
-480.738444785002
 20
-668.4976320131401
 10
-479.6194628766776
 20
-667.5210163844854
 10
-479.6194628766776
 20
-665.5678825549156
 10
-479.6194628766776
 20
-664.5913643539938
 10
-479.9152534840799
 20
-663.8573437887177
 10
-480.5052514981706
 20
-663.3705948181698
 10
-481.0952738691923
 20
-662.880728160063
 10
-481.9591656069523
 20
-662.6365742529014
 10
-483.0985099121612
 20
-662.6365742529014
 10
-483.0985099121612
 20
-662.6365742529014
 10
-486.4977636316148
 20
-662.6365742529014
 10
-486.4977636316148
 20
-662.6365742529014
 10
-486.4977636316148
 20
-662.6365742529014
 10
-486.4977636316148
 20
-668.4976320131401
 10
-486.4977636316148
 20
-668.4976320131401
 10
-486.4977636316148
 20
-668.4976320131401
 10
-482.9764329585784
 20
-668.4976320131401
 10
-482.9764329585784
 20
-668.4976320131401
 97
        0
 97
        1
330
BE
 92
        1
 93
        1
 72
     4
 94
        3
 73
     0
 74
     0
 95
       47
 96
       43
 40
0.0
 40
0.0
 40
0.0
 40
0.0
 40
1.0
 40
1.0
 40
1.0
 40
2.0
 40
2.0
 40
2.0
 40
3.0
 40
3.0
 40
3.0
 40
4.0
 40
4.0
 40
4.0
 40
5.0
 40
5.0
 40
5.0
 40
6.0
 40
6.0
 40
6.0
 40
7.0
 40
7.0
 40
7.0
 40
8.0
 40
8.0
 40
8.0
 40
9.0
 40
9.0
 40
9.0
 40
10.0
 40
10.0
 40
10.0
 40
11.0
 40
11.0
 40
11.0
 40
12.0
 40
12.0
 40
12.0
 40
13.0
 40
13.0
 40
13.0
 40
14.0
 40
14.0
 40
14.0
 40
14.0
 10
-487.4743549033379
 20
-661.7210458149042
 10
-487.4743549033379
 20
-661.7210458149042
 10
-483.3833642561647
 20
-661.7210458149042
 10
-483.3833642561647
 20
-661.7210458149042
 10
-482.5022521660139
 20
-661.7210458149042
 10
-481.7557121366284
 20
-661.8149661526976
 10
-481.1453517256497
 20
-662.0043656720595
 10
-480.5349913146748
 20
-662.1967854512448
 10
-480.0404481252218
 20
-662.4644194428573
 10
-479.6601633135158
 20
-662.8087290629416
 10
-479.2814129886574
 20
-663.1545975267977
 10
-479.00598477814
 20
-663.563112025095
 10
-478.8369476556623
 20
-664.0310574425374
 10
-478.6663516894053
 20
-664.4974440162003
 10
-478.581833128163
 20
-665.0107907587584
 10
-478.581833128163
 20
-665.5678825549156
 10
-478.581833128163
 20
-666.4490190019972
 10
-478.8087666829379
 20
-667.2331174237305
 10
-479.2641926362671
 20
-667.9169627048025
 10
-479.7180597458095
 20
-668.6009054136209
 10
-480.4410953338164
 20
-669.0594977683791
 10
-481.4302060696532
 20
-669.2910834975574
 10
-481.4302060696532
 20
-669.2910834975574
 10
-478.1952885844
 20
-675.2945806082744
 10
-478.1952885844
 20
-675.2945806082744
 10
-478.1952885844
 20
-675.2945806082744
 10
-479.314270492721
 20
-675.2945806082744
 10
-479.314270492721
 20
-675.2945806082744
 10
-479.314270492721
 20
-675.2945806082744
 10
-482.4678114612329
 20
-669.4131604511437
 10
-482.4678114612329
 20
-669.4131604511437
 10
-482.4678114612329
 20
-669.4131604511437
 10
-486.4977636316148
 20
-669.4131604511437
 10
-486.4977636316148
 20
-669.4131604511437
 10
-486.4977636316148
 20
-669.4131604511437
 10
-486.4977636316148
 20
-675.2945806082744
 10
-486.4977636316148
 20
-675.2945806082744
 10
-486.4977636316148
 20
-675.2945806082744
 10
-487.4743549033379
 20
-675.2945806082744
 10
-487.4743549033379
 20
-675.2945806082744
 10
-487.4743549033379
 20
-675.2945806082744
 10
-487.4743549033379
 20
-661.7210458149042
 10
-487.4743549033379
 20
-661.7210458149042
 97
        0
 97
        1
330
BF
 75
     2
 76
     1
 98
        1
 10
0.0
 20
0.0
450
        0
451
        0
460
0.0
461
0.0
452
        0
462
0.0
453
        0
470

  0
SPLINE
  5
C1
330
98
100
AcDbEntity
  8
图层 1
100
AcDbSpline
210
0.0
220
0.0
230
1.0
 70
     9
 71
     3
 72
    38
 73
    34
 74
     0
 42
0.0000000001
 43
0.0000000001
 40
0.0
 40
0.0
 40
0.0
 40
0.0
 40
1.0
 40
1.0
 40
1.0
 40
2.0
 40
2.0
 40
2.0
 40
3.0
 40
3.0
 40
3.0
 40
4.0
 40
4.0
 40
4.0
 40
5.0
 40
5.0
 40
5.0
 40
6.0
 40
6.0
 40
6.0
 40
7.0
 40
7.0
 40
7.0
 40
8.0
 40
8.0
 40
8.0
 40
9.0
 40
9.0
 40
9.0
 40
10.0
 40
10.0
 40
10.0
 40
11.0
 40
11.0
 40
11.0
 40
11.0
 10
-470.2177350377374
 20
-674.3788573148089
 30
0.0
 10
-469.2552464308457
 20
-674.3788573148089
 30
0.0
 10
-468.3835117603148
 20
-674.2583392050018
 30
0.0
 10
-467.6025797400138
 20
-674.0236357882603
 30
0.0
 10
-466.8215990058468
 20
-673.785717256224
 30
0.0
 10
-466.1549253632887
 20
-673.4210452392552
 30
0.0
 10
-465.5977604963339
 20
-672.9327374249248
 30
0.0
 10
-465.0421788300898
 20
-672.4460858821167
 30
0.0
 10
-464.6149338494853
 20
-671.8310245828605
 30
0.0
 10
-464.3160011975889
 20
-671.0907686424629
 30
0.0
 10
-464.0186517464032
 20
-670.3536303896319
 30
0.0
 10
-463.8699526638792
 20
-669.4881798080924
 30
0.0
 10
-463.8699526638792
 20
-668.497437157675
 30
0.0
 10
-463.8699526638792
 20
-667.508350778769
 30
0.0
 10
-464.0217694339659
 20
-666.6444590410097
 30
0.0
 10
-464.3269618179227
 20
-665.9136535910362
 30
0.0
 10
-464.6337130456557
 20
-665.17963302576
 30
0.0
 10
-465.0656589145373
 20
-664.5708071016334
 30
0.0
 10
-465.6290591566174
 20
-664.080940443523
 30
0.0
 10
-466.1924837556327
 20
-663.5941914729751
 30
0.0
 10
-466.8732600630187
 20
-663.2311757275328
 30
0.0
 10
-467.6745544802043
 20
-662.993257195486
 30
0.0
 10
-468.4758488973931
 20
-662.755338663449
 30
0.0
 10
-469.3773233844285
 20
-662.6364768251653
 30
0.0
 10
-470.3804880712268
 20
-662.6364768251653
 30
0.0
 10
-470.3804880712268
 20
-662.6364768251653
 30
0.0
 10
-473.1490189828171
 20
-662.6364768251653
 30
0.0
 10
-473.1490189828171
 20
-662.6364768251653
 30
0.0
 10
-473.1490189828171
 20
-662.6364768251653
 30
0.0
 10
-473.1490189828171
 20
-674.3788573148089
 30
0.0
 10
-473.1490189828171
 20
-674.3788573148089
 30
0.0
 10
-473.1490189828171
 20
-674.3788573148089
 30
0.0
 10
-470.2177350377374
 20
-674.3788573148089
 30
0.0
 10
-470.2177350377374
 20
-674.3788573148089
 30
0.0
  0
SPLINE
  5
C2
330
98
100
AcDbEntity
  8
图层 1
100
AcDbSpline
210
0.0
220
0.0
230
1.0
 70
    11
 71
     3
 72
    38
 73
    34
 74
     0
 42
0.0000000001
 43
0.0000000001
 40
0.0
 40
0.0
 40
0.0
 40
0.0
 40
1.0
 40
1.0
 40
1.0
 40
2.0
 40
2.0
 40
2.0
 40
3.0
 40
3.0
 40
3.0
 40
4.0
 40
4.0
 40
4.0
 40
5.0
 40
5.0
 40
5.0
 40
6.0
 40
6.0
 40
6.0
 40
7.0
 40
7.0
 40
7.0
 40
8.0
 40
8.0
 40
8.0
 40
9.0
 40
9.0
 40
9.0
 40
10.0
 40
10.0
 40
10.0
 40
11.0
 40
11.0
 40
11.0
 40
11.0
 10
-474.1240514107607
 20
-661.7208509594287
 30
0.0
 10
-474.1240514107607
 20
-661.7208509594287
 30
0.0
 10
-470.4227717087793
 20
-661.7208509594287
 30
0.0
 10
-470.4227717087793
 20
-661.7208509594287
 30
0.0
 10
-469.3100251755803
 20
-661.7208509594287
 30
0.0
 10
-468.2880569356771
 20
-661.8523784034352
 30
0.0
 10
-467.3599846766315
 20
-662.1184535512619
 30
0.0
 10
-466.4303535738065
 20
-662.3828724275795
 30
0.0
 10
-465.6290591566174
 20
-662.7898280820936
 30
0.0
 10
-464.9576602688513
 20
-663.3391256593491
 30
0.0
 10
-464.2862613810847
 20
-663.8884232365978
 30
0.0
 10
-463.7651204196219
 20
-664.5911694985178
 30
0.0
 10
-463.3895121392579
 20
-665.4441493298137
 30
0.0
 10
-463.0170215464529
 20
-666.2970317333736
 30
0.0
 10
-462.8323472722995
 20
-667.3158335718445
 30
0.0
 10
-462.8323472722995
 20
-668.497437157675
 30
0.0
 10
-462.8323472722995
 20
-669.6759230559388
 30
0.0
 10
-463.0170215464529
 20
-670.6948223221459
 30
0.0
 10
-463.3895121392579
 20
-671.5508224132683
 30
0.0
 10
-463.7651204196219
 20
-672.4038022445642
 30
0.0
 10
-464.2862613810847
 20
-673.1096661940431
 30
0.0
 10
-464.9576602688513
 20
-673.6651991464176
 30
0.0
 10
-465.6290591566174
 20
-674.2223883703076
 30
0.0
 10
-466.4303535738065
 20
-674.6323642846514
 30
0.0
 10
-467.3599846766315
 20
-674.8968805887051
 30
0.0
 10
-468.2880569356771
 20
-675.1613968927549
 30
0.0
 10
-469.3100251755803
 20
-675.2943857528022
 30
0.0
 10
-470.4227717087793
 20
-675.2943857528022
 30
0.0
 10
-470.4227717087793
 20
-675.2943857528022
 30
0.0
 10
-474.1240514107607
 20
-675.2943857528022
 30
0.0
 10
-474.1240514107607
 20
-675.2943857528022
 30
0.0
 10
-474.1240514107607
 20
-675.2943857528022
 30
0.0
 10
-474.1240514107607
 20
-661.7208509594287
 30
0.0
 10
-474.1240514107607
 20
-661.7208509594287
 30
0.0
  0
HATCH
  5
C3
330
98
100
AcDbEntity
  8
图层 1
 62
   250
420
  2170655
440
 33554687
100
AcDbHatch
 10
0.0
 20
0.0
 30
0.0
210
0.0
220
0.0
230
1.0
  2
SOLID
 70
     1
 71
     1
 91
        2
 92
        1
 93
        1
 72
     4
 94
        3
 73
     0
 74
     0
 95
       38
 96
       34
 40
0.0
 40
0.0
 40
0.0
 40
0.0
 40
1.0
 40
1.0
 40
1.0
 40
2.0
 40
2.0
 40
2.0
 40
3.0
 40
3.0
 40
3.0
 40
4.0
 40
4.0
 40
4.0
 40
5.0
 40
5.0
 40
5.0
 40
6.0
 40
6.0
 40
6.0
 40
7.0
 40
7.0
 40
7.0
 40
8.0
 40
8.0
 40
8.0
 40
9.0
 40
9.0
 40
9.0
 40
10.0
 40
10.0
 40
10.0
 40
11.0
 40
11.0
 40
11.0
 40
11.0
 10
-470.2177350377374
 20
-674.3788573148089
 10
-469.2552464308457
 20
-674.3788573148089
 10
-468.3835117603148
 20
-674.2583392050018
 10
-467.6025797400138
 20
-674.0236357882603
 10
-466.8215990058468
 20
-673.785717256224
 10
-466.1549253632887
 20
-673.4210452392552
 10
-465.5977604963339
 20
-672.9327374249248
 10
-465.0421788300898
 20
-672.4460858821167
 10
-464.6149338494853
 20
-671.8310245828605
 10
-464.3160011975889
 20
-671.0907686424629
 10
-464.0186517464032
 20
-670.3536303896319
 10
-463.8699526638792
 20
-669.4881798080924
 10
-463.8699526638792
 20
-668.497437157675
 10
-463.8699526638792
 20
-667.508350778769
 10
-464.0217694339659
 20
-666.6444590410097
 10
-464.3269618179227
 20
-665.9136535910362
 10
-464.6337130456557
 20
-665.17963302576
 10
-465.0656589145373
 20
-664.5708071016334
 10
-465.6290591566174
 20
-664.080940443523
 10
-466.1924837556327
 20
-663.5941914729751
 10
-466.8732600630187
 20
-663.2311757275328
 10
-467.6745544802043
 20
-662.993257195486
 10
-468.4758488973931
 20
-662.755338663449
 10
-469.3773233844285
 20
-662.6364768251653
 10
-470.3804880712268
 20
-662.6364768251653
 10
-470.3804880712268
 20
-662.6364768251653
 10
-473.1490189828171
 20
-662.6364768251653
 10
-473.1490189828171
 20
-662.6364768251653
 10
-473.1490189828171
 20
-662.6364768251653
 10
-473.1490189828171
 20
-674.3788573148089
 10
-473.1490189828171
 20
-674.3788573148089
 10
-473.1490189828171
 20
-674.3788573148089
 10
-470.2177350377374
 20
-674.3788573148089
 10
-470.2177350377374
 20
-674.3788573148089
 97
        0
 97
        1
330
C1
 92
        1
 93
        1
 72
     4
 94
        3
 73
     0
 74
     0
 95
       38
 96
       34
 40
0.0
 40
0.0
 40
0.0
 40
0.0
 40
1.0
 40
1.0
 40
1.0
 40
2.0
 40
2.0
 40
2.0
 40
3.0
 40
3.0
 40
3.0
 40
4.0
 40
4.0
 40
4.0
 40
5.0
 40
5.0
 40
5.0
 40
6.0
 40
6.0
 40
6.0
 40
7.0
 40
7.0
 40
7.0
 40
8.0
 40
8.0
 40
8.0
 40
9.0
 40
9.0
 40
9.0
 40
10.0
 40
10.0
 40
10.0
 40
11.0
 40
11.0
 40
11.0
 40
11.0
 10
-474.1240514107607
 20
-661.7208509594287
 10
-474.1240514107607
 20
-661.7208509594287
 10
-470.4227717087793
 20
-661.7208509594287
 10
-470.4227717087793
 20
-661.7208509594287
 10
-469.3100251755803
 20
-661.7208509594287
 10
-468.2880569356771
 20
-661.8523784034352
 10
-467.3599846766315
 20
-662.1184535512619
 10
-466.4303535738065
 20
-662.3828724275795
 10
-465.6290591566174
 20
-662.7898280820936
 10
-464.9576602688513
 20
-663.3391256593491
 10
-464.2862613810847
 20
-663.8884232365978
 10
-463.7651204196219
 20
-664.5911694985178
 10
-463.3895121392579
 20
-665.4441493298137
 10
-463.0170215464529
 20
-666.2970317333736
 10
-462.8323472722995
 20
-667.3158335718445
 10
-462.8323472722995
 20
-668.497437157675
 10
-462.8323472722995
 20
-669.6759230559388
 10
-463.0170215464529
 20
-670.6948223221459
 10
-463.3895121392579
 20
-671.5508224132683
 10
-463.7651204196219
 20
-672.4038022445642
 10
-464.2862613810847
 20
-673.1096661940431
 10
-464.9576602688513
 20
-673.6651991464176
 10
-465.6290591566174
 20
-674.2223883703076
 10
-466.4303535738065
 20
-674.6323642846514
 10
-467.3599846766315
 20
-674.8968805887051
 10
-468.2880569356771
 20
-675.1613968927549
 10
-469.3100251755803
 20
-675.2943857528022
 10
-470.4227717087793
 20
-675.2943857528022
 10
-470.4227717087793
 20
-675.2943857528022
 10
-474.1240514107607
 20
-675.2943857528022
 10
-474.1240514107607
 20
-675.2943857528022
 10
-474.1240514107607
 20
-675.2943857528022
 10
-474.1240514107607
 20
-661.7208509594287
 10
-474.1240514107607
 20
-661.7208509594287
 97
        0
 97
        1
330
C2
 75
     2
 76
     1
 98
        1
 10
0.0
 20
0.0
450
        0
451
        0
460
0.0
461
0.0
452
        0
462
0.0
453
        0
470

  0
LWPOLYLINE
  5
C4
330
98
100
AcDbEntity
  8
图层 1
100
AcDbPolyline
 90
       13
 70
     1
 43
0.0
 10
-459.8616294509569
 20
-661.720948387161
 10
-458.761426738803
 20
-661.720948387161
 10
-455.5061712135965
 20
-673.9094504813187
 10
-452.0677759010846
 20
-662.1279040416891
 10
-450.865858632236
 20
-662.1279040416891
 10
-447.5902407101449
 20
-673.8295597375525
 10
-444.3537400241774
 20
-661.720948387161
 10
-443.2973310794926
 20
-661.720948387161
 10
-447.1035160965321
 20
-675.2944831805383
 10
-448.1802630811701
 20
-675.2944831805383
 10
-451.498115926944
 20
-663.5723676600469
 10
-454.9771873193626
 20
-675.2944831805383
 10
-456.1165316245749
 20
-675.2944831805383
  0
HATCH
  5
C5
330
98
100
AcDbEntity
  8
图层 1
 62
   250
420
  2170655
440
 33554687
100
AcDbHatch
 10
0.0
 20
0.0
 30
0.0
210
0.0
220
0.0
230
1.0
  2
SOLID
 70
     1
 71
     1
 91
        1
 92
        1
 93
       13
 72
     1
 10
-459.8616294509569
 20
-661.720948387161
 11
-458.761426738803
 21
-661.720948387161
 72
     1
 10
-458.761426738803
 20
-661.720948387161
 11
-455.5061712135965
 21
-673.9094504813187
 72
     1
 10
-455.5061712135965
 20
-673.9094504813187
 11
-452.0677759010846
 21
-662.1279040416891
 72
     1
 10
-452.0677759010846
 20
-662.1279040416891
 11
-450.865858632236
 21
-662.1279040416891
 72
     1
 10
-450.865858632236
 20
-662.1279040416891
 11
-447.5902407101449
 21
-673.8295597375525
 72
     1
 10
-447.5902407101449
 20
-673.8295597375525
 11
-444.3537400241774
 21
-661.720948387161
 72
     1
 10
-444.3537400241774
 20
-661.720948387161
 11
-443.2973310794926
 21
-661.720948387161
 72
     1
 10
-443.2973310794926
 20
-661.720948387161
 11
-447.1035160965321
 21
-675.2944831805383
 72
     1
 10
-447.1035160965321
 20
-675.2944831805383
 11
-448.1802630811701
 21
-675.2944831805383
 72
     1
 10
-448.1802630811701
 20
-675.2944831805383
 11
-451.498115926944
 21
-663.5723676600469
 72
     1
 10
-451.498115926944
 20
-663.5723676600469
 11
-454.9771873193626
 21
-675.2944831805383
 72
     1
 10
-454.9771873193626
 20
-675.2944831805383
 11
-456.1165316245749
 21
-675.2944831805383
 72
     1
 10
-456.1165316245749
 20
-675.2944831805383
 11
-459.8616294509569
 21
-661.720948387161
 97
        1
330
C4
 75
     2
 76
     1
 98
        1
 10
0.0
 20
0.0
450
        0
451
        0
460
0.0
461
0.0
452
        0
462
0.0
453
        0
470

  0
SPLINE
  5
C6
330
98
100
AcDbEntity
  8
图层 1
100
AcDbSpline
210
0.0
220
0.0
230
1.0
 70
    11
 71
     3
 72
    14
 73
    10
 74
     0
 42
0.0000000001
 43
0.0000000001
 40
0.0
 40
0.0
 40
0.0
 40
0.0
 40
1.0
 40
1.0
 40
1.0
 40
2.0
 40
2.0
 40
2.0
 40
3.0
 40
3.0
 40
3.0
 40
3.0
 10
-432.8376841659578
 20
-670.0030853944261
 30
0.0
 10
-432.8376841659578
 20
-670.0030853944261
 30
0.0
 10
-435.6656947105595
 20
-662.961982892137
 30
0.0
 10
-435.6656947105595
 20
-662.961982892137
 30
0.0
 10
-435.6656947105595
 20
-662.961982892137
 30
0.0
 10
-438.4952640989446
 20
-670.0030853944261
 30
0.0
 10
-438.4952640989446
 20
-670.0030853944261
 30
0.0
 10
-438.4952640989446
 20
-670.0030853944261
 30
0.0
 10
-432.8376841659578
 20
-670.0030853944261
 30
0.0
 10
-432.8376841659578
 20
-670.0030853944261
 30
0.0
  0
SPLINE
  5
C7
330
98
100
AcDbEntity
  8
图层 1
100
AcDbSpline
210
0.0
220
0.0
230
1.0
 70
    11
 71
     3
 72
    29
 73
    25
 74
     0
 42
0.0000000001
 43
0.0000000001
 40
0.0
 40
0.0
 40
0.0
 40
0.0
 40
1.0
 40
1.0
 40
1.0
 40
2.0
 40
2.0
 40
2.0
 40
3.0
 40
3.0
 40
3.0
 40
4.0
 40
4.0
 40
4.0
 40
5.0
 40
5.0
 40
5.0
 40
6.0
 40
6.0
 40
6.0
 40
7.0
 40
7.0
 40
7.0
 40
8.0
 40
8.0
 40
8.0
 40
8.0
 10
-436.1132777311141
 20
-661.720948387161
 30
0.0
 10
-436.1132777311141
 20
-661.720948387161
 30
0.0
 10
-435.1367108163256
 20
-661.720948387161
 30
0.0
 10
-435.1367108163256
 20
-661.720948387161
 30
0.0
 10
-435.1367108163256
 20
-661.720948387161
 30
0.0
 10
-429.5793109531886
 20
-675.2944831805383
 30
0.0
 10
-429.5793109531886
 20
-675.2944831805383
 30
0.0
 10
-429.5793109531886
 20
-675.2944831805383
 30
0.0
 10
-430.699851705289
 20
-675.2944831805383
 30
0.0
 10
-430.699851705289
 20
-675.2944831805383
 30
0.0
 10
-430.699851705289
 20
-675.2944831805383
 30
0.0
 10
-432.4714776621446
 20
-670.9186138324297
 30
0.0
 10
-432.4714776621446
 20
-670.9186138324297
 30
0.0
 10
-432.4714776621446
 20
-670.9186138324297
 30
0.0
 10
-438.8599117589749
 20
-670.9186138324297
 30
0.0
 10
-438.8599117589749
 20
-670.9186138324297
 30
0.0
 10
-438.8599117589749
 20
-670.9186138324297
 30
0.0
 10
-440.609616475159
 20
-675.2944831805383
 30
0.0
 10
-440.609616475159
 20
-675.2944831805383
 30
0.0
 10
-440.609616475159
 20
-675.2944831805383
 30
0.0
 10
-441.6675842636234
 20
-675.2944831805383
 30
0.0
 10
-441.6675842636234
 20
-675.2944831805383
 30
0.0
 10
-441.6675842636234
 20
-675.2944831805383
 30
0.0
 10
-436.1132777311141
 20
-661.720948387161
 30
0.0
 10
-436.1132777311141
 20
-661.720948387161
 30
0.0
  0
HATCH
  5
C8
330
98
100
AcDbEntity
  8
图层 1
 62
   250
420
  2170655
440
 33554687
100
AcDbHatch
 10
0.0
 20
0.0
 30
0.0
210
0.0
220
0.0
230
1.0
  2
SOLID
 70
     1
 71
     1
 91
        2
 92
        1
 93
        1
 72
     4
 94
        3
 73
     0
 74
     0
 95
       14
 96
       10
 40
0.0
 40
0.0
 40
0.0
 40
0.0
 40
1.0
 40
1.0
 40
1.0
 40
2.0
 40
2.0
 40
2.0
 40
3.0
 40
3.0
 40
3.0
 40
3.0
 10
-432.8376841659578
 20
-670.0030853944261
 10
-432.8376841659578
 20
-670.0030853944261
 10
-435.6656947105595
 20
-662.961982892137
 10
-435.6656947105595
 20
-662.961982892137
 10
-435.6656947105595
 20
-662.961982892137
 10
-438.4952640989446
 20
-670.0030853944261
 10
-438.4952640989446
 20
-670.0030853944261
 10
-438.4952640989446
 20
-670.0030853944261
 10
-432.8376841659578
 20
-670.0030853944261
 10
-432.8376841659578
 20
-670.0030853944261
 97
        0
 97
        1
330
C6
 92
        1
 93
        1
 72
     4
 94
        3
 73
     0
 74
     0
 95
       29
 96
       25
 40
0.0
 40
0.0
 40
0.0
 40
0.0
 40
1.0
 40
1.0
 40
1.0
 40
2.0
 40
2.0
 40
2.0
 40
3.0
 40
3.0
 40
3.0
 40
4.0
 40
4.0
 40
4.0
 40
5.0
 40
5.0
 40
5.0
 40
6.0
 40
6.0
 40
6.0
 40
7.0
 40
7.0
 40
7.0
 40
8.0
 40
8.0
 40
8.0
 40
8.0
 10
-436.1132777311141
 20
-661.720948387161
 10
-436.1132777311141
 20
-661.720948387161
 10
-435.1367108163256
 20
-661.720948387161
 10
-435.1367108163256
 20
-661.720948387161
 10
-435.1367108163256
 20
-661.720948387161
 10
-429.5793109531886
 20
-675.2944831805383
 10
-429.5793109531886
 20
-675.2944831805383
 10
-429.5793109531886
 20
-675.2944831805383
 10
-430.699851705289
 20
-675.2944831805383
 10
-430.699851705289
 20
-675.2944831805383
 10
-430.699851705289
 20
-675.2944831805383
 10
-432.4714776621446
 20
-670.9186138324297
 10
-432.4714776621446
 20
-670.9186138324297
 10
-432.4714776621446
 20
-670.9186138324297
 10
-438.8599117589749
 20
-670.9186138324297
 10
-438.8599117589749
 20
-670.9186138324297
 10
-438.8599117589749
 20
-670.9186138324297
 10
-440.609616475159
 20
-675.2944831805383
 10
-440.609616475159
 20
-675.2944831805383
 10
-440.609616475159
 20
-675.2944831805383
 10
-441.6675842636234
 20
-675.2944831805383
 10
-441.6675842636234
 20
-675.2944831805383
 10
-441.6675842636234
 20
-675.2944831805383
 10
-436.1132777311141
 20
-661.720948387161
 10
-436.1132777311141
 20
-661.720948387161
 97
        0
 97
        1
330
C7
 75
     2
 76
     1
 98
        1
 10
0.0
 20
0.0
450
        0
451
        0
460
0.0
461
0.0
452
        0
462
0.0
453
        0
470

  0
SPLINE
  5
C9
330
98
100
AcDbEntity
  8
图层 1
100
AcDbSpline
210
0.0
220
0.0
230
1.0
 70
     9
 71
     3
 72
    23
 73
    19
 74
     0
 42
0.0000000001
 43
0.0000000001
 40
0.0
 40
0.0
 40
0.0
 40
0.0
 40
1.0
 40
1.0
 40
1.0
 40
2.0
 40
2.0
 40
2.0
 40
3.0
 40
3.0
 40
3.0
 40
4.0
 40
4.0
 40
4.0
 40
5.0
 40
5.0
 40
5.0
 40
6.0
 40
6.0
 40
6.0
 40
6.0
 10
-421.7052013055445
 20
-668.4976320131401
 30
0.0
 10
-419.4672131319643
 20
-668.4976320131401
 30
0.0
 10
-418.3466480229291
 20
-667.5210163844854
 30
0.0
 10
-418.3466480229291
 20
-665.5678825549156
 30
0.0
 10
-418.3466480229291
 20
-664.5913643539938
 30
0.0
 10
-418.6424629872629
 20
-663.8573437887177
 30
0.0
 10
-419.2324610013532
 20
-663.3705948181698
 30
0.0
 10
-419.8224833723751
 20
-662.880728160063
 30
0.0
 10
-420.6879339539146
 20
-662.6365742529014
 30
0.0
 10
-421.8272782591238
 20
-662.6365742529014
 30
0.0
 10
-421.8272782591238
 20
-662.6365742529014
 30
0.0
 10
-425.2249731347974
 20
-662.6365742529014
 30
0.0
 10
-425.2249731347974
 20
-662.6365742529014
 30
0.0
 10
-425.2249731347974
 20
-662.6365742529014
 30
0.0
 10
-425.2249731347974
 20
-668.4976320131401
 30
0.0
 10
-425.2249731347974
 20
-668.4976320131401
 30
0.0
 10
-425.2249731347974
 20
-668.4976320131401
 30
0.0
 10
-421.7052013055445
 20
-668.4976320131401
 30
0.0
 10
-421.7052013055445
 20
-668.4976320131401
 30
0.0
  0
SPLINE
  5
CA
330
98
100
AcDbEntity
  8
图层 1
100
AcDbSpline
210
0.0
220
0.0
230
1.0
 70
    11
 71
     3
 72
    47
 73
    43
 74
     0
 42
0.0000000001
 43
0.0000000001
 40
0.0
 40
0.0
 40
0.0
 40
0.0
 40
1.0
 40
1.0
 40
1.0
 40
2.0
 40
2.0
 40
2.0
 40
3.0
 40
3.0
 40
3.0
 40
4.0
 40
4.0
 40
4.0
 40
5.0
 40
5.0
 40
5.0
 40
6.0
 40
6.0
 40
6.0
 40
7.0
 40
7.0
 40
7.0
 40
8.0
 40
8.0
 40
8.0
 40
9.0
 40
9.0
 40
9.0
 40
10.0
 40
10.0
 40
10.0
 40
11.0
 40
11.0
 40
11.0
 40
12.0
 40
12.0
 40
12.0
 40
13.0
 40
13.0
 40
13.0
 40
14.0
 40
14.0
 40
14.0
 40
14.0
 10
-426.2030988933688
 20
-661.7210458149042
 30
0.0
 10
-426.2030988933688
 20
-661.7210458149042
 30
0.0
 10
-422.1121082461957
 20
-661.7210458149042
 30
0.0
 10
-422.1121082461957
 20
-661.7210458149042
 30
0.0
 10
-421.2309961560452
 20
-661.7210458149042
 30
0.0
 10
-420.4844804835907
 20
-661.8149661526976
 30
0.0
 10
-419.8741200726155
 20
-662.0043656720595
 30
0.0
 10
-419.2637596616406
 20
-662.1967854512448
 30
0.0
 10
-418.7676332714699
 20
-662.4644194428573
 30
0.0
 10
-418.3889073035468
 20
-662.8087290629416
 30
0.0
 10
-418.0101813356236
 20
-663.1545975267977
 30
0.0
 10
-417.7347287681674
 20
-663.563112025095
 30
0.0
 10
-417.5641328019104
 20
-664.0310574425374
 30
0.0
 10
-417.3950956794327
 20
-664.4974440162003
 30
0.0
 10
-417.3106014751287
 20
-665.0107907587584
 30
0.0
 10
-417.3106014751287
 20
-665.5678825549156
 30
0.0
 10
-417.3106014751287
 20
-666.4490190019972
 30
0.0
 10
-417.5375350299002
 20
-667.2331174237305
 30
0.0
 10
-417.9929609832294
 20
-667.9169627048025
 30
0.0
 10
-418.4468280927753
 20
-668.6009054136209
 30
0.0
 10
-419.1683048369993
 20
-669.0594977683791
 30
0.0
 10
-420.1589500596806
 20
-669.2910834975574
 30
0.0
 10
-420.1589500596806
 20
-669.2910834975574
 30
0.0
 10
-416.924032574431
 20
-675.2945806082744
 30
0.0
 10
-416.924032574431
 20
-675.2945806082744
 30
0.0
 10
-416.924032574431
 20
-675.2945806082744
 30
0.0
 10
-418.0430388396833
 20
-675.2945806082744
 30
0.0
 10
-418.0430388396833
 20
-675.2945806082744
 30
0.0
 10
-418.0430388396833
 20
-675.2945806082744
 30
0.0
 10
-421.1965554512639
 20
-669.4131604511437
 30
0.0
 10
-421.1965554512639
 20
-669.4131604511437
 30
0.0
 10
-421.1965554512639
 20
-669.4131604511437
 30
0.0
 10
-425.2249731347974
 20
-669.4131604511437
 30
0.0
 10
-425.2249731347974
 20
-669.4131604511437
 30
0.0
 10
-425.2249731347974
 20
-669.4131604511437
 30
0.0
 10
-425.2249731347974
 20
-675.2945806082744
 30
0.0
 10
-425.2249731347974
 20
-675.2945806082744
 30
0.0
 10
-425.2249731347974
 20
-675.2945806082744
 30
0.0
 10
-426.2030988933688
 20
-675.2945806082744
 30
0.0
 10
-426.2030988933688
 20
-675.2945806082744
 30
0.0
 10
-426.2030988933688
 20
-675.2945806082744
 30
0.0
 10
-426.2030988933688
 20
-661.7210458149042
 30
0.0
 10
-426.2030988933688
 20
-661.7210458149042
 30
0.0
  0
HATCH
  5
CB
330
98
100
AcDbEntity
  8
图层 1
 62
   250
420
  2170655
440
 33554687
100
AcDbHatch
 10
0.0
 20
0.0
 30
0.0
210
0.0
220
0.0
230
1.0
  2
SOLID
 70
     1
 71
     1
 91
        2
 92
        1
 93
        1
 72
     4
 94
        3
 73
     0
 74
     0
 95
       23
 96
       19
 40
0.0
 40
0.0
 40
0.0
 40
0.0
 40
1.0
 40
1.0
 40
1.0
 40
2.0
 40
2.0
 40
2.0
 40
3.0
 40
3.0
 40
3.0
 40
4.0
 40
4.0
 40
4.0
 40
5.0
 40
5.0
 40
5.0
 40
6.0
 40
6.0
 40
6.0
 40
6.0
 10
-421.7052013055445
 20
-668.4976320131401
 10
-419.4672131319643
 20
-668.4976320131401
 10
-418.3466480229291
 20
-667.5210163844854
 10
-418.3466480229291
 20
-665.5678825549156
 10
-418.3466480229291
 20
-664.5913643539938
 10
-418.6424629872629
 20
-663.8573437887177
 10
-419.2324610013532
 20
-663.3705948181698
 10
-419.8224833723751
 20
-662.880728160063
 10
-420.6879339539146
 20
-662.6365742529014
 10
-421.8272782591238
 20
-662.6365742529014
 10
-421.8272782591238
 20
-662.6365742529014
 10
-425.2249731347974
 20
-662.6365742529014
 10
-425.2249731347974
 20
-662.6365742529014
 10
-425.2249731347974
 20
-662.6365742529014
 10
-425.2249731347974
 20
-668.4976320131401
 10
-425.2249731347974
 20
-668.4976320131401
 10
-425.2249731347974
 20
-668.4976320131401
 10
-421.7052013055445
 20
-668.4976320131401
 10
-421.7052013055445
 20
-668.4976320131401
 97
        0
 97
        1
330
C9
 92
        1
 93
        1
 72
     4
 94
        3
 73
     0
 74
     0
 95
       47
 96
       43
 40
0.0
 40
0.0
 40
0.0
 40
0.0
 40
1.0
 40
1.0
 40
1.0
 40
2.0
 40
2.0
 40
2.0
 40
3.0
 40
3.0
 40
3.0
 40
4.0
 40
4.0
 40
4.0
 40
5.0
 40
5.0
 40
5.0
 40
6.0
 40
6.0
 40
6.0
 40
7.0
 40
7.0
 40
7.0
 40
8.0
 40
8.0
 40
8.0
 40
9.0
 40
9.0
 40
9.0
 40
10.0
 40
10.0
 40
10.0
 40
11.0
 40
11.0
 40
11.0
 40
12.0
 40
12.0
 40
12.0
 40
13.0
 40
13.0
 40
13.0
 40
14.0
 40
14.0
 40
14.0
 40
14.0
 10
-426.2030988933688
 20
-661.7210458149042
 10
-426.2030988933688
 20
-661.7210458149042
 10
-422.1121082461957
 20
-661.7210458149042
 10
-422.1121082461957
 20
-661.7210458149042
 10
-421.2309961560452
 20
-661.7210458149042
 10
-420.4844804835907
 20
-661.8149661526976
 10
-419.8741200726155
 20
-662.0043656720595
 10
-419.2637596616406
 20
-662.1967854512448
 10
-418.7676332714699
 20
-662.4644194428573
 10
-418.3889073035468
 20
-662.8087290629416
 10
-418.0101813356236
 20
-663.1545975267977
 10
-417.7347287681674
 20
-663.563112025095
 10
-417.5641328019104
 20
-664.0310574425374
 10
-417.3950956794327
 20
-664.4974440162003
 10
-417.3106014751287
 20
-665.0107907587584
 10
-417.3106014751287
 20
-665.5678825549156
 10
-417.3106014751287
 20
-666.4490190019972
 10
-417.5375350299002
 20
-667.2331174237305
 10
-417.9929609832294
 20
-667.9169627048025
 10
-418.4468280927753
 20
-668.6009054136209
 10
-419.1683048369993
 20
-669.0594977683791
 10
-420.1589500596806
 20
-669.2910834975574
 10
-420.1589500596806
 20
-669.2910834975574
 10
-416.924032574431
 20
-675.2945806082744
 10
-416.924032574431
 20
-675.2945806082744
 10
-416.924032574431
 20
-675.2945806082744
 10
-418.0430388396833
 20
-675.2945806082744
 10
-418.0430388396833
 20
-675.2945806082744
 10
-418.0430388396833
 20
-675.2945806082744
 10
-421.1965554512639
 20
-669.4131604511437
 10
-421.1965554512639
 20
-669.4131604511437
 10
-421.1965554512639
 20
-669.4131604511437
 10
-425.2249731347974
 20
-669.4131604511437
 10
-425.2249731347974
 20
-669.4131604511437
 10
-425.2249731347974
 20
-669.4131604511437
 10
-425.2249731347974
 20
-675.2945806082744
 10
-425.2249731347974
 20
-675.2945806082744
 10
-425.2249731347974
 20
-675.2945806082744
 10
-426.2030988933688
 20
-675.2945806082744
 10
-426.2030988933688
 20
-675.2945806082744
 10
-426.2030988933688
 20
-675.2945806082744
 10
-426.2030988933688
 20
-661.7210458149042
 10
-426.2030988933688
 20
-661.7210458149042
 97
        0
 97
        1
330
CA
 75
     2
 76
     1
 98
        1
 10
0.0
 20
0.0
450
        0
451
        0
460
0.0
461
0.0
452
        0
462
0.0
453
        0
470

  0
LWPOLYLINE
  5
CC
330
98
100
AcDbEntity
  8
图层 1
100
AcDbPolyline
 90
       12
 70
     1
 43
0.0
 10
-412.8535504657484
 20
-661.720948387161
 10
-404.7138284520159
 20
-661.720948387161
 10
-404.7138284520159
 20
-662.6364768251653
 10
-411.8769835509564
 20
-662.6364768251653
 10
-411.8769835509564
 20
-667.7650728639181
 10
-406.2804177378295
 20
-667.7650728639181
 10
-406.2804177378295
 20
-668.6806013019147
 10
-411.8769835509564
 20
-668.6806013019147
 10
-411.8769835509564
 20
-674.378954742541
 10
-404.1848689147169
 20
-674.378954742541
 10
-404.1848689147169
 20
-675.2944831805383
 10
-412.8535504657484
 20
-675.2944831805383
  0
HATCH
  5
CD
330
98
100
AcDbEntity
  8
图层 1
 62
   250
420
  2170655
440
 33554687
100
AcDbHatch
 10
0.0
 20
0.0
 30
0.0
210
0.0
220
0.0
230
1.0
  2
SOLID
 70
     1
 71
     1
 91
        1
 92
        1
 93
       12
 72
     1
 10
-412.8535504657484
 20
-661.720948387161
 11
-404.7138284520159
 21
-661.720948387161
 72
     1
 10
-404.7138284520159
 20
-661.720948387161
 11
-404.7138284520159
 21
-662.6364768251653
 72
     1
 10
-404.7138284520159
 20
-662.6364768251653
 11
-411.8769835509564
 21
-662.6364768251653
 72
     1
 10
-411.8769835509564
 20
-662.6364768251653
 11
-411.8769835509564
 21
-667.7650728639181
 72
     1
 10
-411.8769835509564
 20
-667.7650728639181
 11
-406.2804177378295
 21
-667.7650728639181
 72
     1
 10
-406.2804177378295
 20
-667.7650728639181
 11
-406.2804177378295
 21
-668.6806013019147
 72
     1
 10
-406.2804177378295
 20
-668.6806013019147
 11
-411.8769835509564
 21
-668.6806013019147
 72
     1
 10
-411.8769835509564
 20
-668.6806013019147
 11
-411.8769835509564
 21
-674.378954742541
 72
     1
 10
-411.8769835509564
 20
-674.378954742541
 11
-404.1848689147169
 21
-674.378954742541
 72
     1
 10
-404.1848689147169
 20
-674.378954742541
 11
-404.1848689147169
 21
-675.2944831805383
 72
     1
 10
-404.1848689147169
 20
-675.2944831805383
 11
-412.8535504657484
 21
-675.2944831805383
 72
     1
 10
-412.8535504657484
 20
-675.2944831805383
 11
-412.8535504657484
 21
-661.720948387161
 97
        1
330
CC
 75
     2
 76
     1
 98
        1
 10
0.0
 20
0.0
450
        0
451
        0
460
0.0
461
0.0
452
        0
462
0.0
453
        0
470

  0
ENDBLK
  5
9B
330
98
100
AcDbEntity
  8
0
100
AcDbBlockEnd
  0
BLOCK
  5
103
330
101
100
AcDbEntity
  8
0
100
AcDbBlockBegin
  2
Block_2
 70
     0
 10
0.0
 20
0.0
 30
0.0
  3
Block_2
  1

  0
SPLINE
  5
105
330
101
100
AcDbEntity
  8
图层 2
100
AcDbSpline
210
0.0
220
0.0
230
1.0
 70
     9
 71
     3
 72
    23
 73
    19
 74
     0
 42
0.0000000001
 43
0.0000000001
 40
0.0
 40
0.0
 40
0.0
 40
0.0
 40
1.0
 40
1.0
 40
1.0
 40
2.0
 40
2.0
 40
2.0
 40
3.0
 40
3.0
 40
3.0
 40
4.0
 40
4.0
 40
4.0
 40
5.0
 40
5.0
 40
5.0
 40
6.0
 40
6.0
 40
6.0
 40
6.0
 10
212.4244187189656
 20
-593.1076529055144
 30
0.0
 10
211.1242630380766
 20
-594.3803449172678
 30
0.0
 10
208.9997200839201
 20
-594.6190140829345
 30
0.0
 10
206.6652239503971
 20
-594.599475498661
 30
0.0
 10
205.1957881813073
 20
-594.6321291694034
 30
0.0
 10
200.4626605062504
 20
-594.613987394393
 30
0.0
 10
200.4626605062504
 20
-594.613987394393
 30
0.0
 10
200.4626605062504
 20
-594.613987394393
 30
0.0
 10
203.3641728204233
 20
-576.3458664322162
 30
0.0
 10
203.3641728204233
 20
-576.3458664322162
 30
0.0
 10
203.3641728204233
 20
-576.3458664322162
 30
0.0
 10
209.9366598662289
 20
-576.3458690774536
 30
0.0
 10
209.9366598662289
 20
-576.3458690774536
 30
0.0
 10
209.9366598662289
 20
-576.3458690774536
 30
0.0
 10
215.8344171684252
 20
-576.0644472152562
 30
0.0
 10
215.7982521351768
 20
-580.6006350571816
 30
0.0
 10
215.8308990896757
 20
-583.7018040437802
 30
0.0
 10
215.355229105716
 20
-590.108697382562
 30
0.0
 10
212.4244187189656
 20
-593.1076529055144
 30
0.0
  0
SPLINE
  5
106
330
101
100
AcDbEntity
  8
图层 2
100
AcDbSpline
210
0.0
220
0.0
230
1.0
 70
     9
 71
     3
 72
    23
 73
    19
 74
     0
 42
0.0000000001
 43
0.0000000001
 40
0.0
 40
0.0
 40
0.0
 40
0.0
 40
1.0
 40
1.0
 40
1.0
 40
2.0
 40
2.0
 40
2.0
 40
3.0
 40
3.0
 40
3.0
 40
4.0
 40
4.0
 40
4.0
 40
5.0
 40
5.0
 40
5.0
 40
6.0
 40
6.0
 40
6.0
 40
6.0
 10
223.7831661213783
 20
-579.3633206664907
 30
0.0
 10
222.9207923478589
 20
-569.5845762595715
 30
0.0
 10
212.2801564156136
 20
-569.8846816815169
 30
0.0
 10
212.2801564156136
 20
-569.8846816815169
 30
0.0
 10
212.2801564156136
 20
-569.8846816815169
 30
0.0
 10
196.8294778493421
 20
-569.8846754630785
 30
0.0
 10
196.8294778493421
 20
-569.8846754630785
 30
0.0
 10
196.8294778493421
 20
-569.8846754630785
 30
0.0
 10
191.8760026478893
 20
-601.0720272846797
 30
0.0
 10
191.8760026478893
 20
-601.0720272846797
 30
0.0
 10
191.8760026478893
 20
-601.0720272846797
 30
0.0
 10
206.2228384463441
 20
-601.1030087434102
 30
0.0
 10
208.7314574141746
 20
-601.0472610089394
 30
0.0
 10
212.7169003474263
 20
-601.0806157624282
 30
0.0
 10
216.0917284600838
 20
-599.3176426485856
 30
0.0
 10
218.311345732036
 20
-597.1448964562795
 30
0.0
 10
223.6630532318592
 20
-591.2078445628371
 30
0.0
 10
223.977230444413
 20
-584.3878476665971
 30
0.0
 10
223.7831661213783
 20
-579.3633206664907
 30
0.0
  0
HATCH
  5
107
330
101
100
AcDbEntity
  8
图层 2
 62
   250
420
  2299925
440
 33554687
100
AcDbHatch
 10
0.0
 20
0.0
 30
0.0
210
0.0
220
0.0
230
1.0
  2
SOLID
 70
     1
 71
     1
 91
        2
 92
        1
 93
        1
 72
     4
 94
        3
 73
     0
 74
     0
 95
       23
 96
       19
 40
0.0
 40
0.0
 40
0.0
 40
0.0
 40
1.0
 40
1.0
 40
1.0
 40
2.0
 40
2.0
 40
2.0
 40
3.0
 40
3.0
 40
3.0
 40
4.0
 40
4.0
 40
4.0
 40
5.0
 40
5.0
 40
5.0
 40
6.0
 40
6.0
 40
6.0
 40
6.0
 10
212.4244187189656
 20
-593.1076529055144
 10
211.1242630380766
 20
-594.3803449172678
 10
208.9997200839201
 20
-594.6190140829345
 10
206.6652239503971
 20
-594.599475498661
 10
205.1957881813073
 20
-594.6321291694034
 10
200.4626605062504
 20
-594.613987394393
 10
200.4626605062504
 20
-594.613987394393
 10
200.4626605062504
 20
-594.613987394393
 10
203.3641728204233
 20
-576.3458664322162
 10
203.3641728204233
 20
-576.3458664322162
 10
203.3641728204233
 20
-576.3458664322162
 10
209.9366598662289
 20
-576.3458690774536
 10
209.9366598662289
 20
-576.3458690774536
 10
209.9366598662289
 20
-576.3458690774536
 10
215.8344171684252
 20
-576.0644472152562
 10
215.7982521351768
 20
-580.6006350571816
 10
215.8308990896757
 20
-583.7018040437802
 10
215.355229105716
 20
-590.108697382562
 10
212.4244187189656
 20
-593.1076529055144
 97
        0
 97
        1
330
105
 92
        1
 93
        1
 72
     4
 94
        3
 73
     0
 74
     0
 95
       23
 96
       19
 40
0.0
 40
0.0
 40
0.0
 40
0.0
 40
1.0
 40
1.0
 40
1.0
 40
2.0
 40
2.0
 40
2.0
 40
3.0
 40
3.0
 40
3.0
 40
4.0
 40
4.0
 40
4.0
 40
5.0
 40
5.0
 40
5.0
 40
6.0
 40
6.0
 40
6.0
 40
6.0
 10
223.7831661213783
 20
-579.3633206664907
 10
222.9207923478589
 20
-569.5845762595715
 10
212.2801564156136
 20
-569.8846816815169
 10
212.2801564156136
 20
-569.8846816815169
 10
212.2801564156136
 20
-569.8846816815169
 10
196.8294778493421
 20
-569.8846754630785
 10
196.8294778493421
 20
-569.8846754630785
 10
196.8294778493421
 20
-569.8846754630785
 10
191.8760026478893
 20
-601.0720272846797
 10
191.8760026478893
 20
-601.0720272846797
 10
191.8760026478893
 20
-601.0720272846797
 10
206.2228384463441
 20
-601.1030087434102
 10
208.7314574141746
 20
-601.0472610089394
 10
212.7169003474263
 20
-601.0806157624282
 10
216.0917284600838
 20
-599.3176426485856
 10
218.311345732036
 20
-597.1448964562795
 10
223.6630532318592
 20
-591.2078445628371
 10
223.977230444413
 20
-584.3878476665971
 10
223.7831661213783
 20
-579.3633206664907
 97
        0
 97
        1
330
106
 75
     2
 76
     1
 98
        1
 10
0.0
 20
0.0
450
        0
451
        0
460
0.0
461
0.0
452
        0
462
0.0
453
        0
470

  0
SPLINE
  5
108
330
101
100
AcDbEntity
  8
图层 2
100
AcDbSpline
210
0.0
220
0.0
230
1.0
 70
     9
 71
     3
 72
    47
 73
    43
 74
     0
 42
0.0000000001
 43
0.0000000001
 40
0.0
 40
0.0
 40
0.0
 40
0.0
 40
1.0
 40
1.0
 40
1.0
 40
2.0
 40
2.0
 40
2.0
 40
3.0
 40
3.0
 40
3.0
 40
4.0
 40
4.0
 40
4.0
 40
5.0
 40
5.0
 40
5.0
 40
6.0
 40
6.0
 40
6.0
 40
7.0
 40
7.0
 40
7.0
 40
8.0
 40
8.0
 40
8.0
 40
9.0
 40
9.0
 40
9.0
 40
10.0
 40
10.0
 40
10.0
 40
11.0
 40
11.0
 40
11.0
 40
12.0
 40
12.0
 40
12.0
 40
13.0
 40
13.0
 40
13.0
 40
14.0
 40
14.0
 40
14.0
 40
14.0
 10
177.9273687155616
 20
-569.9170225945204
 30
0.0
 10
173.8743833053604
 20
-569.8836615737867
 30
0.0
 10
170.1396404833479
 20
-572.1353003029229
 30
0.0
 10
167.9200232113931
 20
-574.3080402551616
 30
0.0
 10
162.9415965630329
 20
-579.9871903965834
 30
0.0
 10
162.0693327113647
 20
-587.0245173813239
 30
0.0
 10
162.5464465972165
 20
-591.5911159813036
 30
0.0
 10
163.4088203707366
 20
-601.3698603882158
 30
0.0
 10
173.5029138581289
 20
-601.0795953294188
 30
0.0
 10
173.5029138581289
 20
-601.0795953294188
 30
0.0
 10
173.5029138581289
 20
-601.0795953294188
 30
0.0
 10
186.1153731771892
 20
-601.079600405563
 30
0.0
 10
186.1153731771892
 20
-601.079600405563
 30
0.0
 10
186.1153731771892
 20
-601.079600405563
 30
0.0
 10
187.1755376551084
 20
-594.7604800616933
 30
0.0
 10
187.1755376551084
 20
-594.7604800616933
 30
0.0
 10
185.2184532010016
 20
-594.7604792740147
 30
0.0
 10
180.066280111584
 20
-594.760477200422
 30
0.0
 10
175.4400946854255
 20
-594.7604753385207
 30
0.0
 10
168.9991482359058
 20
-594.7604727462254
 30
0.0
 10
170.7499632208033
 20
-588.5112226923903
 30
0.0
 10
170.7499632208033
 20
-588.5112226923903
 30
0.0
 10
170.7499632208033
 20
-588.5112226923903
 30
0.0
 10
188.223970784357
 20
-588.5112297251705
 30
0.0
 10
188.223970784357
 20
-588.5112297251705
 30
0.0
 10
188.223970784357
 20
-588.5112297251705
 30
0.0
 10
189.2938448253652
 20
-582.134182858272
 30
0.0
 10
189.2938448253652
 20
-582.134182858272
 30
0.0
 10
189.2938448253652
 20
-582.134182858272
 30
0.0
 10
171.810676844583
 20
-582.1341758218053
 30
0.0
 10
171.810676844583
 20
-582.1341758218053
 30
0.0
 10
171.810676844583
 20
-582.1341758218053
 30
0.0
 10
172.7819326841752
 20
-576.3200888937911
 30
0.0
 10
178.5583370420239
 20
-576.3133706682078
 30
0.0
 10
183.1662016337029
 20
-576.313372522743
 30
0.0
 10
188.2959104846713
 20
-576.3133745872973
 30
0.0
 10
190.2703922434512
 20
-576.3133753819748
 30
0.0
 10
190.2703922434512
 20
-576.3133753819748
 30
0.0
 10
191.3635542183328
 20
-569.9170280021912
 30
0.0
 10
191.3635542183328
 20
-569.9170280021912
 30
0.0
 10
191.3635542183328
 20
-569.9170280021912
 30
0.0
 10
180.4360001635227
 20
-569.8612748600604
 30
0.0
 10
177.9273687155616
 20
-569.9170225945204
 30
0.0
  0
HATCH
  5
109
330
101
100
AcDbEntity
  8
图层 2
 62
   250
420
  2299925
440
 33554687
100
AcDbHatch
 10
0.0
 20
0.0
 30
0.0
210
0.0
220
0.0
230
1.0
  2
SOLID
 70
     1
 71
     1
 91
        1
 92
        1
 93
        1
 72
     4
 94
        3
 73
     0
 74
     0
 95
       47
 96
       43
 40
0.0
 40
0.0
 40
0.0
 40
0.0
 40
1.0
 40
1.0
 40
1.0
 40
2.0
 40
2.0
 40
2.0
 40
3.0
 40
3.0
 40
3.0
 40
4.0
 40
4.0
 40
4.0
 40
5.0
 40
5.0
 40
5.0
 40
6.0
 40
6.0
 40
6.0
 40
7.0
 40
7.0
 40
7.0
 40
8.0
 40
8.0
 40
8.0
 40
9.0
 40
9.0
 40
9.0
 40
10.0
 40
10.0
 40
10.0
 40
11.0
 40
11.0
 40
11.0
 40
12.0
 40
12.0
 40
12.0
 40
13.0
 40
13.0
 40
13.0
 40
14.0
 40
14.0
 40
14.0
 40
14.0
 10
177.9273687155616
 20
-569.9170225945204
 10
173.8743833053604
 20
-569.8836615737867
 10
170.1396404833479
 20
-572.1353003029229
 10
167.9200232113931
 20
-574.3080402551616
 10
162.9415965630329
 20
-579.9871903965834
 10
162.0693327113647
 20
-587.0245173813239
 10
162.5464465972165
 20
-591.5911159813036
 10
163.4088203707366
 20
-601.3698603882158
 10
173.5029138581289
 20
-601.0795953294188
 10
173.5029138581289
 20
-601.0795953294188
 10
173.5029138581289
 20
-601.0795953294188
 10
186.1153731771892
 20
-601.079600405563
 10
186.1153731771892
 20
-601.079600405563
 10
186.1153731771892
 20
-601.079600405563
 10
187.1755376551084
 20
-594.7604800616933
 10
187.1755376551084
 20
-594.7604800616933
 10
185.2184532010016
 20
-594.7604792740147
 10
180.066280111584
 20
-594.760477200422
 10
175.4400946854255
 20
-594.7604753385207
 10
168.9991482359058
 20
-594.7604727462254
 10
170.7499632208033
 20
-588.5112226923903
 10
170.7499632208033
 20
-588.5112226923903
 10
170.7499632208033
 20
-588.5112226923903
 10
188.223970784357
 20
-588.5112297251705
 10
188.223970784357
 20
-588.5112297251705
 10
188.223970784357
 20
-588.5112297251705
 10
189.2938448253652
 20
-582.134182858272
 10
189.2938448253652
 20
-582.134182858272
 10
189.2938448253652
 20
-582.134182858272
 10
171.810676844583
 20
-582.1341758218053
 10
171.810676844583
 20
-582.1341758218053
 10
171.810676844583
 20
-582.1341758218053
 10
172.7819326841752
 20
-576.3200888937911
 10
178.5583370420239
 20
-576.3133706682078
 10
183.1662016337029
 20
-576.313372522743
 10
188.2959104846713
 20
-576.3133745872973
 10
190.2703922434512
 20
-576.3133753819748
 10
190.2703922434512
 20
-576.3133753819748
 10
191.3635542183328
 20
-569.9170280021912
 10
191.3635542183328
 20
-569.9170280021912
 10
191.3635542183328
 20
-569.9170280021912
 10
180.4360001635227
 20
-569.8612748600604
 10
177.9273687155616
 20
-569.9170225945204
 97
        0
 97
        1
330
108
 75
     2
 76
     1
 98
        1
 10
0.0
 20
0.0
450
        0
451
        0
460
0.0
461
0.0
452
        0
462
0.0
453
        0
470

  0
SPLINE
  5
10A
330
101
100
AcDbEntity
  8
图层 2
100
AcDbSpline
210
0.0
220
0.0
230
1.0
 70
     9
 71
     3
 72
    47
 73
    43
 74
     0
 42
0.0000000001
 43
0.0000000001
 40
0.0
 40
0.0
 40
0.0
 40
0.0
 40
1.0
 40
1.0
 40
1.0
 40
2.0
 40
2.0
 40
2.0
 40
3.0
 40
3.0
 40
3.0
 40
4.0
 40
4.0
 40
4.0
 40
5.0
 40
5.0
 40
5.0
 40
6.0
 40
6.0
 40
6.0
 40
7.0
 40
7.0
 40
7.0
 40
8.0
 40
8.0
 40
8.0
 40
9.0
 40
9.0
 40
9.0
 40
10.0
 40
10.0
 40
10.0
 40
11.0
 40
11.0
 40
11.0
 40
12.0
 40
12.0
 40
12.0
 40
13.0
 40
13.0
 40
13.0
 40
14.0
 40
14.0
 40
14.0
 40
14.0
 10
148.3298313072796
 20
-569.9170106823755
 30
0.0
 10
144.2768458970739
 20
-569.883649661638
 30
0.0
 10
140.5421030750621
 20
-572.1352883907814
 30
0.0
 10
138.3224858031112
 20
-574.3080283430167
 30
0.0
 10
133.3440591547477
 20
-579.9871784844347
 30
0.0
 10
132.4717953030796
 20
-587.024505469176
 30
0.0
 10
132.9489091889302
 20
-591.5911040691659
 30
0.0
 10
133.8112829624572
 20
-601.3698484760742
 30
0.0
 10
143.9053764498502
 20
-601.0795834172707
 30
0.0
 10
143.9053764498502
 20
-601.0795834172707
 30
0.0
 10
143.9053764498502
 20
-601.0795834172707
 30
0.0
 10
156.5178357689105
 20
-601.0795884934291
 30
0.0
 10
156.5178357689105
 20
-601.0795884934291
 30
0.0
 10
156.5178357689105
 20
-601.0795884934291
 30
0.0
 10
157.5780002468368
 20
-594.7604681495517
 30
0.0
 10
157.5780002468368
 20
-594.7604681495517
 30
0.0
 10
155.6209157927215
 20
-594.7604673618764
 30
0.0
 10
150.4687427033027
 20
-594.7604652882804
 30
0.0
 10
145.8425572771461
 20
-594.7604634263759
 30
0.0
 10
139.4016108276194
 20
-594.7604608340799
 30
0.0
 10
141.1524258125272
 20
-588.5112107802487
 30
0.0
 10
141.1524258125272
 20
-588.5112107802487
 30
0.0
 10
141.1524258125272
 20
-588.5112107802487
 30
0.0
 10
158.6264333760764
 20
-588.5112178130257
 30
0.0
 10
158.6264333760764
 20
-588.5112178130257
 30
0.0
 10
158.6264333760764
 20
-588.5112178130257
 30
0.0
 10
159.6963074170903
 20
-582.1341709461241
 30
0.0
 10
159.6963074170903
 20
-582.1341709461241
 30
0.0
 10
159.6963074170903
 20
-582.1341709461241
 30
0.0
 10
142.2131394363036
 20
-582.1341639096573
 30
0.0
 10
142.2131394363036
 20
-582.1341639096573
 30
0.0
 10
142.2131394363036
 20
-582.1341639096573
 30
0.0
 10
143.1843952758927
 20
-576.3200769816462
 30
0.0
 10
148.9607996337458
 20
-576.31335875607
 30
0.0
 10
153.5686642254216
 20
-576.3133606105943
 30
0.0
 10
158.6983730763855
 20
-576.3133626751526
 30
0.0
 10
160.6728548351661
 20
-576.3133634698229
 30
0.0
 10
160.6728548351661
 20
-576.3133634698229
 30
0.0
 10
161.7660168100509
 20
-569.9170160900465
 30
0.0
 10
161.7660168100509
 20
-569.9170160900465
 30
0.0
 10
161.7660168100509
 20
-569.9170160900465
 30
0.0
 10
150.8384627552362
 20
-569.8612629479085
 30
0.0
 10
148.3298313072796
 20
-569.9170106823755
 30
0.0
  0
HATCH
  5
10B
330
101
100
AcDbEntity
  8
图层 2
 62
   250
420
  2299925
440
 33554687
100
AcDbHatch
 10
0.0
 20
0.0
 30
0.0
210
0.0
220
0.0
230
1.0
  2
SOLID
 70
     1
 71
     1
 91
        1
 92
        1
 93
        1
 72
     4
 94
        3
 73
     0
 74
     0
 95
       47
 96
       43
 40
0.0
 40
0.0
 40
0.0
 40
0.0
 40
1.0
 40
1.0
 40
1.0
 40
2.0
 40
2.0
 40
2.0
 40
3.0
 40
3.0
 40
3.0
 40
4.0
 40
4.0
 40
4.0
 40
5.0
 40
5.0
 40
5.0
 40
6.0
 40
6.0
 40
6.0
 40
7.0
 40
7.0
 40
7.0
 40
8.0
 40
8.0
 40
8.0
 40
9.0
 40
9.0
 40
9.0
 40
10.0
 40
10.0
 40
10.0
 40
11.0
 40
11.0
 40
11.0
 40
12.0
 40
12.0
 40
12.0
 40
13.0
 40
13.0
 40
13.0
 40
14.0
 40
14.0
 40
14.0
 40
14.0
 10
148.3298313072796
 20
-569.9170106823755
 10
144.2768458970739
 20
-569.883649661638
 10
140.5421030750621
 20
-572.1352883907814
 10
138.3224858031112
 20
-574.3080283430167
 10
133.3440591547477
 20
-579.9871784844347
 10
132.4717953030796
 20
-587.024505469176
 10
132.9489091889302
 20
-591.5911040691659
 10
133.8112829624572
 20
-601.3698484760742
 10
143.9053764498502
 20
-601.0795834172707
 10
143.9053764498502
 20
-601.0795834172707
 10
143.9053764498502
 20
-601.0795834172707
 10
156.5178357689105
 20
-601.0795884934291
 10
156.5178357689105
 20
-601.0795884934291
 10
156.5178357689105
 20
-601.0795884934291
 10
157.5780002468368
 20
-594.7604681495517
 10
157.5780002468368
 20
-594.7604681495517
 10
155.6209157927215
 20
-594.7604673618764
 10
150.4687427033027
 20
-594.7604652882804
 10
145.8425572771461
 20
-594.7604634263759
 10
139.4016108276194
 20
-594.7604608340799
 10
141.1524258125272
 20
-588.5112107802487
 10
141.1524258125272
 20
-588.5112107802487
 10
141.1524258125272
 20
-588.5112107802487
 10
158.6264333760764
 20
-588.5112178130257
 10
158.6264333760764
 20
-588.5112178130257
 10
158.6264333760764
 20
-588.5112178130257
 10
159.6963074170903
 20
-582.1341709461241
 10
159.6963074170903
 20
-582.1341709461241
 10
159.6963074170903
 20
-582.1341709461241
 10
142.2131394363036
 20
-582.1341639096573
 10
142.2131394363036
 20
-582.1341639096573
 10
142.2131394363036
 20
-582.1341639096573
 10
143.1843952758927
 20
-576.3200769816462
 10
148.9607996337458
 20
-576.31335875607
 10
153.5686642254216
 20
-576.3133606105943
 10
158.6983730763855
 20
-576.3133626751526
 10
160.6728548351661
 20
-576.3133634698229
 10
160.6728548351661
 20
-576.3133634698229
 10
161.7660168100509
 20
-569.9170160900465
 10
161.7660168100509
 20
-569.9170160900465
 10
161.7660168100509
 20
-569.9170160900465
 10
150.8384627552362
 20
-569.8612629479085
 10
148.3298313072796
 20
-569.9170106823755
 97
        0
 97
        1
330
10A
 75
     2
 76
     1
 98
        1
 10
0.0
 20
0.0
450
        0
451
        0
460
0.0
461
0.0
452
        0
462
0.0
453
        0
470

  0
SPLINE
  5
10C
330
101
100
AcDbEntity
  8
图层 2
100
AcDbSpline
210
0.0
220
0.0
230
1.0
 70
     9
 71
     3
 72
    26
 73
    22
 74
     0
 42
0.0000000001
 43
0.0000000001
 40
0.0
 40
0.0
 40
0.0
 40
0.0
 40
1.0
 40
1.0
 40
1.0
 40
2.0
 40
2.0
 40
2.0
 40
3.0
 40
3.0
 40
3.0
 40
4.0
 40
4.0
 40
4.0
 40
5.0
 40
5.0
 40
5.0
 40
6.0
 40
6.0
 40
6.0
 40
7.0
 40
7.0
 40
7.0
 40
7.0
 10
122.4812064184446
 20
-580.9839871168768
 30
0.0
 10
121.637748014322
 20
-584.2555781765343
 30
0.0
 10
117.5993768895587
 20
-584.0766613965581
 30
0.0
 10
117.5993768895587
 20
-584.0766613965581
 30
0.0
 10
117.5993768895587
 20
-584.0766613965581
 30
0.0
 10
109.8804648746547
 20
-584.0766582899229
 30
0.0
 10
109.8804648746547
 20
-584.0766582899229
 30
0.0
 10
109.8804648746547
 20
-584.0766582899229
 30
0.0
 10
111.0050772052352
 20
-576.4599850164731
 30
0.0
 10
111.0050772052352
 20
-576.4599850164731
 30
0.0
 10
111.0050772052352
 20
-576.4599850164731
 30
0.0
 10
111.0050772229044
 20
-576.4088664008648
 30
0.0
 10
111.0050772229044
 20
-576.4088664008648
 30
0.0
 10
111.0050772229044
 20
-576.4088664008648
 30
0.0
 10
117.2215622321406
 20
-576.4599875184326
 30
0.0
 10
118.2950533158951
 20
-576.4344286426738
 30
0.0
 10
119.5509789527277
 20
-576.4766556705868
 30
0.0
 10
120.7246231125217
 20
-576.4137001232962
 30
0.0
 10
121.8747918651296
 20
-577.1549205125767
 30
0.0
 10
123.0249606177382
 20
-577.8961409018436
 30
0.0
 10
122.9157151966391
 20
-579.5782253624416
 30
0.0
 10
122.4812064184446
 20
-580.9839871168768
 30
0.0
  0
SPLINE
  5
10D
330
101
100
AcDbEntity
  8
图层 2
100
AcDbSpline
210
0.0
220
0.0
230
1.0
 70
     9
 71
     3
 72
    26
 73
    22
 74
     0
 42
0.0000000001
 43
0.0000000001
 40
0.0
 40
0.0
 40
0.0
 40
0.0
 40
1.0
 40
1.0
 40
1.0
 40
2.0
 40
2.0
 40
2.0
 40
3.0
 40
3.0
 40
3.0
 40
4.0
 40
4.0
 40
4.0
 40
5.0
 40
5.0
 40
5.0
 40
6.0
 40
6.0
 40
6.0
 40
7.0
 40
7.0
 40
7.0
 40
7.0
 10
131.0691360339179
 20
-578.0446701756204
 30
0.0
 10
130.8646645387631
 20
-569.3800647472175
 30
0.0
 10
121.5099564257374
 20
-569.8846451491696
 30
0.0
 10
121.5099564257374
 20
-569.8846451491696
 30
0.0
 10
121.5099564257374
 20
-569.8846451491696
 30
0.0
 10
104.6114826513704
 20
-569.88463834803
 30
0.0
 10
104.6114826513704
 20
-569.88463834803
 30
0.0
 10
104.6114826513704
 20
-569.88463834803
 30
0.0
 10
99.65800744992023
 20
-601.0719901696286
 30
0.0
 10
99.65800744992023
 20
-601.0719901696286
 30
0.0
 10
99.65800744992023
 20
-601.0719901696286
 30
0.0
 10
103.2959036628389
 20
-601.0798478760872
 30
0.0
 10
107.2282436437012
 20
-601.0805296258597
 30
0.0
 10
108.5002590422306
 20
-592.8179410039527
 30
0.0
 10
107.5034440103898
 20
-598.2876324731722
 30
0.0
 10
108.8836494717141
 20
-590.6198406869769
 30
0.0
 10
112.8690924049651
 20
-590.6531954404658
 30
0.0
 10
121.5099490279653
 20
-591.2843877716396
 30
0.0
 10
125.3182872256838
 20
-588.9329329862699
 30
0.0
 10
128.2320492802437
 20
-587.2971384594177
 30
0.0
 10
131.1713713794686
 20
-583.5399213949836
 30
0.0
 10
131.0691360339179
 20
-578.0446701756204
 30
0.0
  0
HATCH
  5
10E
330
101
100
AcDbEntity
  8
图层 2
 62
   250
420
  2299925
440
 33554687
100
AcDbHatch
 10
0.0
 20
0.0
 30
0.0
210
0.0
220
0.0
230
1.0
  2
SOLID
 70
     1
 71
     1
 91
        2
 92
        1
 93
        1
 72
     4
 94
        3
 73
     0
 74
     0
 95
       26
 96
       22
 40
0.0
 40
0.0
 40
0.0
 40
0.0
 40
1.0
 40
1.0
 40
1.0
 40
2.0
 40
2.0
 40
2.0
 40
3.0
 40
3.0
 40
3.0
 40
4.0
 40
4.0
 40
4.0
 40
5.0
 40
5.0
 40
5.0
 40
6.0
 40
6.0
 40
6.0
 40
7.0
 40
7.0
 40
7.0
 40
7.0
 10
122.4812064184446
 20
-580.9839871168768
 10
121.637748014322
 20
-584.2555781765343
 10
117.5993768895587
 20
-584.0766613965581
 10
117.5993768895587
 20
-584.0766613965581
 10
117.5993768895587
 20
-584.0766613965581
 10
109.8804648746547
 20
-584.0766582899229
 10
109.8804648746547
 20
-584.0766582899229
 10
109.8804648746547
 20
-584.0766582899229
 10
111.0050772052352
 20
-576.4599850164731
 10
111.0050772052352
 20
-576.4599850164731
 10
111.0050772052352
 20
-576.4599850164731
 10
111.0050772229044
 20
-576.4088664008648
 10
111.0050772229044
 20
-576.4088664008648
 10
111.0050772229044
 20
-576.4088664008648
 10
117.2215622321406
 20
-576.4599875184326
 10
118.2950533158951
 20
-576.4344286426738
 10
119.5509789527277
 20
-576.4766556705868
 10
120.7246231125217
 20
-576.4137001232962
 10
121.8747918651296
 20
-577.1549205125767
 10
123.0249606177382
 20
-577.8961409018436
 10
122.9157151966391
 20
-579.5782253624416
 10
122.4812064184446
 20
-580.9839871168768
 97
        0
 97
        1
330
10C
 92
        1
 93
        1
 72
     4
 94
        3
 73
     0
 74
     0
 95
       26
 96
       22
 40
0.0
 40
0.0
 40
0.0
 40
0.0
 40
1.0
 40
1.0
 40
1.0
 40
2.0
 40
2.0
 40
2.0
 40
3.0
 40
3.0
 40
3.0
 40
4.0
 40
4.0
 40
4.0
 40
5.0
 40
5.0
 40
5.0
 40
6.0
 40
6.0
 40
6.0
 40
7.0
 40
7.0
 40
7.0
 40
7.0
 10
131.0691360339179
 20
-578.0446701756204
 10
130.8646645387631
 20
-569.3800647472175
 10
121.5099564257374
 20
-569.8846451491696
 10
121.5099564257374
 20
-569.8846451491696
 10
121.5099564257374
 20
-569.8846451491696
 10
104.6114826513704
 20
-569.88463834803
 10
104.6114826513704
 20
-569.88463834803
 10
104.6114826513704
 20
-569.88463834803
 10
99.65800744992023
 20
-601.0719901696286
 10
99.65800744992023
 20
-601.0719901696286
 10
99.65800744992023
 20
-601.0719901696286
 10
103.2959036628389
 20
-601.0798478760872
 10
107.2282436437012
 20
-601.0805296258597
 10
108.5002590422306
 20
-592.8179410039527
 10
107.5034440103898
 20
-598.2876324731722
 10
108.8836494717141
 20
-590.6198406869769
 10
112.8690924049651
 20
-590.6531954404658
 10
121.5099490279653
 20
-591.2843877716396
 10
125.3182872256838
 20
-588.9329329862699
 10
128.2320492802437
 20
-587.2971384594177
 10
131.1713713794686
 20
-583.5399213949836
 10
131.0691360339179
 20
-578.0446701756204
 97
        0
 97
        1
330
10D
 75
     2
 76
     1
 98
        1
 10
0.0
 20
0.0
450
        0
451
        0
460
0.0
461
0.0
452
        0
462
0.0
453
        0
470

  0
SPLINE
  5
10F
330
101
100
AcDbEntity
  8
图层 2
100
AcDbSpline
210
0.0
220
0.0
230
1.0
 70
    11
 71
     3
 72
    17
 73
    13
 74
     0
 42
0.0000000001
 43
0.0000000001
 40
0.0
 40
0.0
 40
0.0
 40
0.0
 40
1.0
 40
1.0
 40
1.0
 40
2.0
 40
2.0
 40
2.0
 40
3.0
 40
3.0
 40
3.0
 40
4.0
 40
4.0
 40
4.0
 40
4.0
 10
93.48890187380625
 20
-586.9904127826495
 30
0.0
 10
93.48890187380625
 20
-586.9904127826495
 30
0.0
 10
85.29092749373234
 20
-586.9904094831999
 30
0.0
 10
85.29092749373234
 20
-586.9904094831999
 30
0.0
 10
85.18710567333185
 20
-585.8285342275038
 30
0.0
 10
84.84761530991214
 20
-584.5551052281185
 30
0.0
 10
84.21175929071008
 20
-583.1367880313557
 30
0.0
 10
84.21175929071008
 20
-583.1367880313557
 30
0.0
 10
94.20002739444013
 20
-583.1367920513359
 30
0.0
 10
94.20002739444013
 20
-583.1367920513359
 30
0.0
 10
94.20002739444013
 20
-583.1367920513359
 30
0.0
 10
93.48890187380625
 20
-586.9904127826495
 30
0.0
 10
93.48890187380625
 20
-586.9904127826495
 30
0.0
  0
SPLINE
  5
110
330
101
100
AcDbEntity
  8
图层 2
100
AcDbSpline
210
0.0
220
0.0
230
1.0
 70
     9
 71
     3
 72
    20
 73
    16
 74
     0
 42
0.0000000001
 43
0.0000000001
 40
0.0
 40
0.0
 40
0.0
 40
0.0
 40
1.0
 40
1.0
 40
1.0
 40
2.0
 40
2.0
 40
2.0
 40
3.0
 40
3.0
 40
3.0
 40
4.0
 40
4.0
 40
4.0
 40
5.0
 40
5.0
 40
5.0
 40
5.0
 10
87.39042487294158
 20
-598.869785038043
 30
0.0
 10
87.39042487294158
 20
-598.869785038043
 30
0.0
 10
74.15344100466595
 20
-598.8697797105446
 30
0.0
 10
74.15344100466595
 20
-598.8697797105446
 30
0.0
 10
76.253073824707
 20
-598.0227603206684
 30
0.0
 10
79.93344675038923
 20
-596.3473853676254
 30
0.0
 10
82.41846028700548
 20
-594.1528489738192
 30
0.0
 10
82.41846028700548
 20
-594.1528489738192
 30
0.0
 10
92.16717224788729
 20
-594.1528528973923
 30
0.0
 10
92.16717224788729
 20
-594.1528528973923
 30
0.0
 10
92.16717224788729
 20
-594.1528528973923
 30
0.0
 10
91.96287209656169
 20
-595.2599652152854
 30
0.0
 10
91.96287209656169
 20
-595.2599652152854
 30
0.0
 10
91.41363290486877
 20
-598.2730804050969
 30
0.0
 10
89.95088005173011
 20
-598.8697860685526
 30
0.0
 10
87.39042487294158
 20
-598.869785038043
 30
0.0
  0
SPLINE
  5
111
330
101
100
AcDbEntity
  8
图层 2
100
AcDbSpline
210
0.0
220
0.0
230
1.0
 70
     9
 71
     3
 72
    20
 73
    16
 74
     0
 42
0.0000000001
 43
0.0000000001
 40
0.0
 40
0.0
 40
0.0
 40
0.0
 40
1.0
 40
1.0
 40
1.0
 40
2.0
 40
2.0
 40
2.0
 40
3.0
 40
3.0
 40
3.0
 40
4.0
 40
4.0
 40
4.0
 40
5.0
 40
5.0
 40
5.0
 40
5.0
 10
52.57946783839675
 20
-595.1736804607046
 30
0.0
 10
52.57946783839675
 20
-595.1736804607046
 30
0.0
 10
52.77293520492113
 20
-594.1528370423663
 30
0.0
 10
52.77293520492113
 20
-594.1528370423663
 30
0.0
 10
52.77293520492113
 20
-594.1528370423663
 30
0.0
 10
70.81362190366346
 20
-594.1528443032069
 30
0.0
 10
70.81362190366346
 20
-594.1528443032069
 30
0.0
 10
68.00377561957619
 20
-595.9407529457185
 30
0.0
 10
63.19838096253801
 20
-598.1641424679615
 30
0.0
 10
59.13649696241674
 20
-598.8697736666676
 30
0.0
 10
59.13649696241674
 20
-598.8697736666676
 30
0.0
 10
55.53430016572674
 20
-598.8697722168782
 30
0.0
 10
55.53430016572674
 20
-598.8697722168782
 30
0.0
 10
52.92455470373344
 20
-598.8697711665349
 30
0.0
 10
52.12653792372334
 20
-597.9128318587348
 30
0.0
 10
52.57946783839675
 20
-595.1736804607046
 30
0.0
  0
SPLINE
  5
112
330
101
100
AcDbEntity
  8
图层 2
100
AcDbSpline
210
0.0
220
0.0
230
1.0
 70
    11
 71
     3
 72
    17
 73
    13
 74
     0
 42
0.0000000001
 43
0.0000000001
 40
0.0
 40
0.0
 40
0.0
 40
0.0
 40
1.0
 40
1.0
 40
1.0
 40
2.0
 40
2.0
 40
2.0
 40
3.0
 40
3.0
 40
3.0
 40
4.0
 40
4.0
 40
4.0
 40
4.0
 10
56.94838330286953
 20
-572.1207153944113
 30
0.0
 10
56.94838330286953
 20
-572.1207153944113
 30
0.0
 10
67.14703523978869
 20
-572.1207194990686
 30
0.0
 10
67.14703523978869
 20
-572.1207194990686
 30
0.0
 10
67.28913364045407
 20
-573.2421903468273
 30
0.0
 10
67.62897971798804
 20
-574.4278653068797
 30
0.0
 10
68.44340765072086
 20
-576.0254596539469
 30
0.0
 10
68.44340765072086
 20
-576.0254596539469
 30
0.0
 10
56.20837249795378
 20
-576.025454729705
 30
0.0
 10
56.20837249795378
 20
-576.025454729705
 30
0.0
 10
56.20837249795378
 20
-576.025454729705
 30
0.0
 10
56.94838330286953
 20
-572.1207153944113
 30
0.0
 10
56.94838330286953
 20
-572.1207153944113
 30
0.0
  0
SPLINE
  5
113
330
101
100
AcDbEntity
  8
图层 2
100
AcDbSpline
210
0.0
220
0.0
230
1.0
 70
     9
 71
     3
 72
    20
 73
    16
 74
     0
 42
0.0000000001
 43
0.0000000001
 40
0.0
 40
0.0
 40
0.0
 40
0.0
 40
1.0
 40
1.0
 40
1.0
 40
2.0
 40
2.0
 40
2.0
 40
3.0
 40
3.0
 40
3.0
 40
4.0
 40
4.0
 40
4.0
 40
5.0
 40
5.0
 40
5.0
 40
5.0
 10
62.37141072002133
 20
-559.8188093199423
 30
0.0
 10
62.37141072002133
 20
-559.8188093199423
 30
0.0
 10
78.6139724119846
 20
-559.8188158571011
 30
0.0
 10
78.6139724119846
 20
-559.8188158571011
 30
0.0
 10
76.37466821699328
 20
-560.5858812330118
 30
0.0
 10
72.27519371934298
 20
-562.2707409167579
 30
0.0
 10
69.60747084636444
 20
-565.0349577660407
 30
0.0
 10
69.60747084636444
 20
-565.0349577660407
 30
0.0
 10
58.29125424669969
 20
-565.0349532115876
 30
0.0
 10
58.29125424669969
 20
-565.0349532115876
 30
0.0
 10
58.29125424669969
 20
-565.0349532115876
 30
0.0
 10
58.66169021451089
 20
-563.0803090402832
 30
0.0
 10
58.66169021451089
 20
-563.0803090402832
 30
0.0
 10
58.96364154017166
 20
-560.8803616311809
 30
0.0
 10
60.62439185571487
 20
-559.818808616814
 30
0.0
 10
62.37141072002133
 20
-559.8188093199423
 30
0.0
  0
SPLINE
  5
114
330
101
100
AcDbEntity
  8
图层 2
100
AcDbSpline
210
0.0
220
0.0
230
1.0
 70
     9
 71
     3
 72
    17
 73
    13
 74
     0
 42
0.0000000001
 43
0.0000000001
 40
0.0
 40
0.0
 40
0.0
 40
0.0
 40
1.0
 40
1.0
 40
1.0
 40
2.0
 40
2.0
 40
2.0
 40
3.0
 40
3.0
 40
3.0
 40
4.0
 40
4.0
 40
4.0
 40
4.0
 10
77.5787292225538
 20
-570.5813307680499
 30
0.0
 10
77.61655691185835
 20
-569.4017649840061
 30
0.0
 10
77.96378587217266
 20
-568.029031860508
 30
0.0
 10
79.23136223014875
 20
-566.5743545688409
 30
0.0
 10
79.23136223014875
 20
-566.5743545688409
 30
0.0
 10
97.25638636263465
 20
-566.5743618233846
 30
0.0
 10
97.25638636263465
 20
-566.5743618233846
 30
0.0
 10
97.25638636263465
 20
-566.5743618233846
 30
0.0
 10
96.51695584853776
 20
-570.5813383901414
 30
0.0
 10
96.51695584853776
 20
-570.5813383901414
 30
0.0
 10
96.51695584853776
 20
-570.5813383901414
 30
0.0
 10
77.5787292225538
 20
-570.5813307680499
 30
0.0
 10
77.5787292225538
 20
-570.5813307680499
 30
0.0
  0
SPLINE
  5
115
330
101
100
AcDbEntity
  8
图层 2
100
AcDbSpline
210
0.0
220
0.0
230
1.0
 70
    11
 71
     3
 72
    17
 73
    13
 74
     0
 42
0.0000000001
 43
0.0000000001
 40
0.0
 40
0.0
 40
0.0
 40
0.0
 40
1.0
 40
1.0
 40
1.0
 40
2.0
 40
2.0
 40
2.0
 40
3.0
 40
3.0
 40
3.0
 40
4.0
 40
4.0
 40
4.0
 40
4.0
 10
57.24012565181874
 20
-570.5813225823598
 30
0.0
 10
57.24012565181874
 20
-570.5813225823598
 30
0.0
 10
57.99951189774887
 20
-566.574346023639
 30
0.0
 10
57.99951189774887
 20
-566.574346023639
 30
0.0
 10
57.99951189774887
 20
-566.574346023639
 30
0.0
 10
68.36526656843064
 20
-566.5743501955502
 30
0.0
 10
68.36526656843064
 20
-566.5743501955502
 30
0.0
 10
67.58973200921954
 20
-567.7518252607808
 30
0.0
 10
67.09601126771585
 20
-569.0846593472652
 30
0.0
 10
67.05565000190017
 20
-570.5813265328291
 30
0.0
 10
67.05565000190017
 20
-570.5813265328291
 30
0.0
 10
57.24012565181874
 20
-570.5813225823598
 30
0.0
 10
57.24012565181874
 20
-570.5813225823598
 30
0.0
  0
SPLINE
  5
116
330
101
100
AcDbEntity
  8
图层 2
100
AcDbSpline
210
0.0
220
0.0
230
1.0
 70
     9
 71
     3
 72
    17
 73
    13
 74
     0
 42
0.0000000001
 43
0.0000000001
 40
0.0
 40
0.0
 40
0.0
 40
0.0
 40
1.0
 40
1.0
 40
1.0
 40
2.0
 40
2.0
 40
2.0
 40
3.0
 40
3.0
 40
3.0
 40
4.0
 40
4.0
 40
4.0
 40
4.0
 10
79.36958267017158
 20
-576.0254640514173
 30
0.0
 10
78.53617235557722
 20
-574.7181887386159
 30
0.0
 10
77.87978024402204
 20
-573.3992820151732
 30
0.0
 10
77.66471680314399
 20
-572.1207237321307
 30
0.0
 10
77.66471680314399
 20
-572.1207237321307
 30
0.0
 10
96.23288254099424
 20
-572.1207312052762
 30
0.0
 10
96.23288254099424
 20
-572.1207312052762
 30
0.0
 10
96.23288254099424
 20
-572.1207312052762
 30
0.0
 10
95.51232202253979
 20
-576.0254705483987
 30
0.0
 10
95.51232202253979
 20
-576.0254705483987
 30
0.0
 10
95.51232202253979
 20
-576.0254705483987
 30
0.0
 10
79.36958267017158
 20
-576.0254640514173
 30
0.0
 10
79.36958267017158
 20
-576.0254640514173
 30
0.0
  0
SPLINE
  5
117
330
101
100
AcDbEntity
  8
图层 2
100
AcDbSpline
210
0.0
220
0.0
230
1.0
 70
     9
 71
     3
 72
    17
 73
    13
 74
     0
 42
0.0000000001
 43
0.0000000001
 40
0.0
 40
0.0
 40
0.0
 40
0.0
 40
1.0
 40
1.0
 40
1.0
 40
2.0
 40
2.0
 40
2.0
 40
3.0
 40
3.0
 40
3.0
 40
4.0
 40
4.0
 40
4.0
 40
4.0
 10
83.38520064909337
 20
-581.5973947692096
 30
0.0
 10
82.53894202216205
 20
-580.3362709748096
 30
0.0
 10
81.43785784676424
 20
-578.9696712526787
 30
0.0
 10
80.42285539832201
 20
-577.5648574047918
 30
0.0
 10
80.42285539832201
 20
-577.5648574047918
 30
0.0
 10
95.22824871499659
 20
-577.5648633635328
 30
0.0
 10
95.22824871499659
 20
-577.5648633635328
 30
0.0
 10
95.22824871499659
 20
-577.5648633635328
 30
0.0
 10
94.48410070198011
 20
-581.5973992361947
 30
0.0
 10
94.48410070198011
 20
-581.5973992361947
 30
0.0
 10
94.48410070198011
 20
-581.5973992361947
 30
0.0
 10
83.38520064909337
 20
-581.5973947692096
 30
0.0
 10
83.38520064909337
 20
-581.5973947692096
 30
0.0
  0
SPLINE
  5
118
330
101
100
AcDbEntity
  8
图层 2
100
AcDbSpline
210
0.0
220
0.0
230
1.0
 70
    11
 71
     3
 72
    17
 73
    13
 74
     0
 42
0.0000000001
 43
0.0000000001
 40
0.0
 40
0.0
 40
0.0
 40
0.0
 40
1.0
 40
1.0
 40
1.0
 40
2.0
 40
2.0
 40
2.0
 40
3.0
 40
3.0
 40
3.0
 40
4.0
 40
4.0
 40
4.0
 40
4.0
 10
55.15240160284069
 20
-581.5973834063251
 30
0.0
 10
55.15240160284069
 20
-581.5973834063251
 30
0.0
 10
55.91663014900393
 20
-577.5648475417461
 30
0.0
 10
55.91663014900393
 20
-577.5648475417461
 30
0.0
 10
55.91663014900393
 20
-577.5648475417461
 30
0.0
 10
69.3004614960479
 20
-577.564852928359
 30
0.0
 10
69.3004614960479
 20
-577.564852928359
 30
0.0
 10
69.97694044592191
 20
-578.6954220065078
 30
0.0
 10
70.85702645191656
 20
-580.0144286610149
 30
0.0
 10
72.00064908405557
 20
-581.5973901872578
 30
0.0
 10
72.00064908405557
 20
-581.5973901872578
 30
0.0
 10
55.15240160284069
 20
-581.5973834063251
 30
0.0
 10
55.15240160284069
 20
-581.5973834063251
 30
0.0
  0
SPLINE
  5
119
330
101
100
AcDbEntity
  8
图层 2
100
AcDbSpline
210
0.0
220
0.0
230
1.0
 70
    11
 71
     3
 72
    17
 73
    13
 74
     0
 42
0.0000000001
 43
0.0000000001
 40
0.0
 40
0.0
 40
0.0
 40
0.0
 40
1.0
 40
1.0
 40
1.0
 40
2.0
 40
2.0
 40
2.0
 40
3.0
 40
3.0
 40
3.0
 40
4.0
 40
4.0
 40
4.0
 40
4.0
 10
54.13033304944192
 20
-586.990396941968
 30
0.0
 10
54.13033304944192
 20
-586.990396941968
 30
0.0
 10
54.86065925389244
 20
-583.1367762183906
 30
0.0
 10
54.86065925389244
 20
-583.1367762183906
 30
0.0
 10
54.86065925389244
 20
-583.1367762183906
 30
0.0
 10
73.0957864165905
 20
-583.1367835574949
 30
0.0
 10
73.0957864165905
 20
-583.1367835574949
 30
0.0
 10
73.7355863106102
 20
-584.1126489199233
 30
0.0
 10
74.49502686931366
 20
-585.4509061275795
 30
0.0
 10
74.73601769520259
 20
-586.9904052351593
 30
0.0
 10
74.73601769520259
 20
-586.9904052351593
 30
0.0
 10
54.13033304944192
 20
-586.990396941968
 30
0.0
 10
54.13033304944192
 20
-586.990396941968
 30
0.0
  0
SPLINE
  5
11A
330
101
100
AcDbEntity
  8
图层 2
100
AcDbSpline
210
0.0
220
0.0
230
1.0
 70
     9
 71
     3
 72
    17
 73
    13
 74
     0
 42
0.0000000001
 43
0.0000000001
 40
0.0
 40
0.0
 40
0.0
 40
0.0
 40
1.0
 40
1.0
 40
1.0
 40
2.0
 40
2.0
 40
2.0
 40
3.0
 40
3.0
 40
3.0
 40
4.0
 40
4.0
 40
4.0
 40
4.0
 10
72.77106881377591
 20
-592.6134521615572
 30
0.0
 10
72.77106881377591
 20
-592.6134521615572
 30
0.0
 10
53.06467755386201
 20
-592.6134442303156
 30
0.0
 10
53.06467755386201
 20
-592.6134442303156
 30
0.0
 10
53.06467755386201
 20
-592.6134442303156
 30
0.0
 10
53.83859694056315
 20
-588.5297897540257
 30
0.0
 10
53.83859694056315
 20
-588.5297897540257
 30
0.0
 10
53.83859694056315
 20
-588.5297897540257
 30
0.0
 10
74.78631209691656
 20
-588.5297981848717
 30
0.0
 10
74.78631209691656
 20
-588.5297981848717
 30
0.0
 10
74.66239641377839
 20
-589.8251670676248
 30
0.0
 10
74.09347661529706
 20
-591.2122335320733
 30
0.0
 10
72.77106881377591
 20
-592.6134521615572
 30
0.0
  0
SPLINE
  5
11B
330
101
100
AcDbEntity
  8
图层 2
100
AcDbSpline
210
0.0
220
0.0
230
1.0
 70
    11
 71
     3
 72
    17
 73
    13
 74
     0
 42
0.0000000001
 43
0.0000000001
 40
0.0
 40
0.0
 40
0.0
 40
0.0
 40
1.0
 40
1.0
 40
1.0
 40
2.0
 40
2.0
 40
2.0
 40
3.0
 40
3.0
 40
3.0
 40
4.0
 40
4.0
 40
4.0
 40
4.0
 10
93.20482856625826
 20
-588.5298055977836
 30
0.0
 10
93.20482856625826
 20
-588.5298055977836
 30
0.0
 10
92.45124555543338
 20
-592.6134600822506
 30
0.0
 10
92.45124555543338
 20
-592.6134600822506
 30
0.0
 10
92.45124555543338
 20
-592.6134600822506
 30
0.0
 10
83.77255519263831
 20
-592.6134565893345
 30
0.0
 10
83.77255519263831
 20
-592.6134565893345
 30
0.0
 10
84.58232277375808
 20
-591.3823731361743
 30
0.0
 10
85.14930189127483
 20
-590.0542066480891
 30
0.0
 10
85.29228105594715
 20
-588.5298024132128
 30
0.0
 10
85.29228105594715
 20
-588.5298024132128
 30
0.0
 10
93.20482856625826
 20
-588.5298055977836
 30
0.0
 10
93.20482856625826
 20
-588.5298055977836
 30
0.0
  0
SPLINE
  5
11C
330
101
100
AcDbEntity
  8
图层 2
100
AcDbSpline
210
0.0
220
0.0
230
1.0
 70
     9
 71
     3
 72
    20
 73
    16
 74
     0
 42
0.0000000001
 43
0.0000000001
 40
0.0
 40
0.0
 40
0.0
 40
0.0
 40
1.0
 40
1.0
 40
1.0
 40
2.0
 40
2.0
 40
2.0
 40
3.0
 40
3.0
 40
3.0
 40
4.0
 40
4.0
 40
4.0
 40
5.0
 40
5.0
 40
5.0
 40
5.0
 10
97.5426000169106
 20
-565.0233687275667
 30
0.0
 10
97.5426000169106
 20
-565.0233687275667
 30
0.0
 10
97.54045967018136
 20
-565.0349690082467
 30
0.0
 10
97.54045967018136
 20
-565.0349690082467
 30
0.0
 10
97.54045967018136
 20
-565.0349690082467
 30
0.0
 10
80.90941017448411
 20
-565.0349623147359
 30
0.0
 10
80.90941017448411
 20
-565.0349623147359
 30
0.0
 10
83.20781437270539
 20
-563.2962439017997
 30
0.0
 10
87.03409256908605
 20
-561.4995371762005
 30
0.0
 10
93.34117145863812
 20
-559.818821784361
 30
0.0
 10
93.34117145863812
 20
-559.818821784361
 30
0.0
 10
95.11856696538714
 20
-559.8188224997167
 30
0.0
 10
95.11856696538714
 20
-559.8188224997167
 30
0.0
 10
98.53604532132408
 20
-559.8188238751551
 30
0.0
 10
98.26077656945546
 20
-561.8725104024975
 30
0.0
 10
97.5426000169106
 20
-565.0233687275667
 30
0.0
  0
SPLINE
  5
11D
330
101
100
AcDbEntity
  8
图层 2
100
AcDbSpline
210
0.0
220
0.0
230
1.0
 70
     9
 71
     3
 72
    29
 73
    25
 74
     0
 42
0.0000000001
 43
0.0000000001
 40
0.0
 40
0.0
 40
0.0
 40
0.0
 40
1.0
 40
1.0
 40
1.0
 40
2.0
 40
2.0
 40
2.0
 40
3.0
 40
3.0
 40
3.0
 40
4.0
 40
4.0
 40
4.0
 40
5.0
 40
5.0
 40
5.0
 40
6.0
 40
6.0
 40
6.0
 40
7.0
 40
7.0
 40
7.0
 40
8.0
 40
8.0
 40
8.0
 40
8.0
 10
95.15985826013782
 20
-557.5727234621247
 30
0.0
 10
95.15985826013782
 20
-557.5727234621247
 30
0.0
 10
62.22043309387423
 20
-557.5727102049722
 30
0.0
 10
62.22043309387423
 20
-557.5727102049722
 30
0.0
 10
59.36546550888929
 20
-557.5727090559332
 30
0.0
 10
56.57325962103633
 20
-560.1445820797557
 30
0.0
 10
56.27681797296669
 20
-563.2149374910583
 30
0.0
 10
56.27681797296669
 20
-563.2149374910583
 30
0.0
 10
50.22684404610243
 20
-595.9246464223305
 30
0.0
 10
50.22684404610243
 20
-595.9246464223305
 30
0.0
 10
49.7531345333316
 20
-599.1773302326881
 30
0.0
 10
52.16524391213599
 20
-601.2176516215941
 30
0.0
 10
54.96728329061316
 20
-601.1155028790211
 30
0.0
 10
54.96728329061316
 20
-601.1155028790211
 30
0.0
 10
88.36235809351947
 20
-601.1155163195686
 30
0.0
 10
88.36235809351947
 20
-601.1155163195686
 30
0.0
 10
91.21733191856877
 20
-601.1155174686116
 30
0.0
 10
93.53733924753909
 20
-599.3147728144625
 30
0.0
 10
94.05333149663716
 20
-595.9246640612157
 30
0.0
 10
94.05333149663716
 20
-595.9246640612157
 30
0.0
 10
100.0974208285573
 20
-563.8296202879177
 30
0.0
 10
100.0974208285573
 20
-563.8296202879177
 30
0.0
 10
100.892936940893
 20
-560.1614044132051
 30
0.0
 10
98.97043582875882
 20
-557.57272499577
 30
0.0
 10
95.15985826013782
 20
-557.5727234621247
 30
0.0
  0
HATCH
  5
11E
330
101
100
AcDbEntity
  8
图层 2
 62
   250
420
  2299925
440
 33554687
100
AcDbHatch
 10
0.0
 20
0.0
 30
0.0
210
0.0
220
0.0
230
1.0
  2
SOLID
 70
     1
 71
     1
 91
       15
 92
        1
 93
        1
 72
     4
 94
        3
 73
     0
 74
     0
 95
       17
 96
       13
 40
0.0
 40
0.0
 40
0.0
 40
0.0
 40
1.0
 40
1.0
 40
1.0
 40
2.0
 40
2.0
 40
2.0
 40
3.0
 40
3.0
 40
3.0
 40
4.0
 40
4.0
 40
4.0
 40
4.0
 10
93.48890187380625
 20
-586.9904127826495
 10
93.48890187380625
 20
-586.9904127826495
 10
85.29092749373234
 20
-586.9904094831999
 10
85.29092749373234
 20
-586.9904094831999
 10
85.18710567333185
 20
-585.8285342275038
 10
84.84761530991214
 20
-584.5551052281185
 10
84.21175929071008
 20
-583.1367880313557
 10
84.21175929071008
 20
-583.1367880313557
 10
94.20002739444013
 20
-583.1367920513359
 10
94.20002739444013
 20
-583.1367920513359
 10
94.20002739444013
 20
-583.1367920513359
 10
93.48890187380625
 20
-586.9904127826495
 10
93.48890187380625
 20
-586.9904127826495
 97
        0
 97
        1
330
10F
 92
        1
 93
        1
 72
     4
 94
        3
 73
     0
 74
     0
 95
       20
 96
       16
 40
0.0
 40
0.0
 40
0.0
 40
0.0
 40
1.0
 40
1.0
 40
1.0
 40
2.0
 40
2.0
 40
2.0
 40
3.0
 40
3.0
 40
3.0
 40
4.0
 40
4.0
 40
4.0
 40
5.0
 40
5.0
 40
5.0
 40
5.0
 10
87.39042487294158
 20
-598.869785038043
 10
87.39042487294158
 20
-598.869785038043
 10
74.15344100466595
 20
-598.8697797105446
 10
74.15344100466595
 20
-598.8697797105446
 10
76.253073824707
 20
-598.0227603206684
 10
79.93344675038923
 20
-596.3473853676254
 10
82.41846028700548
 20
-594.1528489738192
 10
82.41846028700548
 20
-594.1528489738192
 10
92.16717224788729
 20
-594.1528528973923
 10
92.16717224788729
 20
-594.1528528973923
 10
92.16717224788729
 20
-594.1528528973923
 10
91.96287209656169
 20
-595.2599652152854
 10
91.96287209656169
 20
-595.2599652152854
 10
91.41363290486877
 20
-598.2730804050969
 10
89.95088005173011
 20
-598.8697860685526
 10
87.39042487294158
 20
-598.869785038043
 97
        0
 97
        1
330
110
 92
        1
 93
        1
 72
     4
 94
        3
 73
     0
 74
     0
 95
       20
 96
       16
 40
0.0
 40
0.0
 40
0.0
 40
0.0
 40
1.0
 40
1.0
 40
1.0
 40
2.0
 40
2.0
 40
2.0
 40
3.0
 40
3.0
 40
3.0
 40
4.0
 40
4.0
 40
4.0
 40
5.0
 40
5.0
 40
5.0
 40
5.0
 10
52.57946783839675
 20
-595.1736804607046
 10
52.57946783839675
 20
-595.1736804607046
 10
52.77293520492113
 20
-594.1528370423663
 10
52.77293520492113
 20
-594.1528370423663
 10
52.77293520492113
 20
-594.1528370423663
 10
70.81362190366346
 20
-594.1528443032069
 10
70.81362190366346
 20
-594.1528443032069
 10
68.00377561957619
 20
-595.9407529457185
 10
63.19838096253801
 20
-598.1641424679615
 10
59.13649696241674
 20
-598.8697736666676
 10
59.13649696241674
 20
-598.8697736666676
 10
55.53430016572674
 20
-598.8697722168782
 10
55.53430016572674
 20
-598.8697722168782
 10
52.92455470373344
 20
-598.8697711665349
 10
52.12653792372334
 20
-597.9128318587348
 10
52.57946783839675
 20
-595.1736804607046
 97
        0
 97
        1
330
111
 92
        1
 93
        1
 72
     4
 94
        3
 73
     0
 74
     0
 95
       17
 96
       13
 40
0.0
 40
0.0
 40
0.0
 40
0.0
 40
1.0
 40
1.0
 40
1.0
 40
2.0
 40
2.0
 40
2.0
 40
3.0
 40
3.0
 40
3.0
 40
4.0
 40
4.0
 40
4.0
 40
4.0
 10
56.94838330286953
 20
-572.1207153944113
 10
56.94838330286953
 20
-572.1207153944113
 10
67.14703523978869
 20
-572.1207194990686
 10
67.14703523978869
 20
-572.1207194990686
 10
67.28913364045407
 20
-573.2421903468273
 10
67.62897971798804
 20
-574.4278653068797
 10
68.44340765072086
 20
-576.0254596539469
 10
68.44340765072086
 20
-576.0254596539469
 10
56.20837249795378
 20
-576.025454729705
 10
56.20837249795378
 20
-576.025454729705
 10
56.20837249795378
 20
-576.025454729705
 10
56.94838330286953
 20
-572.1207153944113
 10
56.94838330286953
 20
-572.1207153944113
 97
        0
 97
        1
330
112
 92
        1
 93
        1
 72
     4
 94
        3
 73
     0
 74
     0
 95
       20
 96
       16
 40
0.0
 40
0.0
 40
0.0
 40
0.0
 40
1.0
 40
1.0
 40
1.0
 40
2.0
 40
2.0
 40
2.0
 40
3.0
 40
3.0
 40
3.0
 40
4.0
 40
4.0
 40
4.0
 40
5.0
 40
5.0
 40
5.0
 40
5.0
 10
62.37141072002133
 20
-559.8188093199423
 10
62.37141072002133
 20
-559.8188093199423
 10
78.6139724119846
 20
-559.8188158571011
 10
78.6139724119846
 20
-559.8188158571011
 10
76.37466821699328
 20
-560.5858812330118
 10
72.27519371934298
 20
-562.2707409167579
 10
69.60747084636444
 20
-565.0349577660407
 10
69.60747084636444
 20
-565.0349577660407
 10
58.29125424669969
 20
-565.0349532115876
 10
58.29125424669969
 20
-565.0349532115876
 10
58.29125424669969
 20
-565.0349532115876
 10
58.66169021451089
 20
-563.0803090402832
 10
58.66169021451089
 20
-563.0803090402832
 10
58.96364154017166
 20
-560.8803616311809
 10
60.62439185571487
 20
-559.818808616814
 10
62.37141072002133
 20
-559.8188093199423
 97
        0
 97
        1
330
113
 92
        1
 93
        1
 72
     4
 94
        3
 73
     0
 74
     0
 95
       17
 96
       13
 40
0.0
 40
0.0
 40
0.0
 40
0.0
 40
1.0
 40
1.0
 40
1.0
 40
2.0
 40
2.0
 40
2.0
 40
3.0
 40
3.0
 40
3.0
 40
4.0
 40
4.0
 40
4.0
 40
4.0
 10
77.5787292225538
 20
-570.5813307680499
 10
77.61655691185835
 20
-569.4017649840061
 10
77.96378587217266
 20
-568.029031860508
 10
79.23136223014875
 20
-566.5743545688409
 10
79.23136223014875
 20
-566.5743545688409
 10
97.25638636263465
 20
-566.5743618233846
 10
97.25638636263465
 20
-566.5743618233846
 10
97.25638636263465
 20
-566.5743618233846
 10
96.51695584853776
 20
-570.5813383901414
 10
96.51695584853776
 20
-570.5813383901414
 10
96.51695584853776
 20
-570.5813383901414
 10
77.5787292225538
 20
-570.5813307680499
 10
77.5787292225538
 20
-570.5813307680499
 97
        0
 97
        1
330
114
 92
        1
 93
        1
 72
     4
 94
        3
 73
     0
 74
     0
 95
       17
 96
       13
 40
0.0
 40
0.0
 40
0.0
 40
0.0
 40
1.0
 40
1.0
 40
1.0
 40
2.0
 40
2.0
 40
2.0
 40
3.0
 40
3.0
 40
3.0
 40
4.0
 40
4.0
 40
4.0
 40
4.0
 10
57.24012565181874
 20
-570.5813225823598
 10
57.24012565181874
 20
-570.5813225823598
 10
57.99951189774887
 20
-566.574346023639
 10
57.99951189774887
 20
-566.574346023639
 10
57.99951189774887
 20
-566.574346023639
 10
68.36526656843064
 20
-566.5743501955502
 10
68.36526656843064
 20
-566.5743501955502
 10
67.58973200921954
 20
-567.7518252607808
 10
67.09601126771585
 20
-569.0846593472652
 10
67.05565000190017
 20
-570.5813265328291
 10
67.05565000190017
 20
-570.5813265328291
 10
57.24012565181874
 20
-570.5813225823598
 10
57.24012565181874
 20
-570.5813225823598
 97
        0
 97
        1
330
115
 92
        1
 93
        1
 72
     4
 94
        3
 73
     0
 74
     0
 95
       17
 96
       13
 40
0.0
 40
0.0
 40
0.0
 40
0.0
 40
1.0
 40
1.0
 40
1.0
 40
2.0
 40
2.0
 40
2.0
 40
3.0
 40
3.0
 40
3.0
 40
4.0
 40
4.0
 40
4.0
 40
4.0
 10
79.36958267017158
 20
-576.0254640514173
 10
78.53617235557722
 20
-574.7181887386159
 10
77.87978024402204
 20
-573.3992820151732
 10
77.66471680314399
 20
-572.1207237321307
 10
77.66471680314399
 20
-572.1207237321307
 10
96.23288254099424
 20
-572.1207312052762
 10
96.23288254099424
 20
-572.1207312052762
 10
96.23288254099424
 20
-572.1207312052762
 10
95.51232202253979
 20
-576.0254705483987
 10
95.51232202253979
 20
-576.0254705483987
 10
95.51232202253979
 20
-576.0254705483987
 10
79.36958267017158
 20
-576.0254640514173
 10
79.36958267017158
 20
-576.0254640514173
 97
        0
 97
        1
330
116
 92
        1
 93
        1
 72
     4
 94
        3
 73
     0
 74
     0
 95
       17
 96
       13
 40
0.0
 40
0.0
 40
0.0
 40
0.0
 40
1.0
 40
1.0
 40
1.0
 40
2.0
 40
2.0
 40
2.0
 40
3.0
 40
3.0
 40
3.0
 40
4.0
 40
4.0
 40
4.0
 40
4.0
 10
83.38520064909337
 20
-581.5973947692096
 10
82.53894202216205
 20
-580.3362709748096
 10
81.43785784676424
 20
-578.9696712526787
 10
80.42285539832201
 20
-577.5648574047918
 10
80.42285539832201
 20
-577.5648574047918
 10
95.22824871499659
 20
-577.5648633635328
 10
95.22824871499659
 20
-577.5648633635328
 10
95.22824871499659
 20
-577.5648633635328
 10
94.48410070198011
 20
-581.5973992361947
 10
94.48410070198011
 20
-581.5973992361947
 10
94.48410070198011
 20
-581.5973992361947
 10
83.38520064909337
 20
-581.5973947692096
 10
83.38520064909337
 20
-581.5973947692096
 97
        0
 97
        1
330
117
 92
        1
 93
        1
 72
     4
 94
        3
 73
     0
 74
     0
 95
       17
 96
       13
 40
0.0
 40
0.0
 40
0.0
 40
0.0
 40
1.0
 40
1.0
 40
1.0
 40
2.0
 40
2.0
 40
2.0
 40
3.0
 40
3.0
 40
3.0
 40
4.0
 40
4.0
 40
4.0
 40
4.0
 10
55.15240160284069
 20
-581.5973834063251
 10
55.15240160284069
 20
-581.5973834063251
 10
55.91663014900393
 20
-577.5648475417461
 10
55.91663014900393
 20
-577.5648475417461
 10
55.91663014900393
 20
-577.5648475417461
 10
69.3004614960479
 20
-577.564852928359
 10
69.3004614960479
 20
-577.564852928359
 10
69.97694044592191
 20
-578.6954220065078
 10
70.85702645191656
 20
-580.0144286610149
 10
72.00064908405557
 20
-581.5973901872578
 10
72.00064908405557
 20
-581.5973901872578
 10
55.15240160284069
 20
-581.5973834063251
 10
55.15240160284069
 20
-581.5973834063251
 97
        0
 97
        1
330
118
 92
        1
 93
        1
 72
     4
 94
        3
 73
     0
 74
     0
 95
       17
 96
       13
 40
0.0
 40
0.0
 40
0.0
 40
0.0
 40
1.0
 40
1.0
 40
1.0
 40
2.0
 40
2.0
 40
2.0
 40
3.0
 40
3.0
 40
3.0
 40
4.0
 40
4.0
 40
4.0
 40
4.0
 10
54.13033304944192
 20
-586.990396941968
 10
54.13033304944192
 20
-586.990396941968
 10
54.86065925389244
 20
-583.1367762183906
 10
54.86065925389244
 20
-583.1367762183906
 10
54.86065925389244
 20
-583.1367762183906
 10
73.0957864165905
 20
-583.1367835574949
 10
73.0957864165905
 20
-583.1367835574949
 10
73.7355863106102
 20
-584.1126489199233
 10
74.49502686931366
 20
-585.4509061275795
 10
74.73601769520259
 20
-586.9904052351593
 10
74.73601769520259
 20
-586.9904052351593
 10
54.13033304944192
 20
-586.990396941968
 10
54.13033304944192
 20
-586.990396941968
 97
        0
 97
        1
330
119
 92
        1
 93
        1
 72
     4
 94
        3
 73
     0
 74
     0
 95
       17
 96
       13
 40
0.0
 40
0.0
 40
0.0
 40
0.0
 40
1.0
 40
1.0
 40
1.0
 40
2.0
 40
2.0
 40
2.0
 40
3.0
 40
3.0
 40
3.0
 40
4.0
 40
4.0
 40
4.0
 40
4.0
 10
72.77106881377591
 20
-592.6134521615572
 10
72.77106881377591
 20
-592.6134521615572
 10
53.06467755386201
 20
-592.6134442303156
 10
53.06467755386201
 20
-592.6134442303156
 10
53.06467755386201
 20
-592.6134442303156
 10
53.83859694056315
 20
-588.5297897540257
 10
53.83859694056315
 20
-588.5297897540257
 10
53.83859694056315
 20
-588.5297897540257
 10
74.78631209691656
 20
-588.5297981848717
 10
74.78631209691656
 20
-588.5297981848717
 10
74.66239641377839
 20
-589.8251670676248
 10
74.09347661529706
 20
-591.2122335320733
 10
72.77106881377591
 20
-592.6134521615572
 97
        0
 97
        1
330
11A
 92
        1
 93
        1
 72
     4
 94
        3
 73
     0
 74
     0
 95
       17
 96
       13
 40
0.0
 40
0.0
 40
0.0
 40
0.0
 40
1.0
 40
1.0
 40
1.0
 40
2.0
 40
2.0
 40
2.0
 40
3.0
 40
3.0
 40
3.0
 40
4.0
 40
4.0
 40
4.0
 40
4.0
 10
93.20482856625826
 20
-588.5298055977836
 10
93.20482856625826
 20
-588.5298055977836
 10
92.45124555543338
 20
-592.6134600822506
 10
92.45124555543338
 20
-592.6134600822506
 10
92.45124555543338
 20
-592.6134600822506
 10
83.77255519263831
 20
-592.6134565893345
 10
83.77255519263831
 20
-592.6134565893345
 10
84.58232277375808
 20
-591.3823731361743
 10
85.14930189127483
 20
-590.0542066480891
 10
85.29228105594715
 20
-588.5298024132128
 10
85.29228105594715
 20
-588.5298024132128
 10
93.20482856625826
 20
-588.5298055977836
 10
93.20482856625826
 20
-588.5298055977836
 97
        0
 97
        1
330
11B
 92
        1
 93
        1
 72
     4
 94
        3
 73
     0
 74
     0
 95
       20
 96
       16
 40
0.0
 40
0.0
 40
0.0
 40
0.0
 40
1.0
 40
1.0
 40
1.0
 40
2.0
 40
2.0
 40
2.0
 40
3.0
 40
3.0
 40
3.0
 40
4.0
 40
4.0
 40
4.0
 40
5.0
 40
5.0
 40
5.0
 40
5.0
 10
97.5426000169106
 20
-565.0233687275667
 10
97.5426000169106
 20
-565.0233687275667
 10
97.54045967018136
 20
-565.0349690082467
 10
97.54045967018136
 20
-565.0349690082467
 10
97.54045967018136
 20
-565.0349690082467
 10
80.90941017448411
 20
-565.0349623147359
 10
80.90941017448411
 20
-565.0349623147359
 10
83.20781437270539
 20
-563.2962439017997
 10
87.03409256908605
 20
-561.4995371762005
 10
93.34117145863812
 20
-559.818821784361
 10
93.34117145863812
 20
-559.818821784361
 10
95.11856696538714
 20
-559.8188224997167
 10
95.11856696538714
 20
-559.8188224997167
 10
98.53604532132408
 20
-559.8188238751551
 10
98.26077656945546
 20
-561.8725104024975
 10
97.5426000169106
 20
-565.0233687275667
 97
        0
 97
        1
330
11C
 92
        1
 93
        1
 72
     4
 94
        3
 73
     0
 74
     0
 95
       29
 96
       25
 40
0.0
 40
0.0
 40
0.0
 40
0.0
 40
1.0
 40
1.0
 40
1.0
 40
2.0
 40
2.0
 40
2.0
 40
3.0
 40
3.0
 40
3.0
 40
4.0
 40
4.0
 40
4.0
 40
5.0
 40
5.0
 40
5.0
 40
6.0
 40
6.0
 40
6.0
 40
7.0
 40
7.0
 40
7.0
 40
8.0
 40
8.0
 40
8.0
 40
8.0
 10
95.15985826013782
 20
-557.5727234621247
 10
95.15985826013782
 20
-557.5727234621247
 10
62.22043309387423
 20
-557.5727102049722
 10
62.22043309387423
 20
-557.5727102049722
 10
59.36546550888929
 20
-557.5727090559332
 10
56.57325962103633
 20
-560.1445820797557
 10
56.27681797296669
 20
-563.2149374910583
 10
56.27681797296669
 20
-563.2149374910583
 10
50.22684404610243
 20
-595.9246464223305
 10
50.22684404610243
 20
-595.9246464223305
 10
49.7531345333316
 20
-599.1773302326881
 10
52.16524391213599
 20
-601.2176516215941
 10
54.96728329061316
 20
-601.1155028790211
 10
54.96728329061316
 20
-601.1155028790211
 10
88.36235809351947
 20
-601.1155163195686
 10
88.36235809351947
 20
-601.1155163195686
 10
91.21733191856877
 20
-601.1155174686116
 10
93.53733924753909
 20
-599.3147728144625
 10
94.05333149663716
 20
-595.9246640612157
 10
94.05333149663716
 20
-595.9246640612157
 10
100.0974208285573
 20
-563.8296202879177
 10
100.0974208285573
 20
-563.8296202879177
 10
100.892936940893
 20
-560.1614044132051
 10
98.97043582875882
 20
-557.57272499577
 10
95.15985826013782
 20
-557.5727234621247
 97
        0
 97
        1
330
11D
 75
     2
 76
     1
 98
        1
 10
0.0
 20
0.0
450
        0
451
        0
460
0.0
461
0.0
452
        0
462
0.0
453
        0
470

  0
ENDBLK
  5
104
330
101
100
AcDbEntity
  8
0
100
AcDbBlockEnd
  0
ENDSEC
  0
SECTION
  2
ENTITIES
  0
LINE
  5
79
330
70
100
AcDbEntity
  8
图层 1
 62
    22
420
 15146777
370
     0
100
AcDbLine
 10
410.8576136703145
 20
17.18317971885813
 30
0.0
 11
410.8576136703145
 21
17.18317971885813
 31
0.0
  0
LINE
  5
7A
330
70
100
AcDbEntity
  8
图层 1
 62
    22
420
 15146777
370
     0
100
AcDbLine
 10
407.357613670318
 20
17.18317971885813
 30
0.0
 11
407.357613670318
 21
17.18317971885813
 31
0.0
  0
SPLINE
  5
7B
330
70
100
AcDbEntity
  8
图层 1
 62
   250
420
  2299925
370
    50
100
AcDbSpline
210
0.0
220
0.0
230
1.0
 70
     9
 71
     3
 72
    29
 73
    25
 74
     0
 42
0.0000000001
 43
0.0000000001
 40
0.0
 40
0.0
 40
0.0
 40
0.0
 40
1.0
 40
1.0
 40
1.0
 40
2.0
 40
2.0
 40
2.0
 40
3.0
 40
3.0
 40
3.0
 40
4.0
 40
4.0
 40
4.0
 40
5.0
 40
5.0
 40
5.0
 40
6.0
 40
6.0
 40
6.0
 40
7.0
 40
7.0
 40
7.0
 40
8.0
 40
8.0
 40
8.0
 40
8.0
 10
419.8576135750681
 20
-448.8168202138896
 30
0.0
 10
419.8576135750681
 20
-448.8168202138896
 30
0.0
 10
-342.1423862344325
 20
-448.8168202138896
 30
0.0
 10
-342.1423862344325
 20
-448.8168202138896
 30
0.0
 10
-357.6063592258289
 20
-448.8168202138896
 30
0.0
 10
-370.1423862274328
 20
-436.2807932122856
 30
0.0
 10
-370.1423862274328
 20
-420.8168202208883
 30
0.0
 10
-370.1423862274328
 20
-420.8168202208883
 30
0.0
 10
-370.1423862274328
 20
61.18317965860928
 30
0.0
 10
-370.1423862274328
 20
61.18317965860928
 30
0.0
 10
-370.1423862274328
 20
76.64715265000594
 30
0.0
 10
-357.6063592258289
 20
89.183179651609
 30
0.0
 10
-342.1423862344325
 20
89.183179651609
 30
0.0
 10
-342.1423862344325
 20
89.183179651609
 30
0.0
 10
419.8576135750681
 20
89.183179651609
 30
0.0
 10
419.8576135750681
 20
89.183179651609
 30
0.0
 10
435.3215865664648
 20
89.183179651609
 30
0.0
 10
447.8576135680657
 20
76.64715265000594
 30
0.0
 10
447.8576135680657
 20
61.18317965860928
 30
0.0
 10
447.8576135680657
 20
61.18317965860928
 30
0.0
 10
447.8576135680657
 20
-420.8168202208883
 30
0.0
 10
447.8576135680657
 20
-420.8168202208883
 30
0.0
 10
447.8576135680657
 20
-436.2807932122856
 30
0.0
 10
435.3215865664648
 20
-448.8168202138896
 30
0.0
 10
419.8576135750681
 20
-448.8168202138896
 30
0.0
  0
LINE
  5
7C
330
70
100
AcDbEntity
  8
图层 1
 62
   250
420
  2299925
370
    25
100
AcDbLine
 10
515.3901871172211
 20
114.0732065395414
 30
0.0
 11
455.1652490074991
 21
87.30949646971394
 31
0.0
  0
MTEXT
  5
7D
330
70
100
AcDbEntity
  8
图层 1
100
AcDbMText
 10
466.7509242268452
 20
98.27788298040717
 30
0.0
 40
0.2
 41
0.0
 46
0.0
 71
     7
 72
     1
  1
\C18;\c0;\FArial|b0|i0|c1;\H18.400095;\W1.000005;R28
 11
0.9138251464978218
 21
0.4061078694487887
 31
0.0
 73
     1
 44
1.0
  0
LWPOLYLINE
  5
7E
330
70
100
AcDbEntity
  8
图层 1
 62
   250
420
  2299925
370
    35
100
AcDbPolyline
 90
        3
 70
     1
 43
0.0
 10
451.1497330982216
 20
87.72686302433713
 10
440.9959874636994
 20
81.02598527141607
 10
452.7741347658174
 20
84.07154881445109
  0
HATCH
  5
7F
330
70
100
AcDbEntity
  8
图层 1
 62
   250
420
  2299925
440
 33554687
100
AcDbHatch
 10
0.0
 20
0.0
 30
0.0
210
0.0
220
0.0
230
1.0
  2
SOLID
 70
     1
 71
     1
 91
        1
 92
        1
 93
        3
 72
     1
 10
451.1497330982216
 20
87.72686302433713
 11
440.9959874636994
 21
81.02598527141607
 72
     1
 10
440.9959874636994
 20
81.02598527141607
 11
452.7741347658174
 21
84.07154881445109
 72
     1
 10
452.7741347658174
 20
84.07154881445109
 11
451.1497330982216
 21
87.72686302433713
 97
        1
330
7E
 75
     2
 76
     1
 98
        1
 10
0.0
 20
0.0
450
        0
451
        0
460
0.0
461
0.0
452
        0
462
0.0
453
        0
470

  0
LINE
  5
80
330
70
100
AcDbEntity
  8
图层 1
 62
   250
420
  2299925
370
    25
100
AcDbLine
 10
462.4758799863831
 20
90.55831023502802
 30
0.0
 11
440.9959874636994
 21
81.02598527141607
 31
0.0
  0
LINE
  5
81
330
70
100
AcDbEntity
  8
图层 1
 62
    22
420
 15146777
370
    25
100
AcDbLine
 10
458.2150345312539
 20
-455.5731470070752
 30
0.0
 11
458.2150345312539
 21
-455.5731470070752
 31
0.0
  0
LINE
  5
82
330
70
100
AcDbEntity
  8
图层 1
 62
    22
420
 15146777
370
    25
100
AcDbLine
 10
458.2150345312539
 20
-455.5731470070791
 30
0.0
 11
458.2150345312539
 21
-455.5731470070791
 31
0.0
  0
INSERT
  5
84
330
70
100
AcDbEntity
  8
图层 1
100
AcDbBlockReference
  2
Block_0
 10
0.0
 20
0.0
 30
0.0
  0
LINE
  5
8F
330
70
100
AcDbEntity
  8
图层 1
 62
   250
420
  2299925
370
    35
100
AcDbLine
 10
-380.9757195650101
 20
89.18317965160998
 30
0.0
 11
-380.9757195650101
 21
-448.8168202138896
 31
0.0
  0
LINE
  5
90
330
70
100
AcDbEntity
  8
图层 1
 62
   250
420
  2299925
370
    35
100
AcDbLine
 10
-386.2673862303539
 20
89.4331796585007
 30
0.0
 11
-375.6840528996664
 21
89.4331796585007
 31
0.0
  0
LINE
  5
91
330
70
100
AcDbEntity
  8
图层 1
 62
   250
420
  2299925
370
    35
100
AcDbLine
 10
-386.2673862303539
 20
-448.5668202069995
 30
0.0
 11
-375.6840528996664
 21
-448.5668202069995
 31
0.0
  0
LWPOLYLINE
  5
92
330
70
100
AcDbEntity
  8
图层 1
100
AcDbPolyline
 90
        3
 70
     1
 43
0.0
 10
-380.9757195650101
 20
89.4331796585007
 10
-384.503497341906
 20
82.37762410470905
 10
-377.4479417881143
 20
82.37762410470905
  0
HATCH
  5
93
330
70
100
AcDbEntity
  8
图层 1
 62
    18
420
        0
440
 33554687
100
AcDbHatch
 10
0.0
 20
0.0
 30
0.0
210
0.0
220
0.0
230
1.0
  2
SOLID
 70
     1
 71
     1
 91
        1
 92
        1
 93
        3
 72
     1
 10
-380.9757195650101
 20
89.4331796585007
 11
-384.503497341906
 21
82.37762410470905
 72
     1
 10
-384.503497341906
 20
82.37762410470905
 11
-377.4479417881143
 21
82.37762410470905
 72
     1
 10
-377.4479417881143
 20
82.37762410470905
 11
-380.9757195650101
 21
89.4331796585007
 97
        1
330
92
 75
     2
 76
     1
 98
        1
 10
0.0
 20
0.0
450
        0
451
        0
460
0.0
461
0.0
452
        0
462
0.0
453
        0
470

  0
LWPOLYLINE
  5
94
330
70
100
AcDbEntity
  8
图层 1
100
AcDbPolyline
 90
        3
 70
     1
 43
0.0
 10
-380.9757195650101
 20
-448.5668202069995
 10
-384.503497341906
 20
-441.5112646532079
 10
-377.4479417881143
 20
-441.5112646532079
  0
HATCH
  5
95
330
70
100
AcDbEntity
  8
图层 1
 62
    18
420
        0
440
 33554687
100
AcDbHatch
 10
0.0
 20
0.0
 30
0.0
210
0.0
220
0.0
230
1.0
  2
SOLID
 70
     1
 71
     1
 91
        1
 92
        1
 93
        3
 72
     1
 10
-380.9757195650101
 20
-448.5668202069995
 11
-384.503497341906
 21
-441.5112646532079
 72
     1
 10
-384.503497341906
 20
-441.5112646532079
 11
-377.4479417881143
 21
-441.5112646532079
 72
     1
 10
-377.4479417881143
 20
-441.5112646532079
 11
-380.9757195650101
 21
-448.5668202069995
 97
        1
330
94
 75
     2
 76
     1
 98
        1
 10
0.0
 20
0.0
450
        0
451
        0
460
0.0
461
0.0
452
        0
462
0.0
453
        0
470

  0
MTEXT
  5
96
330
70
100
AcDbEntity
  8
图层 1
100
AcDbMText
 10
-485.6407272820186
 20
-172.2919166981922
 30
0.0
 40
0.2
 41
0.0
 46
0.0
 71
     7
 72
     1
  1
\C18;\c0;\FEffra|b0|i0|c1;\H17.983200;\W1.000000;21-1/8"
 73
     1
 44
1.0
  0
MTEXT
  5
97
330
70
100
AcDbEntity
  8
图层 1
100
AcDbMText
 10
-503.5981152441092
 20
-202.7718822396173
 30
0.0
 40
0.2
 41
0.0
 46
0.0
 71
     7
 72
     1
  1
\C18;\c0;\FEffra|b0|i0|c1;\H17.983200;\W1.000000;(538 mm)
 73
     1
 44
1.0
  0
INSERT
  5
99
330
70
100
AcDbEntity
  8
图层 1
100
AcDbBlockReference
  2
Block_1
 10
0.0
 20
0.0
 30
0.0
  0
MTEXT
  5
CE
330
70
100
AcDbEntity
  8
图层 1
100
AcDbMText
 10
294.8905218870657
 20
-653.6678956834797
 30
0.0
 40
0.2
 41
0.0
 46
0.0
 71
     7
 72
     1
  1
\C250;\c1382435;\FHelvetica Neue LT Pro 77 Bold Condensed|b1|i0|c1;\H8.656261;\W1.000000;NOTE\FHelvetica Neue LT Pro 65 Medium|b0|i0|c1;: Due to the slight variations in the manufacture process it is
 73
     1
 44
1.0
  0
MTEXT
  5
CF
330
70
100
AcDbEntity
  8
图层 1
100
AcDbMText
 10
294.8905218870657
 20
-668.3395238265132
 30
0.0
 40
0.2
 41
0.0
 46
0.0
 71
     7
 72
     1
  1
\C250;\c1382435;\FHelvetica Neue LT Pro 65 Medium|b0|i0|c1;\H8.656261;\W1.000000;recommended the installer use the template for cutting out the countertop.
 73
     1
 44
1.0
  0
MTEXT
  5
D0
330
70
100
AcDbEntity
  8
图层 1
100
AcDbMText
 10
-390.8011673692051
 20
-674.3792606787089
 30
0.0
 40
0.2
 41
0.0
 46
0.0
 71
     7
 72
     1
  1
\C18;\c0;\FEffra Italic|b0|i1|c1;\H12.431639;\W1.000000;SH229042SS & SH229043SS
 73
     1
 44
1.0
  0
MTEXT
  5
D2
330
70
100
AcDbEntity
  8
图层 2
100
AcDbMText
 10
330.9949570464119
 20
-540.6880132383089
 30
0.0
 40
0.2
 41
0.0
 46
0.0
 71
     7
 72
     1
  1
\C250;\c1382435;\FNSimSun|b0|i0|c1;\H10.286667;\W1.000010;15110904-01
 73
     1
 44
1.0
  0
MTEXT
  5
D3
330
70
100
AcDbEntity
  8
图层 2
100
AcDbMText
 10
330.9949570464119
 20
-589.1305343850524
 30
0.0
 40
0.2
 41
0.0
 46
0.0
 71
     7
 72
     1
  1
\C250;\c1382435;\FNSimSun|b0|i0|c1;\H10.286667;\W1.000010;弗格森
 73
     1
 44
1.0
  0
MTEXT
  5
D4
330
70
100
AcDbEntity
  8
图层 2
100
AcDbMText
 10
-456.7362886876449
 20
-544.8948193353475
 30
0.0
 40
0.2
 41
0.0
 46
0.0
 71
     7
 72
     1
  1
\C250;\c1382435;\FAdobe Song Std L|b0|i0|c1;\H10.175954;\W1.000010;要求：
 73
     1
 44
1.0
  0
MTEXT
  5
D5
330
70
100
AcDbEntity
  8
图层 2
100
AcDbMText
 10
-456.7362886876449
 20
-562.1423453727023
 30
0.0
 40
0.2
 41
0.0
 46
0.0
 71
     7
 72
     1
  1
\C250;\c1382435;\FAdobe Song Std L|b0|i0|c1;\H10.175954;\W1.000010;1、成品尺寸：818*538 R28mm；
 73
     1
 44
1.0
  0
MTEXT
  5
D6
330
70
100
AcDbEntity
  8
图层 2
100
AcDbMText
 10
-456.7362886876449
 20
-579.3895269005085
 30
0.0
 40
0.2
 41
0.0
 46
0.0
 71
     7
 72
     1
  1
\C250;\c1382435;\FAdobe Song Std L|b0|i0|c1;\H10.175954;\W1.000010;2、材质：180g 双胶纸；
 73
     1
 44
1.0
  0
MTEXT
  5
D7
330
70
100
AcDbEntity
  8
图层 2
100
AcDbMText
 10
-456.7362886876449
 20
-596.6370529378633
 30
0.0
 40
0.2
 41
0.0
 46
0.0
 71
     7
 72
     1
  1
\C250;\c1382435;\FAdobe Song Std L|b0|i0|c1;\H10.175954;\W1.000010;3、工艺要求：单色单面胶印，模切；
 73
     1
 44
1.0
  0
MTEXT
  5
D8
330
70
100
AcDbEntity
  8
图层 2
100
AcDbMText
 10
-456.7362886876449
 20
-613.8842344656695
 30
0.0
 40
0.2
 41
0.0
 46
0.0
 71
     7
 72
     1
  1
\C250;\c1382435;\FAdobe Song Std L|b0|i0|c1;\H10.175954;\W1.000010;4、其它：标尺不印刷，版面整洁，内容清晰，无污迹。
 73
     1
 44
1.0
  0
MTEXT
  5
D9
330
70
100
AcDbEntity
  8
图层 2
100
AcDbMText
 10
330.9953015559603
 20
-564.9084125378093
 30
0.0
 40
0.2
 41
0.0
 46
0.0
 71
     7
 72
     1
  1
\C250;\c1382435;\FNSimSun|b0|i0|c1;\H10.286667;\W1.000010;开孔纸-818*538 SH229042SS
 73
     1
 44
1.0
  0
LINE
  5
DA
330
70
100
AcDbEntity
  8
图层 2
 62
    18
420
        0
370
   120
100
AcDbLine
 10
242.0905803196239
 20
221.6377545811861
 30
0.0
 11
684.0422694268344
 21
221.6367941007081
 31
0.0
  0
MTEXT
  5
DB
330
70
100
AcDbEntity
  8
图层 2
100
AcDbMText
 10
-212.6324977872994
 20
228.7421962590037
 30
0.0
 40
0.2
 41
0.0
 46
0.0
 71
     7
 72
     1
  1
\C250;\c1382435;\FNSimSun|b0|i0|c1;\H11.538558;\W1.000010;设变标识
 73
     1
 44
1.0
  0
MTEXT
  5
DC
330
70
100
AcDbEntity
  8
图层 2
100
AcDbMText
 10
-184.1118455214633
 20
203.1052598233557
 30
0.0
 40
0.2
 41
0.0
 46
0.0
 71
     7
 72
     1
  1
\C250;\c1382435;\FNSimSun|b0|i0|c1;\H11.538558;\W1.000010;-
 73
     1
 44
1.0
  0
MTEXT
  5
DD
330
70
100
AcDbEntity
  8
图层 2
100
AcDbMText
 10
-103.4944566361984
 20
228.7421962590037
 30
0.0
 40
0.2
 41
0.0
 46
0.0
 71
     7
 72
     1
  1
\C250;\c1382435;\FNSimSun|b0|i0|c1;\H11.538558;\W1.000010;设变区域
 73
     1
 44
1.0
  0
MTEXT
  5
DE
330
70
100
AcDbEntity
  8
图层 2
100
AcDbMText
 10
-91.2713453276596
 20
204.5175175049552
 30
0.0
 40
0.2
 41
0.0
 46
0.0
 71
     7
 72
     1
  1
\C250;\c1382435;\FNSimSun|b0|i0|c1;\H11.538558;\W1.000010;4C-7D
 73
     1
 44
1.0
  0
LINE
  5
DF
330
70
100
AcDbEntity
  8
图层 2
 62
    18
420
        0
370
   120
100
AcDbLine
 10
480.5724073103751
 20
247.3925735153656
 30
0.0
 11
480.5724145636584
 21
196.2862118927965
 31
0.0
  0
LINE
  5
E0
330
70
100
AcDbEntity
  8
图层 2
 62
    18
420
        0
370
   120
100
AcDbLine
 10
575.5095470899262
 20
247.3925735153656
 30
0.0
 11
575.5095543432136
 21
196.2862118927965
 31
0.0
  0
LWPOLYLINE
  5
E1
330
70
100
AcDbEntity
  8
图层 2
 62
    18
420
        0
370
   120
100
AcDbPolyline
 90
        3
 70
     0
 43
0.0
 10
242.0904904252132
 20
196.2863290732926
 10
242.0904831719291
 20
247.3926906958622
 10
242.0904904252132
 20
196.2863290732926
  0
LINE
  5
E2
330
70
100
AcDbEntity
  8
图层 2
 62
    18
420
        0
370
   120
100
AcDbLine
 10
-145.4055521541888
 20
247.3928080008582
 30
0.0
 11
-145.4055449008999
 21
196.2864463782878
 31
0.0
  0
LINE
  5
E3
330
70
100
AcDbEntity
  8
图层 2
 62
    18
420
        0
370
   100
100
AcDbLine
 10
-214.8218377908648
 20
247.3928509629121
 30
0.0
 11
-214.8218305375798
 21
196.2864893403424
 31
0.0
  0
MTEXT
  5
E4
330
70
100
AcDbEntity
  8
图层 2
100
AcDbMText
 10
89.24123803132943
 20
228.7416794946809
 30
0.0
 40
0.2
 41
0.0
 46
0.0
 71
     7
 72
     1
  1
\C250;\c1382435;\FNSimSun|b0|i0|c1;\H11.538558;\W1.000010;设变前内容
 73
     1
 44
1.0
  0
LINE
  5
E5
330
70
100
AcDbEntity
  8
图层 2
 62
    18
420
        0
370
   120
100
AcDbLine
 10
242.0905795623619
 20
221.637809811922
 30
0.0
 11
-251.6419014790332
 21
221.6382454744315
 31
0.0
  0
LINE
  5
E6
330
70
100
AcDbEntity
  8
图层 2
 62
    18
420
        0
370
   140
100
AcDbLine
 10
683.6592566211463
 20
196.2845248761209
 30
0.0
 11
-261.7385405932047
 21
196.2863409855712
 31
0.0
  0
MTEXT
  5
E7
330
70
100
AcDbEntity
  8
图层 2
100
AcDbMText
 10
-248.4459879042141
 20
228.7416794946809
 30
0.0
 40
0.2
 41
0.0
 46
0.0
 71
     7
 72
     1
  1
\C250;\c1382435;\FNSimSun|b0|i0|c1;\H11.538558;\W1.000010;序号
 73
     1
 44
1.0
  0
MTEXT
  5
E8
330
70
100
AcDbEntity
  8
图层 2
100
AcDbMText
 10
-236.9219133844409
 20
204.5176036323423
 30
0.0
 40
0.2
 41
0.0
 46
0.0
 71
     7
 72
     1
  1
\C250;\c1382435;\FNSimSun|b0|i0|c1;\H11.538558;\W1.000010;1
 73
     1
 44
1.0
  0
LINE
  5
E9
330
70
100
AcDbEntity
  8
图层 2
 62
    18
420
        0
370
   120
100
AcDbLine
 10
-251.6426068776763
 20
196.2865121288896
 30
0.0
 11
-251.6426141309596
 21
247.3928737514584
 31
0.0
  0
MTEXT
  5
EA
330
70
100
AcDbEntity
  8
图层 2
100
AcDbMText
 10
327.5074868866934
 20
228.7421962590037
 30
0.0
 40
0.2
 41
0.0
 46
0.0
 71
     7
 72
     1
  1
\C250;\c1382435;\FNSimSun|b0|i0|c1;\H11.538558;\W1.000010;设变后内容
 73
     1
 44
1.0
  0
MTEXT
  5
EB
330
70
100
AcDbEntity
  8
图层 2
100
AcDbMText
 10
246.3338012079478
 20
203.1052598233557
 30
0.0
 40
0.2
 41
0.0
 46
0.0
 71
     7
 72
     1
  1
\C250;\c1382435;\FNSimSun|b0|i0|c1;\H11.538558;\W1.000010;按业务要求修改产品线稿图排版
 73
     1
 44
1.0
  0
MTEXT
  5
EC
330
70
100
AcDbEntity
  8
图层 2
100
AcDbMText
 10
500.164992811411
 20
228.7421962590037
 30
0.0
 40
0.2
 41
0.0
 46
0.0
 71
     7
 72
     1
  1
\C250;\c1382435;\FNSimSun|b0|i0|c1;\H11.538558;\W1.000010;设变人
 73
     1
 44
1.0
  0
MTEXT
  5
ED
330
70
100
AcDbEntity
  8
图层 2
100
AcDbMText
 10
500.164992811411
 20
204.517431377568
 30
0.0
 40
0.2
 41
0.0
 46
0.0
 71
     7
 72
     1
  1
\C250;\c1382435;\FNSimSun|b0|i0|c1;\H11.538558;\W1.000010;卢朝杰
 73
     1
 44
1.0
  0
MTEXT
  5
EE
330
70
100
AcDbEntity
  8
图层 2
100
AcDbMText
 10
589.5238795078213
 20
228.7421962590037
 30
0.0
 40
0.2
 41
0.0
 46
0.0
 71
     7
 72
     1
  1
\C250;\c1382435;\FNSimSun|b0|i0|c1;\H11.538558;\W1.000010;设变日期
 73
     1
 44
1.0
  0
MTEXT
  5
EF
330
70
100
AcDbEntity
  8
图层 2
100
AcDbMText
 10
589.5238795078213
 20
203.1052598233557
 30
0.0
 40
0.2
 41
0.0
 46
0.0
 71
     7
 72
     1
  1
\C250;\c1382435;\FNSimSun|b0|i0|c1;\H11.538558;\W1.000010;2021.12.09
 73
     1
 44
1.0
  0
LINE
  5
F0
330
70
100
AcDbEntity
  8
图层 2
 62
    18
420
        0
370
   120
100
AcDbLine
 10
-567.3351235513328
 20
248.8840112502916
 30
0.0
 11
-567.3352133366424
 21
196.2865610137554
 31
0.0
  0
LINE
  5
F1
330
70
100
AcDbEntity
  8
图层 2
 62
    18
420
        0
370
   120
100
AcDbLine
 10
-504.1562610992117
 20
248.8840028464916
 30
0.0
 11
-504.1563508845179
 21
196.2865526099576
 31
0.0
  0
LINE
  5
F2
330
70
100
AcDbEntity
  8
图层 2
 62
    18
420
        0
370
   120
100
AcDbLine
 10
-440.9773986470876
 20
248.8839944426948
 30
0.0
 11
-440.9774884323972
 21
196.2865442061598
 31
0.0
  0
LINE
  5
F3
330
70
100
AcDbEntity
  8
图层 2
 62
    18
420
        0
370
   120
100
AcDbLine
 10
-377.7985361949665
 20
248.8839860388973
 30
0.0
 11
-377.7986259802766
 21
196.2865358023585
 31
0.0
  0
LINE
  5
F4
330
70
100
AcDbEntity
  8
图层 2
 62
    18
420
        0
370
   120
100
AcDbLine
 10
-630.3132585350888
 20
221.6380999057645
 30
0.0
 11
-251.6426244024613
 21
221.6379475018891
 31
0.0
  0
LINE
  5
F5
330
70
100
AcDbEntity
  8
图层 2
 62
    18
420
        0
370
   120
100
AcDbLine
 10
-630.3132672991365
 20
196.2860615944748
 30
0.0
 11
-251.6426331665147
 21
196.2859091905978
 31
0.0
  0
MTEXT
  5
F6
330
70
100
AcDbEntity
  8
图层 2
100
AcDbMText
 10
-337.7766248176453
 20
203.1053459507428
 30
0.0
 40
0.2
 41
0.0
 46
0.0
 71
     7
 72
     1
  1
\C250;\c1382435;\FNSimSun|b0|i0|c1;\H11.538558;\W1.000010;----
 73
     1
 44
1.0
  0
MTEXT
  5
F7
330
70
100
AcDbEntity
  8
图层 2
100
AcDbMText
 10
-552.4627453694424
 20
230.8345750019702
 30
0.0
 40
0.2
 41
0.0
 46
0.0
 71
     7
 72
     1
  1
\C250;\c1382435;\FNSimSun|b0|i0|c1;\H11.538558;\W1.000010;打样
 73
     1
 44
1.0
  0
MTEXT
  5
F8
330
70
100
AcDbEntity
  8
图层 2
100
AcDbMText
 10
-490.4908174878
 20
230.6347594638257
 30
0.0
 40
0.2
 41
0.0
 46
0.0
 71
     7
 72
     1
  1
\C250;\c1382435;\FNSimSun|b0|i0|c1;\H11.538558;\W1.000010;试产
 73
     1
 44
1.0
  0
MTEXT
  5
F9
330
70
100
AcDbEntity
  8
图层 2
100
AcDbMText
 10
-429.1243651376903
 20
230.4349439256812
 30
0.0
 40
0.2
 41
0.0
 46
0.0
 71
     7
 72
     1
  1
\C250;\c1382435;\FNSimSun|b0|i0|c1;\H11.538558;\W1.000010;受控
 73
     1
 44
1.0
  0
MTEXT
  5
FA
330
70
100
AcDbEntity
  8
图层 2
100
AcDbMText
 10
-615.4396076041323
 20
230.635620737697
 30
0.0
 40
0.2
 41
0.0
 46
0.0
 71
     7
 72
     1
  1
\C250;\c1382435;\FNSimSun|b0|i0|c1;\H11.538558;\W1.000010;询价
 73
     1
 44
1.0
  0
MTEXT
  5
FB
330
70
100
AcDbEntity
  8
图层 2
100
AcDbMText
 10
-369.9701808534337
 20
230.2315110372772
 30
0.0
 40
0.2
 41
0.0
 46
0.0
 71
     7
 72
     1
  1
\C250;\c1382435;\FNSimSun|b0|i0|c1;\H12.820618;\W1.000010;参考重量（g）
 73
     1
 44
1.0
  0
LWPOLYLINE
  5
FC
330
70
100
AcDbEntity
  8
图层 2
 62
    18
420
        0
370
   120
100
AcDbPolyline
 90
        5
 70
     0
 43
0.0
 10
-549.6294496478108
 20
216.2054550032999
 10
-529.5087965424723
 20
216.2054469053246
 10
-529.5088015505163
 20
201.7185540930641
 10
-549.6294546558512
 20
201.7185621910413
 10
-549.6294496478108
 20
216.2054550032999
  0
LWPOLYLINE
  5
FD
330
70
100
AcDbEntity
  8
图层 2
 62
    18
420
        0
370
   120
100
AcDbPolyline
 90
        5
 70
     0
 43
0.0
 10
-482.4264393428721
 20
216.2054550032999
 10
-462.3057862375372
 20
216.205446905323
 10
-462.3057912455704
 20
201.7185540930641
 10
-482.426444350909
 20
201.7185621910413
 10
-482.4264393428721
 20
216.2054550032999
  0
LWPOLYLINE
  5
FE
330
70
100
AcDbEntity
  8
图层 2
 62
    18
420
        0
370
   120
100
AcDbPolyline
 90
        5
 70
     0
 43
0.0
 10
-423.8753673221423
 20
216.2054038338415
 10
-403.7547142168
 20
216.2053957358662
 10
-403.7547192248053
 20
201.7186052625241
 10
-423.8753723301439
 20
201.718613360501
 10
-423.8753673221423
 20
216.2054038338415
  0
HATCH
  5
FF
330
70
100
AcDbEntity
  8
图层 2
 62
   250
420
  2299925
440
 33554687
100
AcDbHatch
 10
0.0
 20
0.0
 30
0.0
210
0.0
220
0.0
230
1.0
  2
SOLID
 70
     1
 71
     1
 91
        1
 92
        3
 72
     0
 73
     1
 93
        5
 10
-423.8753673221423
 20
216.2054038338415
 10
-403.7547142168
 20
216.2053957358662
 10
-403.7547192248053
 20
201.7186052625241
 10
-423.8753723301439
 20
201.718613360501
 10
-423.8753673221423
 20
216.2054038338415
 97
        0
 75
     2
 76
     1
 98
        1
 10
0.0
 20
0.0
450
        0
451
        0
460
0.0
461
0.0
452
        0
462
0.0
453
        0
470

  0
LWPOLYLINE
  5
100
330
70
100
AcDbEntity
  8
图层 2
 62
    18
420
        0
370
   158
100
AcDbPolyline
 90
        5
 70
     0
 43
0.0
 10
684.0401422382325
 20
-643.5696568160773
 10
684.040455316198
 20
248.4185353875715
 10
-630.3124734839363
 20
248.4190563967453
 10
-630.3127865618987
 20
-643.5691358068993
 10
684.0401422382325
 20
-643.5696568160773
  0
INSERT
  5
102
330
70
100
AcDbEntity
  8
图层 2
100
AcDbBlockReference
  2
Block_2
 10
0.0
 20
0.0
 30
0.0
  0
LINE
  5
11F
330
70
100
AcDbEntity
  8
图层 2
 62
   250
420
  2299925
370
   120
100
AcDbLine
 10
232.7258932234148
 20
-595.3349721540891
 30
0.0
 11
684.0400450386871
 21
-595.3351420166491
 31
0.0
  0
MTEXT
  5
120
330
70
100
AcDbEntity
  8
图层 2
100
AcDbMText
 10
524.3774683912953
 20
-613.9858647824844
 30
0.0
 40
0.2
 41
0.0
 46
0.0
 71
     7
 72
     1
  1
\C250;\c1382435;\FNSimSun|b0|i0|c1;\H11.593030;\W1.000010;绘 图:
 73
     1
 44
1.0
  0
LINE
  5
121
330
70
100
AcDbEntity
  8
图层 2
 62
   250
420
  2299925
370
   120
100
AcDbLine
 10
576.4663050483204
 20
-643.5694693660637
 30
0.0
 11
576.4663423102576
 21
-571.2208729114636
 31
0.0
  0
LINE
  5
122
330
70
100
AcDbEntity
  8
图层 2
 62
   250
420
  2299925
370
   120
100
AcDbLine
 10
232.7259079137058
 20
-643.5694791650235
 30
0.0
 11
232.725949615207
 21
-522.9383690053789
 31
0.0
  0
LINE
  5
123
330
70
100
AcDbEntity
  8
图层 2
 62
   250
420
  2299925
370
   120
100
AcDbLine
 10
519.8238256424511
 20
-643.5695651092506
 30
0.0
 11
519.8238629043922
 21
-571.2209686546575
 31
0.0
  0
LINE
  5
124
330
70
100
AcDbEntity
  8
图层 2
 62
   250
420
  2299925
370
   120
100
AcDbLine
 10
576.4662759343888
 20
-547.107118699135
 30
0.0
 11
576.4663346721781
 21
-522.9385583206276
 31
0.0
  0
LINE
  5
125
330
70
100
AcDbEntity
  8
图层 2
 62
   250
420
  2299925
370
   120
100
AcDbLine
 10
519.8238073811493
 20
-547.1071029796608
 30
0.0
 11
519.8238661189426
 21
-522.9385426011567
 31
0.0
  0
LINE
  5
126
330
70
100
AcDbEntity
  8
图层 2
 62
   250
420
  2299925
370
   120
100
AcDbLine
 10
314.7401792922517
 20
-643.5695121733752
 30
0.0
 11
314.7402209937536
 21
-522.9384020137307
 31
0.0
  0
MTEXT
  5
127
330
70
100
AcDbEntity
  8
图层 2
100
AcDbMText
 10
388.967645834002
 20
-613.5435145221784
 30
0.0
 40
0.2
 41
0.0
 46
0.0
 71
     7
 72
     1
  1
\C250;\c1382435;\FNSimSun|b0|i0|c1;\H11.593030;\W1.000010;审 核:
 73
     1
 44
1.0
  0
LINE
  5
128
330
70
100
AcDbEntity
  8
图层 2
 62
   250
420
  2299925
370
   120
100
AcDbLine
 10
386.0142256543834
 20
-643.5695408590979
 30
0.0
 11
386.0142423287988
 21
-595.335014663413
 31
0.0
  0
LINE
  5
129
330
70
100
AcDbEntity
  8
图层 2
 62
   250
420
  2299925
370
   120
100
AcDbLine
 10
442.4143034437142
 20
-643.5695635584814
 30
0.0
 11
442.4143201181226
 21
-595.3350373627895
 31
0.0
  0
MTEXT
  5
12A
330
70
100
AcDbEntity
  8
图层 2
100
AcDbMText
 10
524.3774683912953
 20
-541.6192225479719
 30
0.0
 40
0.2
 41
0.0
 46
0.0
 71
     7
 72
     1
  1
\C250;\c1382435;\FNSimSun|b0|i0|c1;\H11.593030;\W1.000010;类 别:
 73
     1
 44
1.0
  0
MTEXT
  5
12B
330
70
100
AcDbEntity
  8
图层 2
100
AcDbMText
 10
524.3774683912953
 20
-637.1717019077643
 30
0.0
 40
0.2
 41
0.0
 46
0.0
 71
     7
 72
     1
  1
\C250;\c1382435;\FNSimSun|b0|i0|c1;\H11.593030;\W1.000010;日 期:
 73
     1
 44
1.0
  0
LINE
  5
12C
330
70
100
AcDbEntity
  8
图层 2
 62
   250
420
  2299925
370
   120
100
AcDbLine
 10
232.7259235680989
 20
-547.1069791983982
 30
0.0
 11
684.0400753833828
 21
-547.1071490609654
 31
0.0
  0
LINE
  5
12D
330
70
100
AcDbEntity
  8
图层 2
 62
   250
420
  2299925
370
   120
100
AcDbLine
 10
-630.313514307663
 20
-522.9380325150374
 30
0.0
 11
684.0401146363633
 21
-522.9385381436648
 31
0.0
  0
LINE
  5
12E
330
70
100
AcDbEntity
  8
图层 2
 62
   250
420
  2299925
370
   120
100
AcDbLine
 10
43.86672846741897
 20
-643.5694031547193
 30
0.0
 11
43.86677016892313
 21
-522.9382929950676
 31
0.0
  0
MTEXT
  5
12F
330
70
100
AcDbEntity
  8
图层 2
100
AcDbMText
 10
388.966956814905
 20
-637.2957253452333
 30
0.0
 40
0.2
 41
0.0
 46
0.0
 71
     7
 72
     1
  1
\C250;\c1382435;\FNSimSun|b0|i0|c1;\H11.593030;\W1.000010;日 期:
 73
     1
 44
1.0
  0
LINE
  5
130
330
70
100
AcDbEntity
  8
图层 2
 62
   250
420
  2299925
370
   120
100
AcDbLine
 10
684.0404505265024
 20
-571.2211343928607
 30
0.0
 11
232.7259341495017
 21
-571.2209829726334
 31
0.0
  0
MTEXT
  5
131
330
70
100
AcDbEntity
  8
图层 2
100
AcDbMText
 10
237.2328938103037
 20
-541.3508496096709
 30
0.0
 40
0.2
 41
0.0
 46
0.0
 71
     7
 72
     1
  1
\C250;\c1382435;\FNSimSun|b0|i0|c1;\H11.593030;\W1.000010;物料型号:
 73
     1
 44
1.0
  0
LINE
  5
132
330
70
100
AcDbEntity
  8
图层 2
 62
   250
420
  2299925
370
   120
100
AcDbLine
 10
232.7258763860463
 20
-619.4522494939588
 30
0.0
 11
684.0400274184888
 21
-619.4524193565258
 31
0.0
  0
MTEXT
  5
133
330
70
100
AcDbEntity
  8
图层 2
100
AcDbMText
 10
587.1546873426149
 20
-541.8038796659812
 30
0.0
 40
0.2
 41
0.0
 46
0.0
 71
     7
 72
     1
  1
\C250;\c1382435;\FNSimSun|b0|i0|c1;\H10.286773;\W1.000010;15-11纸类
 73
     1
 44
1.0
  0
MTEXT
  5
134
330
70
100
AcDbEntity
  8
图层 2
100
AcDbMText
 10
524.3774683912953
 20
-588.7091992072064
 30
0.0
 40
0.2
 41
0.0
 46
0.0
 71
     7
 72
     1
  1
\C250;\c1382435;\FNSimSun|b0|i0|c1;\H11.593030;\W1.000010;版 次:
 73
     1
 44
1.0
  0
MTEXT
  5
135
330
70
100
AcDbEntity
  8
图层 2
100
AcDbMText
 10
589.5238795078213
 20
-589.0264925013979
 30
0.0
 40
0.2
 41
0.0
 46
0.0
 71
     7
 72
     1
  1
\C250;\c1382435;\FNSimSun|b0|i0|c1;\H11.593030;\W1.000010;1.1
 73
     1
 44
1.0
  0
MTEXT
  5
136
330
70
100
AcDbEntity
  8
图层 2
100
AcDbMText
 10
237.2328938103037
 20
-614.0127365272694
 30
0.0
 40
0.2
 41
0.0
 46
0.0
 71
     7
 72
     1
  1
\C250;\c1382435;\FNSimSun|b0|i0|c1;\H11.593030;\W1.000010;核    准:
 73
     1
 44
1.0
  0
MTEXT
  5
137
330
70
100
AcDbEntity
  8
图层 2
100
AcDbMText
 10
237.2328938103037
 20
-638.2334803363184
 30
0.0
 40
0.2
 41
0.0
 46
0.0
 71
     7
 72
     1
  1
\C250;\c1382435;\FNSimSun|b0|i0|c1;\H11.593030;\W1.000010;日    期:
 73
     1
 44
1.0
  0
MTEXT
  5
138
330
70
100
AcDbEntity
  8
图层 2
100
AcDbMText
 10
237.2328938103037
 20
-589.7940597755115
 30
0.0
 40
0.2
 41
0.0
 46
0.0
 71
     7
 72
     1
  1
\C250;\c1382435;\FNSimSun|b0|i0|c1;\H11.593030;\W1.000010;所属成品:
 73
     1
 44
1.0
  0
LINE
  5
139
330
70
100
AcDbEntity
  8
图层 2
 62
   250
420
  2299925
370
   120
100
AcDbLine
 10
314.7401852151402
 20
-643.5695082807301
 30
0.0
 11
314.7402269166447
 21
-522.9384020137307
 31
0.0
  0
LINE
  5
13A
330
70
100
AcDbEntity
  8
图层 2
 62
   250
420
  2299925
370
   120
100
AcDbLine
 10
386.0142315772752
 20
-643.569536966456
 30
0.0
 11
386.0142482516732
 21
-595.335014663413
 31
0.0
  0
LINE
  5
13B
330
70
100
AcDbEntity
  8
图层 2
 62
   250
420
  2299925
370
   120
100
AcDbLine
 10
43.8667343903117
 20
-643.5693992620708
 30
0.0
 11
43.86677016892313
 21
-522.9382929950676
 31
0.0
  0
LINE
  5
13C
330
70
100
AcDbEntity
  8
图层 2
 62
   250
420
  2299925
370
   120
100
AcDbLine
 10
-494.8096633541044
 20
-643.5692146675108
 30
0.0
 11
-494.8096216525928
 21
-522.9380859201352
 31
0.0
  0
MTEXT
  5
13D
330
70
100
AcDbEntity
  8
图层 2
100
AcDbMText
 10
237.2328938103037
 20
-565.57159341872
 30
0.0
 40
0.2
 41
0.0
 46
0.0
 71
     7
 72
     1
  1
\C250;\c1382435;\FNSimSun|b0|i0|c1;\H11.593030;\W1.000010;物料名称:
 73
     1
 44
1.0
  0
MTEXT
  5
13E
330
70
100
AcDbEntity
  8
图层 2
100
AcDbMText
 10
591.8138344768668
 20
-637.1699793600217
 30
0.0
 40
0.2
 41
0.0
 46
0.0
 71
     7
 72
     1
  1
\C250;\c1382435;\FNSimSun|b0|i0|c1;\H10.286773;\W1.000010;2021/12/09
 73
     1
 44
1.0
  0
MTEXT
  5
13F
330
70
100
AcDbEntity
  8
图层 2
100
AcDbMText
 10
591.8138344768668
 20
-613.5435145221784
 30
0.0
 40
0.2
 41
0.0
 46
0.0
 71
     7
 72
     1
  1
\C250;\c1382435;\FNSimSun|b0|i0|c1;\H10.286773;\W1.000010;卢朝杰
 73
     1
 44
1.0
  0
LWPOLYLINE
  5
140
330
70
100
AcDbEntity
  8
图层 2
 62
    18
420
        0
370
   120
100
AcDbPolyline
 90
        4
 70
     1
 43
0.0
 10
-590.0904878483102
 20
201.4735513207297
 10
-611.2007850062474
 20
201.4735598170081
 10
-611.2007798288206
 20
216.4504577756359
 10
-590.09048267088
 20
216.450449279359
  0
LINE
  5
141
330
70
100
AcDbEntity
  8
图层 2
 62
   250
420
  2299925
370
   120
100
AcDbLine
 10
-494.809660077642
 20
-626.3362028620882
 30
0.0
 11
-630.3135510429422
 21
-626.33614832572
 31
0.0
  0
LINE
  5
142
330
70
100
AcDbEntity
  8
图层 2
 62
   250
420
  2299925
370
   120
100
AcDbLine
 10
-494.8096541202836
 20
-609.103183286266
 30
0.0
 11
-630.3135450855838
 21
-609.103128749908
 31
0.0
  0
LINE
  5
143
330
70
100
AcDbEntity
  8
图层 2
 62
   250
420
  2299925
370
   120
100
AcDbLine
 10
-494.8096481629256
 20
-591.8701637104327
 30
0.0
 11
-630.3135391282289
 21
-591.8701091740715
 31
0.0
  0
LINE
  5
144
330
70
100
AcDbEntity
  8
图层 2
 62
   250
420
  2299925
370
   120
100
AcDbLine
 10
-494.8096422055672
 20
-574.6371441346175
 30
0.0
 11
-630.3135331708706
 21
-574.6370895982602
 31
0.0
  0
LINE
  5
145
330
70
100
AcDbEntity
  8
图层 2
 62
   250
420
  2299925
370
   120
100
AcDbLine
 10
-494.8096362482088
 20
-557.404124558785
 30
0.0
 11
-630.3135272135087
 21
-557.404070022434
 31
0.0
  0
LINE
  5
146
330
70
100
AcDbEntity
  8
图层 2
 62
   250
420
  2299925
370
   120
100
AcDbLine
 10
-494.8096302908504
 20
-540.1711049829627
 30
0.0
 11
-630.3135212561506
 21
-540.1710504466015
 31
0.0
  0
LINE
  5
147
330
70
100
AcDbEntity
  8
图层 2
 62
   250
420
  2299925
370
   120
100
AcDbLine
 10
-535.8931676542627
 20
-643.5692083922961
 30
0.0
 11
-535.8931319101092
 21
-540.1710884480494
 31
0.0
  0
MTEXT
  5
148
330
70
100
AcDbEntity
  8
图层 2
100
AcDbMText
 10
-622.3695894274866
 20
-621.598492276241
 30
0.0
 40
0.2
 41
0.0
 46
0.0
 71
     7
 72
     1
  1
\C250;\c1382435;\FNSimSun|b0|i0|c1;\H8.048114;\W0.953610;＜400～≤1000 
 73
     1
 44
1.0
  0
MTEXT
  5
149
330
70
100
AcDbEntity
  8
图层 2
100
AcDbMText
 10
-597.7517983637626
 20
-552.7582497804302
 30
0.0
 40
0.2
 41
0.0
 46
0.0
 71
     7
 72
     1
  1
\C250;\c1382435;\FNSimSun|b0|i0|c1;\H8.048114;\W0.953610;＜6 
 73
     1
 44
1.0
  0
MTEXT
  5
14A
330
70
100
AcDbEntity
  8
图层 2
100
AcDbMText
 10
-611.1111896364644
 20
-568.8757844986231
 30
0.0
 40
0.2
 41
0.0
 46
0.0
 71
     7
 72
     1
  1
\C250;\c1382435;\FNSimSun|b0|i0|c1;\H8.048114;\W0.953610;＜6～≤30 
 73
     1
 44
1.0
  0
MTEXT
  5
14B
330
70
100
AcDbEntity
  8
图层 2
100
AcDbMText
 10
-617.5853853271202
 20
-587.7101215164839
 30
0.0
 40
0.2
 41
0.0
 46
0.0
 71
     7
 72
     1
  1
\C250;\c1382435;\FNSimSun|b0|i0|c1;\H8.048114;\W0.953610;＜30～≤120 
 73
     1
 44
1.0
  0
MTEXT
  5
14C
330
70
100
AcDbEntity
  8
图层 2
100
AcDbMText
 10
-620.2527505065749
 20
-603.5038172590633
 30
0.0
 40
0.2
 41
0.0
 46
0.0
 71
     7
 72
     1
  1
\C250;\c1382435;\FNSimSun|b0|i0|c1;\H8.048114;\W0.953610;＜120～≤400 
 73
     1
 44
1.0
  0
MTEXT
  5
14D
330
70
100
AcDbEntity
  8
图层 2
100
AcDbMText
 10
-598.730549991122
 20
-535.7325878923255
 30
0.0
 40
0.2
 41
0.0
 46
0.0
 71
     7
 72
     1
  1
\C250;\c1382435;\FNSimSun|b0|i0|c1;\H8.048114;\W0.953610;未注公差范围表 
 73
     1
 44
1.0
  0
MTEXT
  5
14E
330
70
100
AcDbEntity
  8
图层 2
100
AcDbMText
 10
-624.3892766557144
 20
-638.8312044030092
 30
0.0
 40
0.2
 41
0.0
 46
0.0
 71
     7
 72
     1
  1
\C250;\c1382435;\FNSimSun|b0|i0|c1;\H8.048114;\W0.953610;＜1000～≤2000 
 73
     1
 44
1.0
  0
MTEXT
  5
14F
330
70
100
AcDbEntity
  8
图层 2
100
AcDbMText
 10
-529.7292492813759
 20
-552.1643153187731
 30
0.0
 40
0.2
 41
0.0
 46
0.0
 71
     7
 72
     1
  1
\C250;\c1382435;\FNSimSun|b0|i0|c1;\H8.048114;\W0.953610;±0.3
 73
     1
 44
1.0
  0
MTEXT
  5
150
330
70
100
AcDbEntity
  8
图层 2
100
AcDbMText
 10
-531.5718586016617
 20
-620.1601649111491
 30
0.0
 40
0.2
 41
0.0
 46
0.0
 71
     7
 72
     1
  1
\C250;\c1382435;\FNSimSun|b0|i0|c1;\H8.048114;\W0.953610;±2.5
 73
     1
 44
1.0
  0
MTEXT
  5
151
330
70
100
AcDbEntity
  8
图层 2
100
AcDbMText
 10
-531.4359495847686
 20
-568.854080397066
 30
0.0
 40
0.2
 41
0.0
 46
0.0
 71
     7
 72
     1
  1
\C250;\c1382435;\FNSimSun|b0|i0|c1;\H8.048114;\W0.953610;±0.5
 73
     1
 44
1.0
  0
MTEXT
  5
152
330
70
100
AcDbEntity
  8
图层 2
100
AcDbMText
 10
-530.3965642768688
 20
-586.2738612086833
 30
0.0
 40
0.2
 41
0.0
 46
0.0
 71
     7
 72
     1
  1
\C250;\c1382435;\FNSimSun|b0|i0|c1;\H8.048114;\W0.953610;±1.0
 73
     1
 44
1.0
  0
MTEXT
  5
153
330
70
100
AcDbEntity
  8
图层 2
100
AcDbMText
 10
-531.675039211445
 20
-603.9113720549684
 30
0.0
 40
0.2
 41
0.0
 46
0.0
 71
     7
 72
     1
  1
\C250;\c1382435;\FNSimSun|b0|i0|c1;\H8.048114;\W0.953610;±1.5
 73
     1
 44
1.0
  0
MTEXT
  5
154
330
70
100
AcDbEntity
  8
图层 2
100
AcDbMText
 10
-530.9939438340111
 20
-637.4755593295634
 30
0.0
 40
0.2
 41
0.0
 46
0.0
 71
     7
 72
     1
  1
\C250;\c1382435;\FNSimSun|b0|i0|c1;\H8.048114;\W0.953610;±3.0
 73
     1
 44
1.0
  0
LWPOLYLINE
  5
155
330
70
100
AcDbEntity
  8
图层 2
 62
    18
420
        0
370
   158
100
AcDbPolyline
 90
        5
 70
     0
 43
0.0
 10
706.9264230903753
 20
-666.4521112322553
 10
706.9267470713401
 20
271.3009630725439
 10
-653.1987543360789
 20
271.3015108129316
 10
-653.199078317044
 20
-666.4515634918666
 10
706.9264230903753
 20
-666.4521112322553
  0
LINE
  5
156
330
70
100
AcDbEntity
  8
图层 2
 62
    18
420
        0
370
   120
100
AcDbLine
 10
-653.1977317557542
 20
227.459383522062
 30
0.0
 11
-630.313568719677
 21
227.459383522062
 31
0.0
  0
LINE
  5
157
330
70
100
AcDbEntity
  8
图层 2
 62
    18
420
        0
370
   120
100
AcDbLine
 10
-653.1977317557542
 20
85.78115561148845
 30
0.0
 11
-630.313568719677
 21
85.78115561148845
 31
0.0
  0
LINE
  5
158
330
70
100
AcDbEntity
  8
图层 2
 62
    18
420
        0
370
   120
100
AcDbLine
 10
-653.1977317557542
 20
-55.89707229908679
 30
0.0
 11
-630.313568719677
 21
-55.89707229908679
 31
0.0
  0
LINE
  5
159
330
70
100
AcDbEntity
  8
图层 2
 62
    18
420
        0
370
   120
100
AcDbLine
 10
-667.6247095770174
 20
-197.5753002096613
 30
0.0
 11
-653.1977317557542
 21
-197.5753002096613
 31
0.0
  0
LINE
  5
15A
330
70
100
AcDbEntity
  8
图层 2
 62
    18
420
        0
370
   120
100
AcDbLine
 10
26.86383437714982
 20
285.7284896136265
 30
0.0
 11
26.86383437714982
 21
271.3015108129316
 31
0.0
  0
LINE
  5
15B
330
70
100
AcDbEntity
  8
图层 2
 62
    18
420
        0
370
   120
100
AcDbLine
 10
26.86383437714982
 20
-666.4521112322553
 30
0.0
 11
26.86383437714982
 21
-680.8790900329601
 31
0.0
  0
LINE
  5
15C
330
70
100
AcDbEntity
  8
图层 2
 62
    18
420
        0
370
   120
100
AcDbLine
 10
-653.1977317557542
 20
-197.5753002096613
 30
0.0
 11
-630.313568719677
 21
-197.5753002096613
 31
0.0
  0
LINE
  5
15D
330
70
100
AcDbEntity
  8
图层 2
 62
    18
420
        0
370
   120
100
AcDbLine
 10
-653.1977317557542
 20
-339.2535281202389
 30
0.0
 11
-630.313568719677
 21
-339.2535281202389
 31
0.0
  0
LINE
  5
15E
330
70
100
AcDbEntity
  8
图层 2
 62
    18
420
        0
370
   120
100
AcDbLine
 10
-653.1977317557542
 20
-480.9317560308163
 30
0.0
 11
-630.313568719677
 21
-480.9317560308163
 31
0.0
  0
LINE
  5
15F
330
70
100
AcDbEntity
  8
图层 2
 62
    18
420
        0
370
   120
100
AcDbLine
 10
-653.1977317557542
 20
-622.609983941386
 30
0.0
 11
-630.313568719677
 21
-622.609983941386
 31
0.0
  0
LINE
  5
160
330
70
100
AcDbEntity
  8
图层 2
 62
    18
420
        0
370
   120
100
AcDbLine
 10
721.3525239624569
 20
-197.5753002096613
 30
0.0
 11
706.9255461411863
 21
-197.5753002096613
 31
0.0
  0
LWPOLYLINE
  5
161
330
70
100
AcDbEntity
  8
图层 2
 62
    18
420
        0
370
   211
100
AcDbPolyline
 90
        5
 70
     0
 43
0.0
 10
720.8381292224011
 20
-680.8790900329601
 10
720.8384598308825
 20
285.7279250196879
 10
-667.1104604680979
 20
285.7284896136265
 10
-667.1107910765828
 20
-680.8785254390155
 10
720.8381292224011
 20
-680.8790900329601
  0
LINE
  5
162
330
70
100
AcDbEntity
  8
图层 2
 62
    18
420
        0
370
   120
100
AcDbLine
 10
26.86383437714982
 20
271.3015108129316
 30
0.0
 11
26.86383437714982
 21
248.4173462232796
 31
0.0
  0
LINE
  5
163
330
70
100
AcDbEntity
  8
图层 2
 62
    18
420
        0
370
   120
100
AcDbLine
 10
-519.3340086442902
 20
271.3015108129316
 30
0.0
 11
-519.3340086442902
 21
248.4173462232796
 31
0.0
  0
LINE
  5
164
330
70
100
AcDbEntity
  8
图层 2
 62
    18
420
        0
370
   120
100
AcDbLine
 10
-382.7845478889287
 20
271.3015108129316
 30
0.0
 11
-382.7845478889287
 21
248.4173462232796
 31
0.0
  0
LINE
  5
165
330
70
100
AcDbEntity
  8
图层 2
 62
    18
420
        0
370
   120
100
AcDbLine
 10
-246.2350871335707
 20
271.3015108129316
 30
0.0
 11
-246.2350871335707
 21
248.4173462232796
 31
0.0
  0
LINE
  5
166
330
70
100
AcDbEntity
  8
图层 2
 62
    18
420
        0
370
   120
100
AcDbLine
 10
-109.6856263782101
 20
271.3015108129316
 30
0.0
 11
-109.6856263782101
 21
248.4173462232796
 31
0.0
  0
LINE
  5
167
330
70
100
AcDbEntity
  8
图层 2
 62
    18
420
        0
370
   120
100
AcDbLine
 10
596.2781676787844
 20
271.3015108129316
 30
0.0
 11
596.2781676787844
 21
248.4173462232796
 31
0.0
  0
LINE
  5
168
330
70
100
AcDbEntity
  8
图层 2
 62
    18
420
        0
370
   120
100
AcDbLine
 10
169.2174177025576
 20
271.3015108129316
 30
0.0
 11
169.2174177025576
 21
248.4173462232796
 31
0.0
  0
LINE
  5
169
330
70
100
AcDbEntity
  8
图层 2
 62
    18
420
        0
370
   120
100
AcDbLine
 10
311.5710010279676
 20
271.3015108129316
 30
0.0
 11
311.5710010279676
 21
248.4173462232796
 31
0.0
  0
LINE
  5
16A
330
70
100
AcDbEntity
  8
图层 2
 62
    18
420
        0
370
   120
100
AcDbLine
 10
453.9245843533737
 20
271.3015108129316
 30
0.0
 11
453.9245843533737
 21
248.4173462232796
 31
0.0
  0
MTEXT
  5
16B
330
70
100
AcDbEntity
  8
图层 2
100
AcDbMText
 10
-591.8965140770319
 20
253.4850442888423
 30
0.0
 40
0.2
 41
0.0
 46
0.0
 71
     7
 72
     1
  1
\C250;\c1382435;\FAdobe Song Std L|b0|i0|c1;\H14.413515;\W0.999990;1
 73
     1
 44
1.0
  0
MTEXT
  5
16C
330
70
100
AcDbEntity
  8
图层 2
100
AcDbMText
 10
-456.1761161617432
 20
253.4850442888423
 30
0.0
 40
0.2
 41
0.0
 46
0.0
 71
     7
 72
     1
  1
\C250;\c1382435;\FAdobe Song Std L|b0|i0|c1;\H14.413515;\W0.999990;2
 73
     1
 44
1.0
  0
MTEXT
  5
16D
330
70
100
AcDbEntity
  8
图层 2
100
AcDbMText
 10
-320.4560627560032
 20
253.4840107601967
 30
0.0
 40
0.2
 41
0.0
 46
0.0
 71
     7
 72
     1
  1
\C250;\c1382435;\FAdobe Song Std L|b0|i0|c1;\H14.413515;\W0.999990;3
 73
     1
 44
1.0
  0
MTEXT
  5
16E
330
70
100
AcDbEntity
  8
图层 2
100
AcDbMText
 10
-184.734631312069
 20
253.4850442888423
 30
0.0
 40
0.2
 41
0.0
 46
0.0
 71
     7
 72
     1
  1
\C250;\c1382435;\FAdobe Song Std L|b0|i0|c1;\H14.413515;\W0.999990;4
 73
     1
 44
1.0
  0
MTEXT
  5
16F
330
70
100
AcDbEntity
  8
图层 2
100
AcDbMText
 10
-49.01423339678032
 20
253.4840107601967
 30
0.0
 40
0.2
 41
0.0
 46
0.0
 71
     7
 72
     1
  1
\C250;\c1382435;\FAdobe Song Std L|b0|i0|c1;\H14.413515;\W0.999990;5
 73
     1
 44
1.0
  0
MTEXT
  5
170
330
70
100
AcDbEntity
  8
图层 2
100
AcDbMText
 10
93.34210744219657
 20
253.4840107601967
 30
0.0
 40
0.2
 41
0.0
 46
0.0
 71
     7
 72
     1
  1
\C250;\c1382435;\FAdobe Song Std L|b0|i0|c1;\H14.413515;\W0.999990;6
 73
     1
 44
1.0
  0
MTEXT
  5
171
330
70
100
AcDbEntity
  8
图层 2
100
AcDbMText
 10
229.0618163383882
 20
253.4840107601967
 30
0.0
 40
0.2
 41
0.0
 46
0.0
 71
     7
 72
     1
  1
\C250;\c1382435;\FAdobe Song Std L|b0|i0|c1;\H14.413515;\W0.999990;7
 73
     1
 44
1.0
  0
MTEXT
  5
172
330
70
100
AcDbEntity
  8
图层 2
100
AcDbMText
 10
364.7830755275482
 20
253.4850442888423
 30
0.0
 40
0.2
 41
0.0
 46
0.0
 71
     7
 72
     1
  1
\C250;\c1382435;\FAdobe Song Std L|b0|i0|c1;\H14.413515;\W0.999990;8
 73
     1
 44
1.0
  0
MTEXT
  5
173
330
70
100
AcDbEntity
  8
图层 2
100
AcDbMText
 10
500.503645697611
 20
253.4850442888423
 30
0.0
 40
0.2
 41
0.0
 46
0.0
 71
     7
 72
     1
  1
\C250;\c1382435;\FAdobe Song Std L|b0|i0|c1;\H14.413515;\W0.999990;9
 73
     1
 44
1.0
  0
MTEXT
  5
174
330
70
100
AcDbEntity
  8
图层 2
100
AcDbMText
 10
631.5220050398565
 20
253.4850442888423
 30
0.0
 40
0.2
 41
0.0
 46
0.0
 71
     7
 72
     1
  1
\C250;\c1382435;\FAdobe Song Std L|b0|i0|c1;\H14.413515;\W0.999990;10
 73
     1
 44
1.0
  0
LINE
  5
175
330
70
100
AcDbEntity
  8
图层 2
 62
    18
420
        0
370
   120
100
AcDbLine
 10
26.86383437714982
 20
-643.5692083922961
 30
0.0
 11
26.86383437714982
 21
-666.4533729819535
 31
0.0
  0
LINE
  5
176
330
70
100
AcDbEntity
  8
图层 2
 62
    18
420
        0
370
   120
100
AcDbLine
 10
-519.3340086442902
 20
-643.5692083922961
 30
0.0
 11
-519.3340086442902
 21
-666.4533729819535
 31
0.0
  0
LINE
  5
177
330
70
100
AcDbEntity
  8
图层 2
 62
    18
420
        0
370
   120
100
AcDbLine
 10
-382.7845478889287
 20
-643.5692083922961
 30
0.0
 11
-382.7845478889287
 21
-666.4533729819535
 31
0.0
  0
LINE
  5
178
330
70
100
AcDbEntity
  8
图层 2
 62
    18
420
        0
370
   120
100
AcDbLine
 10
-246.2350871335707
 20
-643.5692083922961
 30
0.0
 11
-246.2350871335707
 21
-666.4533729819535
 31
0.0
  0
LINE
  5
179
330
70
100
AcDbEntity
  8
图层 2
 62
    18
420
        0
370
   120
100
AcDbLine
 10
-109.6856263782101
 20
-643.5692083922961
 30
0.0
 11
-109.6856263782101
 21
-666.4533729819535
 31
0.0
  0
LINE
  5
17A
330
70
100
AcDbEntity
  8
图层 2
 62
    18
420
        0
370
   120
100
AcDbLine
 10
596.2781676787844
 20
-643.5692083922961
 30
0.0
 11
596.2781676787844
 21
-666.4533729819535
 31
0.0
  0
LINE
  5
17B
330
70
100
AcDbEntity
  8
图层 2
 62
    18
420
        0
370
   120
100
AcDbLine
 10
169.2174177025576
 20
-643.5692083922961
 30
0.0
 11
169.2174177025576
 21
-666.4533729819535
 31
0.0
  0
LINE
  5
17C
330
70
100
AcDbEntity
  8
图层 2
 62
    18
420
        0
370
   120
100
AcDbLine
 10
311.5710010279676
 20
-643.5692083922961
 30
0.0
 11
311.5710010279676
 21
-666.4533729819535
 31
0.0
  0
LINE
  5
17D
330
70
100
AcDbEntity
  8
图层 2
 62
    18
420
        0
370
   120
100
AcDbLine
 10
453.9245843533737
 20
-643.5692083922961
 30
0.0
 11
453.9245843533737
 21
-666.4533729819535
 31
0.0
  0
MTEXT
  5
17E
330
70
100
AcDbEntity
  8
图层 2
100
AcDbMText
 10
-591.8965140770319
 20
-661.3848665067458
 30
0.0
 40
0.2
 41
0.0
 46
0.0
 71
     7
 72
     1
  1
\C250;\c1382435;\FAdobe Song Std L|b0|i0|c1;\H14.413515;\W0.999990;1
 73
     1
 44
1.0
  0
MTEXT
  5
17F
330
70
100
AcDbEntity
  8
图层 2
100
AcDbMText
 10
-456.1761161617432
 20
-661.3848665067458
 30
0.0
 40
0.2
 41
0.0
 46
0.0
 71
     7
 72
     1
  1
\C250;\c1382435;\FAdobe Song Std L|b0|i0|c1;\H14.413515;\W0.999990;2
 73
     1
 44
1.0
  0
MTEXT
  5
180
330
70
100
AcDbEntity
  8
图层 2
100
AcDbMText
 10
-320.4560627560032
 20
-661.3855555258428
 30
0.0
 40
0.2
 41
0.0
 46
0.0
 71
     7
 72
     1
  1
\C250;\c1382435;\FAdobe Song Std L|b0|i0|c1;\H14.413515;\W0.999990;3
 73
     1
 44
1.0
  0
MTEXT
  5
181
330
70
100
AcDbEntity
  8
图层 2
100
AcDbMText
 10
-184.734631312069
 20
-661.3848665067458
 30
0.0
 40
0.2
 41
0.0
 46
0.0
 71
     7
 72
     1
  1
\C250;\c1382435;\FAdobe Song Std L|b0|i0|c1;\H14.413515;\W0.999990;4
 73
     1
 44
1.0
  0
MTEXT
  5
182
330
70
100
AcDbEntity
  8
图层 2
100
AcDbMText
 10
-49.01423339678032
 20
-661.3855555258428
 30
0.0
 40
0.2
 41
0.0
 46
0.0
 71
     7
 72
     1
  1
\C250;\c1382435;\FAdobe Song Std L|b0|i0|c1;\H14.413515;\W0.999990;5
 73
     1
 44
1.0
  0
MTEXT
  5
183
330
70
100
AcDbEntity
  8
图层 2
100
AcDbMText
 10
93.34210744219657
 20
-661.3855555258428
 30
0.0
 40
0.2
 41
0.0
 46
0.0
 71
     7
 72
     1
  1
\C250;\c1382435;\FAdobe Song Std L|b0|i0|c1;\H14.413515;\W0.999990;6
 73
     1
 44
1.0
  0
MTEXT
  5
184
330
70
100
AcDbEntity
  8
图层 2
100
AcDbMText
 10
229.0618163383882
 20
-661.3855555258428
 30
0.0
 40
0.2
 41
0.0
 46
0.0
 71
     7
 72
     1
  1
\C250;\c1382435;\FAdobe Song Std L|b0|i0|c1;\H14.413515;\W0.999990;7
 73
     1
 44
1.0
  0
MTEXT
  5
185
330
70
100
AcDbEntity
  8
图层 2
100
AcDbMText
 10
364.7830755275482
 20
-661.3848665067458
 30
0.0
 40
0.2
 41
0.0
 46
0.0
 71
     7
 72
     1
  1
\C250;\c1382435;\FAdobe Song Std L|b0|i0|c1;\H14.413515;\W0.999990;8
 73
     1
 44
1.0
  0
MTEXT
  5
186
330
70
100
AcDbEntity
  8
图层 2
100
AcDbMText
 10
500.503645697611
 20
-661.3848665067458
 30
0.0
 40
0.2
 41
0.0
 46
0.0
 71
     7
 72
     1
  1
\C250;\c1382435;\FAdobe Song Std L|b0|i0|c1;\H14.413515;\W0.999990;9
 73
     1
 44
1.0
  0
MTEXT
  5
187
330
70
100
AcDbEntity
  8
图层 2
100
AcDbMText
 10
631.5220050398565
 20
-661.3848665067458
 30
0.0
 40
0.2
 41
0.0
 46
0.0
 71
     7
 72
     1
  1
\C250;\c1382435;\FAdobe Song Std L|b0|i0|c1;\H14.413515;\W0.999990;10
 73
     1
 44
1.0
  0
MTEXT
  5
188
330
70
100
AcDbEntity
  8
图层 2
100
AcDbMText
 10
-648.7150958770635
 20
150.2458678823604
 30
0.0
 40
0.2
 41
0.0
 46
0.0
 71
     7
 72
     1
  1
\C250;\c1382435;\FAdobe Song Std L|b0|i0|c1;\H14.413515;\W0.999990;A
 73
     1
 44
1.0
  0
MTEXT
  5
189
330
70
100
AcDbEntity
  8
图层 2
100
AcDbMText
 10
-647.4543631842363
 20
8.568038599203477
 30
0.0
 40
0.2
 41
0.0
 46
0.0
 71
     7
 72
     1
  1
\C250;\c1382435;\FAdobe Song Std L|b0|i0|c1;\H14.413515;\W0.999990;B
 73
     1
 44
1.0
  0
MTEXT
  5
18A
330
70
100
AcDbEntity
  8
图层 2
100
AcDbMText
 10
-648.8270614803341
 20
-133.1109964673733
 30
0.0
 40
0.2
 41
0.0
 46
0.0
 71
     7
 72
     1
  1
\C250;\c1382435;\FAdobe Song Std L|b0|i0|c1;\H14.413515;\W0.999990;C
 73
     1
 44
1.0
  0
MTEXT
  5
18B
330
70
100
AcDbEntity
  8
图层 2
100
AcDbMText
 10
-649.2750961481909
 20
-274.7872754575618
 30
0.0
 40
0.2
 41
0.0
 46
0.0
 71
     7
 72
     1
  1
\C250;\c1382435;\FAdobe Song Std L|b0|i0|c1;\H14.413515;\W0.999990;D
 73
     1
 44
1.0
  0
MTEXT
  5
18C
330
70
100
AcDbEntity
  8
图层 2
100
AcDbMText
 10
-647.4848522792807
 20
-416.4651047407188
 30
0.0
 40
0.2
 41
0.0
 46
0.0
 71
     7
 72
     1
  1
\C250;\c1382435;\FAdobe Song Std L|b0|i0|c1;\H14.413515;\W0.999990;E
 73
     1
 44
1.0
  0
MTEXT
  5
18D
330
70
100
AcDbEntity
  8
图层 2
100
AcDbMText
 10
-646.9558578675206
 20
-558.1446565716183
 30
0.0
 40
0.2
 41
0.0
 46
0.0
 71
     7
 72
     1
  1
\C250;\c1382435;\FAdobe Song Std L|b0|i0|c1;\H14.413515;\W0.999990;F
 73
     1
 44
1.0
  0
LINE
  5
18E
330
70
100
AcDbEntity
  8
图层 2
 62
    18
420
        0
370
   120
100
AcDbLine
 10
683.6591300937095
 20
227.459383522062
 30
0.0
 11
706.5432931297866
 21
227.459383522062
 31
0.0
  0
LINE
  5
18F
330
70
100
AcDbEntity
  8
图层 2
 62
    18
420
        0
370
   120
100
AcDbLine
 10
683.6591300937095
 20
85.78115561148845
 30
0.0
 11
706.5432931297866
 21
85.78115561148845
 31
0.0
  0
LINE
  5
190
330
70
100
AcDbEntity
  8
图层 2
 62
    18
420
        0
370
   120
100
AcDbLine
 10
683.6591300937095
 20
-55.89707229908775
 30
0.0
 11
706.5432931297866
 21
-55.89707229908775
 31
0.0
  0
LINE
  5
191
330
70
100
AcDbEntity
  8
图层 2
 62
    18
420
        0
370
   120
100
AcDbLine
 10
683.6591300937095
 20
-197.5753002096613
 30
0.0
 11
706.5432931297866
 21
-197.5753002096613
 31
0.0
  0
LINE
  5
192
330
70
100
AcDbEntity
  8
图层 2
 62
    18
420
        0
370
   120
100
AcDbLine
 10
683.6591300937095
 20
-339.2535281202395
 30
0.0
 11
706.5432931297866
 21
-339.2535281202395
 31
0.0
  0
LINE
  5
193
330
70
100
AcDbEntity
  8
图层 2
 62
    18
420
        0
370
   120
100
AcDbLine
 10
683.6591300937095
 20
-480.9317560308163
 30
0.0
 11
706.5432931297866
 21
-480.9317560308163
 31
0.0
  0
LINE
  5
194
330
70
100
AcDbEntity
  8
图层 2
 62
    18
420
        0
370
   120
100
AcDbLine
 10
683.6591300937095
 20
-622.609983941386
 30
0.0
 11
706.5432931297866
 21
-622.609983941386
 31
0.0
  0
MTEXT
  5
195
330
70
100
AcDbEntity
  8
图层 2
100
AcDbMText
 10
688.1404267921949
 20
150.2458678823604
 30
0.0
 40
0.2
 41
0.0
 46
0.0
 71
     7
 72
     1
  1
\C250;\c1382435;\FAdobe Song Std L|b0|i0|c1;\H14.413515;\W0.999990;A
 73
     1
 44
1.0
  0
MTEXT
  5
196
330
70
100
AcDbEntity
  8
图层 2
100
AcDbMText
 10
689.4061548734757
 20
8.568038599203477
 30
0.0
 40
0.2
 41
0.0
 46
0.0
 71
     7
 72
     1
  1
\C250;\c1382435;\FAdobe Song Std L|b0|i0|c1;\H14.413515;\W0.999990;B
 73
     1
 44
1.0
  0
MTEXT
  5
197
330
70
100
AcDbEntity
  8
图层 2
100
AcDbMText
 10
688.0274276602786
 20
-133.1109964673733
 30
0.0
 40
0.2
 41
0.0
 46
0.0
 71
     7
 72
     1
  1
\C250;\c1382435;\FAdobe Song Std L|b0|i0|c1;\H14.413515;\W0.999990;C
 73
     1
 44
1.0
  0
MTEXT
  5
198
330
70
100
AcDbEntity
  8
图层 2
100
AcDbMText
 10
687.5802542662933
 20
-274.7872754575618
 30
0.0
 40
0.2
 41
0.0
 46
0.0
 71
     7
 72
     1
  1
\C250;\c1382435;\FAdobe Song Std L|b0|i0|c1;\H14.413515;\W0.999990;D
 73
     1
 44
1.0
  0
MTEXT
  5
199
330
70
100
AcDbEntity
  8
图层 2
100
AcDbMText
 10
689.3734264663658
 20
-416.4651047407188
 30
0.0
 40
0.2
 41
0.0
 46
0.0
 71
     7
 72
     1
  1
\C250;\c1382435;\FAdobe Song Std L|b0|i0|c1;\H14.413515;\W0.999990;E
 73
     1
 44
1.0
  0
MTEXT
  5
19A
330
70
100
AcDbEntity
  8
图层 2
100
AcDbMText
 10
689.9025931329003
 20
-558.1446565716183
 30
0.0
 40
0.2
 41
0.0
 46
0.0
 71
     7
 72
     1
  1
\C250;\c1382435;\FAdobe Song Std L|b0|i0|c1;\H14.413515;\W0.999990;F
 73
     1
 44
1.0
  0
LINE
  5
19B
330
70
100
AcDbEntity
  8
图层 2
 62
    18
420
        0
370
   120
100
AcDbLine
 10
3.608559033482594
 20
247.3928080008582
 30
0.0
 11
3.608566286770791
 21
196.2864463782875
 31
0.0
  0
ENDSEC
  0
SECTION
  2
OBJECTS
  0
DICTIONARY
  5
C
330
0
100
AcDbDictionary
281
     1
  3
ACAD_COLOR
350
63
  3
ACAD_DETAILVIEWSTYLE
350
6A
  3
ACAD_GROUP
350
D
  3
ACAD_LAYOUT
350
62
  3
ACAD_MATERIAL
350
10
  3
ACAD_MLEADERSTYLE
350
66
  3
ACAD_MLINESTYLE
350
5F
  3
ACAD_PLOTSETTINGS
350
61
  3
ACAD_PLOTSTYLENAME
350
E
  3
ACAD_SCALELIST
350
42
  3
ACAD_SECTIONVIEWSTYLE
350
68
  3
ACAD_TABLESTYLE
350
64
  3
ACAD_VISUALSTYLE
350
29
  3
ACDB_RECOMPOSE_DATA
350
1A4
  3
AcDbVariableDictionary
350
19C
  0
DICTIONARY
  5
63
102
{ACAD_REACTORS
330
C
102
}
330
C
100
AcDbDictionary
281
     1
  0
DICTIONARY
  5
6A
102
{ACAD_REACTORS
330
C
102
}
330
C
100
AcDbDictionary
281
     1
  3
Imperial24
350
6B
  0
DICTIONARY
  5
D
102
{ACAD_REACTORS
330
C
102
}
330
C
100
AcDbDictionary
281
     1
  0
DICTIONARY
  5
62
102
{ACAD_REACTORS
330
C
102
}
330
C
100
AcDbDictionary
281
     1
  3
Layout1
350
6F
  3
Layout2
350
77
  3
Model
350
73
  0
DICTIONARY
  5
10
102
{ACAD_REACTORS
330
C
102
}
330
C
100
AcDbDictionary
281
     1
  3
ByBlock
350
19
  3
ByLayer
350
11
  3
Global
350
21
  0
DICTIONARY
  5
66
102
{ACAD_REACTORS
330
C
102
}
330
C
100
AcDbDictionary
281
     1
  3
Standard
350
67
  0
DICTIONARY
  5
5F
102
{ACAD_REACTORS
330
C
102
}
330
C
100
AcDbDictionary
281
     1
  3
Standard
350
60
  0
DICTIONARY
  5
61
102
{ACAD_REACTORS
330
C
102
}
330
C
100
AcDbDictionary
281
     1
  0
ACDBDICTIONARYWDFLT
  5
E
102
{ACAD_REACTORS
330
C
102
}
330
C
100
AcDbDictionary
281
     1
  3
Normal
350
F
100
AcDbDictionaryWithDefault
340
F
  0
DICTIONARY
  5
42
102
{ACAD_REACTORS
330
C
102
}
330
C
100
AcDbDictionary
281
     1
  3
A0
350
43
  3
A1
350
44
  3
A2
350
45
  3
A3
350
46
  3
A4
350
47
  3
A5
350
48
  3
A6
350
49
  3
A7
350
4A
  3
A8
350
4B
  3
A9
350
4C
  3
B0
350
4D
  3
B1
350
4E
  3
B2
350
4F
  3
B3
350
50
  3
B4
350
51
  3
B5
350
52
  3
B6
350
53
  0
DICTIONARY
  5
68
102
{ACAD_REACTORS
330
C
102
}
330
C
100
AcDbDictionary
281
     1
  3
Imperial24
350
69
  0
DICTIONARY
  5
64
102
{ACAD_REACTORS
330
C
102
}
330
C
100
AcDbDictionary
281
     1
  3
Standard
350
65
  0
DICTIONARY
  5
29
102
{ACAD_REACTORS
330
C
102
}
330
C
100
AcDbDictionary
281
     1
  3
2dWireframe
350
2F
  3
Basic
350
2E
  3
Brighten
350
35
  3
ColorChange
350
39
  3
Conceptual
350
32
  3
Dim
350
34
  3
EdgeColorOff
350
41
  3
Facepattern
350
38
  3
Flat
350
2A
  3
FlatWithEdges
350
2B
  3
Gouraud
350
2C
  3
GouraudWithEdges
350
2D
  3
Hidden
350
31
  3
JitterOff
350
3F
  3
Linepattern
350
37
  3
OverhangOff
350
40
  3
Realistic
350
33
  3
Shaded
350
3E
  3
Shaded with edges
350
3D
  3
Shades of Gray
350
3A
  3
Sketchy
350
3B
  3
Thicken
350
36
  3
Wireframe
350
30
  3
X-Ray
350
3C
  0
XRECORD
  5
1A4
102
{ACAD_REACTORS
330
C
102
}
330
C
100
AcDbXrecord
280
     1
 90
        1
330
65
  0
DICTIONARY
  5
19C
102
{ACAD_REACTORS
330
C
102
}
330
C
100
AcDbDictionary
281
     1
  3
CANNOSCALE
350
1A1
  3
CMLEADERSTYLE
350
19E
  3
CTABLESTYLE
350
19D
  3
CVIEWDETAILSTYLE
350
19F
  3
CVIEWSECTIONSTYLE
350
1A0
  0
ACDBDETAILVIEWSTYLE
  5
6B
102
{ACAD_REACTORS
330
6A
102
}
330
6A
100
AcDbModelDocViewStyle
 70
     0
  3
Imperial24
290
     1
300
Imperial24
 90
        0
100
AcDbDetailViewStyle
 70
     0
 71
     0
 90
        3
 71
     1
340
55
 62
   256
 40
0.24
340
0
 62
   256
 40
0.24
300

 40
0.36
280
     3
 71
     2
340
5D
 90
       25
 62
   256
 71
     3
340
55
 62
   256
 40
0.24
 90
        1
 40
0.75
 90
        1
300
%<\AcVar ViewType \f "%tc1">% %<\AcVar ViewDetailId>%\PSCALE %<\AcVar ViewScale \f "%sn">%
 71
     4
340
5D
 90
       25
 62
   256
340
5D
 90
       25
 62
   256
280
     0
  0
LAYOUT
  5
6F
102
{ACAD_REACTORS
330
62
102
}
330
62
100
AcDbPlotSettings
  1

  2

  4

  6

 40
0.0
 41
0.0
 42
0.0
 43
0.0
 44
0.0
 45
0.0
 46
0.0
 47
0.0
 48
0.0
 49
0.0
140
0.0
141
0.0
142
1.0
143
1.0
 70
   688
 72
     0
 73
     0
 74
     5
  7

 75
    16
147
1.0
 76
     0
 77
     2
 78
   300
148
0.0
149
0.0
100
AcDbLayout
  1
Layout1
 70
     1
 71
     1
 10
0.0
 20
0.0
 11
12.0
 21
9.0
 12
0.0
 22
0.0
 32
0.0
 14
0.0
 24
0.0
 34
0.0
 15
0.0
 25
0.0
 35
0.0
146
0.0
 13
0.0
 23
0.0
 33
0.0
 16
1.0
 26
0.0
 36
0.0
 17
0.0
 27
1.0
 37
0.0
 76
     0
330
6C
  0
LAYOUT
  5
77
102
{ACAD_REACTORS
330
62
102
}
330
62
100
AcDbPlotSettings
  1

  2

  4

  6

 40
0.0
 41
0.0
 42
0.0
 43
0.0
 44
0.0
 45
0.0
 46
0.0
 47
0.0
 48
0.0
 49
0.0
140
0.0
141
0.0
142
1.0
143
1.0
 70
   688
 72
     0
 73
     0
 74
     5
  7

 75
    16
147
1.0
 76
     0
 77
     2
 78
   300
148
0.0
149
0.0
100
AcDbLayout
  1
Layout2
 70
     1
 71
     2
 10
0.0
 20
0.0
 11
12.0
 21
9.0
 12
0.0
 22
0.0
 32
0.0
 14
0.0
 24
0.0
 34
0.0
 15
0.0
 25
0.0
 35
0.0
146
0.0
 13
0.0
 23
0.0
 33
0.0
 16
1.0
 26
0.0
 36
0.0
 17
0.0
 27
1.0
 37
0.0
 76
     0
330
74
  0
LAYOUT
  5
73
102
{ACAD_REACTORS
330
62
102
}
330
62
100
AcDbPlotSettings
  1

  2

  4

  6

 40
0.0
 41
0.0
 42
0.0
 43
0.0
 44
0.0
 45
0.0
 46
0.0
 47
0.0
 48
0.0
 49
0.0
140
0.0
141
0.0
142
1.0
143
1.0
 70
  1712
 72
     0
 73
     0
 74
     0
  7

 75
     0
147
1.0
 76
     0
 77
     2
 78
   300
148
0.0
149
0.0
100
AcDbLayout
  1
Model
 70
     1
 71
     0
 10
0.0
 20
0.0
 11
12.0
 21
9.0
 12
0.0
 22
0.0
 32
0.0
 14
0.0
 24
0.0
 34
0.0
 15
0.0
 25
0.0
 35
0.0
146
0.0
 13
0.0
 23
0.0
 33
0.0
 16
1.0
 26
0.0
 36
0.0
 17
0.0
 27
1.0
 37
0.0
 76
     0
330
70
  0
MATERIAL
  5
19
102
{ACAD_XDICTIONARY
360
1A
102
}
102
{ACAD_REACTORS
330
10
102
}
330
10
100
AcDbMaterial
  1
ByBlock
 72
     0
 43
0.0208333333333333
 43
0.0
 43
0.0
 43
0.0
 43
0.0
 43
0.0208333333333333
 43
0.0
 43
0.0
 43
0.0
 43
0.0
 43
1.0
 43
0.0
 43
0.0
 43
0.0
 43
0.0
 43
1.0
 77
     0
 47
0.0208333333333333
 47
0.0
 47
0.0
 47
0.0
 47
0.0
 47
0.0208333333333333
 47
0.0
 47
0.0
 47
0.0
 47
0.0
 47
1.0
 47
0.0
 47
0.0
 47
0.0
 47
0.0
 47
1.0
171
     0
 49
0.0208333333333333
 49
0.0
 49
0.0
 49
0.0
 49
0.0
 49
0.0208333333333333
 49
0.0
 49
0.0
 49
0.0
 49
0.0
 49
1.0
 49
0.0
 49
0.0
 49
0.0
 49
0.0
 49
1.0
175
     0
142
0.0208333333333333
142
0.0
142
0.0
142
0.0
142
0.0
142
0.0208333333333333
142
0.0
142
0.0
142
0.0
142
0.0
142
1.0
142
0.0
142
0.0
142
0.0
142
0.0
142
1.0
179
     0
144
0.0208333333333333
144
0.0
144
0.0
144
0.0
144
0.0
144
0.0208333333333333
144
0.0
144
0.0
144
0.0
144
0.0
144
1.0
144
0.0
144
0.0
144
0.0
144
0.0
144
1.0
147
0.0208333333333333
147
0.0
147
0.0
147
0.0
147
0.0
147
0.0208333333333333
147
0.0
147
0.0
147
0.0
147
0.0
147
1.0
147
0.0
147
0.0
147
0.0
147
0.0
147
1.0
  0
MATERIAL
  5
11
102
{ACAD_XDICTIONARY
360
12
102
}
102
{ACAD_REACTORS
330
10
102
}
330
10
100
AcDbMaterial
  1
ByLayer
 72
     0
 43
0.0208333333333333
 43
0.0
 43
0.0
 43
0.0
 43
0.0
 43
0.0208333333333333
 43
0.0
 43
0.0
 43
0.0
 43
0.0
 43
1.0
 43
0.0
 43
0.0
 43
0.0
 43
0.0
 43
1.0
 77
     0
 47
0.0208333333333333
 47
0.0
 47
0.0
 47
0.0
 47
0.0
 47
0.0208333333333333
 47
0.0
 47
0.0
 47
0.0
 47
0.0
 47
1.0
 47
0.0
 47
0.0
 47
0.0
 47
0.0
 47
1.0
171
     0
 49
0.0208333333333333
 49
0.0
 49
0.0
 49
0.0
 49
0.0
 49
0.0208333333333333
 49
0.0
 49
0.0
 49
0.0
 49
0.0
 49
1.0
 49
0.0
 49
0.0
 49
0.0
 49
0.0
 49
1.0
175
     0
142
0.0208333333333333
142
0.0
142
0.0
142
0.0
142
0.0
142
0.0208333333333333
142
0.0
142
0.0
142
0.0
142
0.0
142
1.0
142
0.0
142
0.0
142
0.0
142
0.0
142
1.0
179
     0
144
0.0208333333333333
144
0.0
144
0.0
144
0.0
144
0.0
144
0.0208333333333333
144
0.0
144
0.0
144
0.0
144
0.0
144
1.0
144
0.0
144
0.0
144
0.0
144
0.0
144
1.0
147
0.0208333333333333
147
0.0
147
0.0
147
0.0
147
0.0
147
0.0208333333333333
147
0.0
147
0.0
147
0.0
147
0.0
147
1.0
147
0.0
147
0.0
147
0.0
147
0.0
147
1.0
  0
MATERIAL
  5
21
102
{ACAD_XDICTIONARY
360
22
102
}
102
{ACAD_REACTORS
330
10
102
}
330
10
100
AcDbMaterial
  1
Global
 72
     0
 43
0.0208333333333333
 43
0.0
 43
0.0
 43
0.0
 43
0.0
 43
0.0208333333333333
 43
0.0
 43
0.0
 43
0.0
 43
0.0
 43
1.0
 43
0.0
 43
0.0
 43
0.0
 43
0.0
 43
1.0
 77
     0
 47
0.0208333333333333
 47
0.0
 47
0.0
 47
0.0
 47
0.0
 47
0.0208333333333333
 47
0.0
 47
0.0
 47
0.0
 47
0.0
 47
1.0
 47
0.0
 47
0.0
 47
0.0
 47
0.0
 47
1.0
171
     0
 49
0.0208333333333333
 49
0.0
 49
0.0
 49
0.0
 49
0.0
 49
0.0208333333333333
 49
0.0
 49
0.0
 49
0.0
 49
0.0
 49
1.0
 49
0.0
 49
0.0
 49
0.0
 49
0.0
 49
1.0
175
     0
142
0.0208333333333333
142
0.0
142
0.0
142
0.0
142
0.0
142
0.0208333333333333
142
0.0
142
0.0
142
0.0
142
0.0
142
1.0
142
0.0
142
0.0
142
0.0
142
0.0
142
1.0
179
     0
144
0.0208333333333333
144
0.0
144
0.0
144
0.0
144
0.0
144
0.0208333333333333
144
0.0
144
0.0
144
0.0
144
0.0
144
1.0
144
0.0
144
0.0
144
0.0
144
0.0
144
1.0
147
0.0208333333333333
147
0.0
147
0.0
147
0.0
147
0.0
147
0.0208333333333333
147
0.0
147
0.0
147
0.0
147
0.0
147
1.0
147
0.0
147
0.0
147
0.0
147
0.0
147
1.0
  0
MLEADERSTYLE
  5
67
102
{ACAD_REACTORS
330
66
102
}
330
66
100
AcDbMLeaderStyle
179
     2
170
     2
171
     1
172
     0
 90
        2
 40
0.0
 41
0.0
173
     1
 91
-1056964608
340
5B
 92
       -2
290
     1
 42
0.09
291
     1
 43
0.36
  3
Standard
 44
0.18
300

342
55
174
     1
178
     6
175
     1
176
     0
 93
-1056964608
 45
0.18
292
     0
297
     0
 46
0.18
 94
-1056964608
 47
1.0
 49
1.0
140
1.0
293
     1
141
0.0
294
     1
177
     0
142
1.0
295
     1
296
     0
143
0.125
271
     0
272
     9
273
     9
298
     1
  0
MLINESTYLE
  5
60
102
{ACAD_REACTORS
330
5F
102
}
330
5F
100
AcDbMlineStyle
  2
STANDARD
 70
     0
  3

 62
   256
 51
90.0
 52
90.0
 71
     2
 49
0.5
 62
   256
  6
BYLAYER
 49
-0.5
 62
   256
  6
BYLAYER
  0
ACDBPLACEHOLDER
  5
F
102
{ACAD_REACTORS
330
E
102
}
330
E
  0
SCALE
  5
43
102
{ACAD_REACTORS
330
42
102
}
330
42
100
AcDbScale
 70
     0
300
1:1
140
1.0
141
1.0
290
     1
  0
SCALE
  5
44
102
{ACAD_REACTORS
330
42
102
}
330
42
100
AcDbScale
 70
     0
300
1/128" = 1'-0"
140
0.0078125
141
12.0
290
     0
  0
SCALE
  5
45
102
{ACAD_REACTORS
330
42
102
}
330
42
100
AcDbScale
 70
     0
300
1/64" = 1'-0"
140
0.015625
141
12.0
290
     0
  0
SCALE
  5
46
102
{ACAD_REACTORS
330
42
102
}
330
42
100
AcDbScale
 70
     0
300
1/32" = 1'-0"
140
0.03125
141
12.0
290
     0
  0
SCALE
  5
47
102
{ACAD_REACTORS
330
42
102
}
330
42
100
AcDbScale
 70
     0
300
1/16" = 1'-0"
140
0.0625
141
12.0
290
     0
  0
SCALE
  5
48
102
{ACAD_REACTORS
330
42
102
}
330
42
100
AcDbScale
 70
     0
300
3/32" = 1'-0"
140
0.09375
141
12.0
290
     0
  0
SCALE
  5
49
102
{ACAD_REACTORS
330
42
102
}
330
42
100
AcDbScale
 70
     0
300
1/8" = 1'-0"
140
0.125
141
12.0
290
     0
  0
SCALE
  5
4A
102
{ACAD_REACTORS
330
42
102
}
330
42
100
AcDbScale
 70
     0
300
3/16" = 1'-0"
140
0.1875
141
12.0
290
     0
  0
SCALE
  5
4B
102
{ACAD_REACTORS
330
42
102
}
330
42
100
AcDbScale
 70
     0
300
1/4" = 1'-0"
140
0.25
141
12.0
290
     0
  0
SCALE
  5
4C
102
{ACAD_REACTORS
330
42
102
}
330
42
100
AcDbScale
 70
     0
300
3/8" = 1'-0"
140
0.375
141
12.0
290
     0
  0
SCALE
  5
4D
102
{ACAD_REACTORS
330
42
102
}
330
42
100
AcDbScale
 70
     0
300
1/2" = 1'-0"
140
0.5
141
12.0
290
     0
  0
SCALE
  5
4E
102
{ACAD_REACTORS
330
42
102
}
330
42
100
AcDbScale
 70
     0
300
3/4" = 1'-0"
140
0.75
141
12.0
290
     0
  0
SCALE
  5
4F
102
{ACAD_REACTORS
330
42
102
}
330
42
100
AcDbScale
 70
     0
300
1" = 1'-0"
140
1.0
141
12.0
290
     0
  0
SCALE
  5
50
102
{ACAD_REACTORS
330
42
102
}
330
42
100
AcDbScale
 70
     0
300
1-1/2" = 1'-0"
140
1.5
141
12.0
290
     0
  0
SCALE
  5
51
102
{ACAD_REACTORS
330
42
102
}
330
42
100
AcDbScale
 70
     0
300
3" = 1'-0"
140
3.0
141
12.0
290
     0
  0
SCALE
  5
52
102
{ACAD_REACTORS
330
42
102
}
330
42
100
AcDbScale
 70
     0
300
6" = 1'-0"
140
6.0
141
12.0
290
     0
  0
SCALE
  5
53
102
{ACAD_REACTORS
330
42
102
}
330
42
100
AcDbScale
 70
     0
300
1'-0" = 1'-0"
140
12.0
141
12.0
290
     0
  0
ACDBSECTIONVIEWSTYLE
  5
69
102
{ACAD_REACTORS
330
68
102
}
330
68
100
AcDbModelDocViewStyle
 70
     0
  3
Imperial24
290
     1
300
Imperial24
 90
        0
100
AcDbSectionViewStyle
 70
     0
 71
     0
 90
       78
 71
     1
340
55
 62
   256
 40
0.24
340
0
340
0
 62
   256
 40
0.24
300
I, O, Q, S, X, Z
 40
0.48
 90
        3
 40
0.18
 90
        1
 71
     2
340
5D
 90
       25
 62
   256
340
5D
 90
       50
 62
   256
 40
0.24
 40
0.0
 40
0.24
 71
     3
340
55
 62
   256
 40
0.24
 90
        1
 40
0.75
 90
        1
300
%<\AcVar ViewType \f "%tc1">% %<\AcVar ViewSectionStartId>%-%<\AcVar ViewSectionEndId>%\PSCALE %<\AcVar ViewScale \f "%sn">%
 71
     4
 62
   256
 62
   257
300
ANSI31
 40
1.0
 90
        0
290
     0
290
     0
 90
        6
 40
0.0
 40
1.570796326794896
 40
0.2617993877991494
 40
1.308996938995747
 40
-0.2617993877991494
 40
1.832595714594046
  0
TABLESTYLE
  5
65
102
{ACAD_XDICTIONARY
360
1A2
102
}
102
{ACAD_REACTORS
330
64
102
}
330
64
100
AcDbTableStyle
280
     0
  3
Standard
 70
     0
 71
     0
 40
0.06
 41
0.06
280
     0
281
     0
  7
Standard
140
0.18
170
     2
 62
     0
 63
     7
283
     0
 90
      512
 91
        0
  1

274
    -2
284
     1
 64
     0
275
    -2
285
     1
 65
     0
276
    -2
286
     1
 66
     0
277
    -2
287
     1
 67
     0
278
    -2
288
     1
 68
     0
279
    -2
289
     1
 69
     0
  7
Standard
140
0.25
170
     5
 62
     0
 63
     7
283
     0
 90
      512
 91
        0
  1

274
    -2
284
     1
 64
     0
275
    -2
285
     1
 65
     0
276
    -2
286
     1
 66
     0
277
    -2
287
     1
 67
     0
278
    -2
288
     1
 68
     0
279
    -2
289
     1
 69
     0
  7
Standard
140
0.18
170
     5
 62
     0
 63
     7
283
     0
 90
      512
 91
        0
  1

274
    -2
284
     1
 64
     0
275
    -2
285
     1
 65
     0
276
    -2
286
     1
 66
     0
277
    -2
287
     1
 67
     0
278
    -2
288
     1
 68
     0
279
    -2
289
     1
 69
     0
  0
VISUALSTYLE
  5
2F
102
{ACAD_REACTORS
330
29
102
}
330
29
100
AcDbVisualStyle
  2
2dWireframe
 70
     4
177
     3
291
     0
 70
    58
 90
        0
176
     1
 90
        2
176
     1
 90
        0
176
     1
 90
        0
176
     1
 40
0.6
176
     1
 40
30.0
176
     1
 62
     7
420
 16777215
176
     1
 90
        1
176
     1
 90
        4
176
     1
 62
     7
176
     1
 62
   257
176
     1
 90
        1
176
     1
 90
        1
176
     1
 40
1.0
176
     1
 90
        0
176
     1
 62
   257
176
     1
 40
1.0
176
     1
 90
        1
176
     1
 90
        6
176
     1
 90
        2
176
     1
 62
     7
176
     1
 90
        5
176
     1
 90
        0
176
     1
 90
        0
176
     1
290
     0
176
     1
 90
        1
176
     1
 40
0.0
176
     1
 90
        0
176
     1
290
     1
176
     1
290
     1
176
     1
290
     0
176
     1
290
     0
176
     1
290
     0
176
     1
290
     0
176
     1
290
     0
176
     1
290
     0
176
     1
290
     0
176
     1
 90
       50
176
     1
 40
0.0
176
     1
 40
1.0
176
     1
 90
        0
176
     1
 62
    18
420
        0
176
     1
 90
       50
176
     1
 90
        3
176
     1
 62
     5
420
      255
176
     1
290
     0
176
     1
 90
       50
176
     1
 90
       50
176
     1
 90
       50
176
     1
290
     0
176
     1
 90
       50
176
     1
 62
   256
176
     0
 40
1.0
176
     0
 90
        2
176
     1
  1
strokes_ogs.tif
176
     1
290
     0
176
     1
 40
1.0
176
     1
 40
1.0
176
     1
  0
VISUALSTYLE
  5
2E
102
{ACAD_REACTORS
330
29
102
}
330
29
100
AcDbVisualStyle
  2
Basic
 70
     7
177
     3
291
     1
 70
    58
 90
        1
176
     1
 90
        0
176
     1
 90
        1
176
     1
 90
        0
176
     1
 40
0.6
176
     1
 40
30.0
176
     1
 62
     7
420
 16777215
176
     1
 90
        0
176
     1
 90
        4
176
     1
 62
     7
176
     1
 62
   257
176
     1
 90
        1
176
     1
 90
        1
176
     1
 40
1.0
176
     1
 90
        8
176
     1
 62
     7
176
     1
 40
1.0
176
     1
 90
        1
176
     1
 90
        6
176
     1
 90
        2
176
     1
 62
     7
176
     1
 90
        5
176
     1
 90
        0
176
     1
 90
        0
176
     1
290
     0
176
     1
 90
        1
176
     1
 40
0.0
176
     1
 90
        0
176
     1
290
     0
176
     1
290
     1
176
     1
290
     1
176
     1
290
     0
176
     1
290
     0
176
     1
290
     0
176
     1
290
     0
176
     1
290
     0
176
     1
290
     0
176
     1
 90
       50
176
     1
 40
0.0
176
     1
 40
1.0
176
     1
 90
        0
176
     1
 62
    18
420
        0
176
     1
 90
       50
176
     1
 90
        3
176
     1
 62
     5
420
      255
176
     1
290
     0
176
     1
 90
       50
176
     1
 90
       50
176
     1
 90
       50
176
     1
290
     0
176
     1
 90
       50
176
     1
 62
   256
176
     0
 40
1.0
176
     0
 90
        2
176
     1
  1
strokes_ogs.tif
176
     1
290
     0
176
     1
 40
1.0
176
     1
 40
1.0
176
     1
  0
VISUALSTYLE
  5
35
102
{ACAD_REACTORS
330
29
102
}
330
29
100
AcDbVisualStyle
  2
Brighten
 70
    12
177
     3
291
     1
 70
    58
 90
        2
176
     1
 90
        2
176
     1
 90
        0
176
     1
 90
        0
176
     1
 40
0.6
176
     1
 40
30.0
176
     1
 62
     7
420
 16777215
176
     1
 90
        1
176
     1
 90
        4
176
     1
 62
     7
176
     1
 62
   257
176
     1
 90
        1
176
     1
 90
        1
176
     1
 40
1.0
176
     1
 90
        8
176
     1
 62
     7
176
     1
 40
1.0
176
     1
 90
        1
176
     1
 90
        6
176
     1
 90
        2
176
     1
 62
     7
176
     1
 90
        5
176
     1
 90
        0
176
     1
 90
        0
176
     1
290
     0
176
     1
 90
        1
176
     1
 40
50.0
176
     1
 90
        0
176
     1
290
     0
176
     1
290
     1
176
     1
290
     1
176
     1
290
     0
176
     1
290
     0
176
     1
290
     0
176
     1
290
     0
176
     1
290
     0
176
     1
290
     0
176
     1
 90
       50
176
     1
 40
0.0
176
     1
 40
1.0
176
     1
 90
        0
176
     1
 62
    18
420
        0
176
     1
 90
       50
176
     1
 90
        3
176
     1
 62
     5
420
      255
176
     1
290
     0
176
     1
 90
       50
176
     1
 90
       50
176
     1
 90
       50
176
     1
290
     0
176
     1
 90
       50
176
     1
 62
   256
176
     0
 40
1.0
176
     0
 90
        2
176
     1
  1
strokes_ogs.tif
176
     1
290
     0
176
     1
 40
1.0
176
     1
 40
1.0
176
     1
  0
VISUALSTYLE
  5
39
102
{ACAD_REACTORS
330
29
102
}
330
29
100
AcDbVisualStyle
  2
ColorChange
 70
    16
177
     3
291
     1
 70
    58
 90
        2
176
     1
 90
        2
176
     1
 90
        3
176
     1
 90
        0
176
     1
 40
0.6
176
     1
 40
30.0
176
     1
 62
     8
420
  8421504
176
     1
 90
        1
176
     1
 90
        4
176
     1
 62
     7
176
     1
 62
   257
176
     1
 90
        1
176
     1
 90
        1
176
     1
 40
1.0
176
     1
 90
        8
176
     1
 62
     8
420
  8421504
176
     1
 40
1.0
176
     1
 90
        1
176
     1
 90
        6
176
     1
 90
        2
176
     1
 62
     7
176
     1
 90
        5
176
     1
 90
        0
176
     1
 90
        0
176
     1
290
     0
176
     1
 90
        1
176
     1
 40
0.0
176
     1
 90
        0
176
     1
290
     0
176
     1
290
     1
176
     1
290
     1
176
     1
290
     0
176
     1
290
     0
176
     1
290
     0
176
     1
290
     0
176
     1
290
     0
176
     1
290
     0
176
     1
 90
       50
176
     1
 40
0.0
176
     1
 40
1.0
176
     1
 90
        0
176
     1
 62
    18
420
        0
176
     1
 90
       50
176
     1
 90
        3
176
     1
 62
     5
420
      255
176
     1
290
     0
176
     1
 90
       50
176
     1
 90
       50
176
     1
 90
       50
176
     1
290
     0
176
     1
 90
       50
176
     1
 62
   256
176
     0
 40
1.0
176
     0
 90
        2
176
     1
  1
strokes_ogs.tif
176
     1
290
     0
176
     1
 40
1.0
176
     1
 40
1.0
176
     1
  0
VISUALSTYLE
  5
32
102
{ACAD_REACTORS
330
29
102
}
330
29
100
AcDbVisualStyle
  2
Conceptual
 70
     9
177
     3
291
     0
 70
    58
 90
        3
176
     1
 90
        2
176
     1
 90
        0
176
     1
 90
        0
176
     1
 40
0.6
176
     1
 40
30.0
176
     1
 62
     7
420
 16777215
176
     1
 90
        2
176
     1
 90
        2
176
     1
 62
     7
176
     1
 62
   257
176
     1
 90
        1
176
     1
 90
        1
176
     1
 40
179.0
176
     1
 90
        8
176
     1
 62
     7
176
     1
 40
1.0
176
     1
 90
        1
176
     1
 90
        6
176
     1
 90
        2
176
     1
 62
     7
176
     1
 90
        3
176
     1
 90
        0
176
     1
 90
        0
176
     1
290
     0
176
     1
 90
        1
176
     1
 40
0.0
176
     1
 90
        0
176
     1
290
     0
176
     1
290
     1
176
     1
290
     1
176
     1
290
     0
176
     1
290
     0
176
     1
290
     0
176
     1
290
     0
176
     1
290
     0
176
     1
290
     0
176
     1
 90
       50
176
     1
 40
0.0
176
     1
 40
1.0
176
     1
 90
        0
176
     1
 62
    18
420
        0
176
     1
 90
       50
176
     1
 90
        3
176
     1
 62
     5
420
      255
176
     1
290
     0
176
     1
 90
       50
176
     1
 90
       50
176
     1
 90
       50
176
     1
290
     0
176
     1
 90
       50
176
     1
 62
   256
176
     0
 40
1.0
176
     0
 90
        2
176
     1
  1
strokes_ogs.tif
176
     1
290
     0
176
     1
 40
1.0
176
     1
 40
1.0
176
     1
  0
VISUALSTYLE
  5
34
102
{ACAD_REACTORS
330
29
102
}
330
29
100
AcDbVisualStyle
  2
Dim
 70
    11
177
     3
291
     1
 70
    58
 90
        2
176
     1
 90
        2
176
     1
 90
        0
176
     1
 90
        0
176
     1
 40
0.6
176
     1
 40
30.0
176
     1
 62
     7
420
 16777215
176
     1
 90
        1
176
     1
 90
        4
176
     1
 62
     7
176
     1
 62
   257
176
     1
 90
        1
176
     1
 90
        1
176
     1
 40
1.0
176
     1
 90
        8
176
     1
 62
     7
176
     1
 40
1.0
176
     1
 90
        1
176
     1
 90
        6
176
     1
 90
        2
176
     1
 62
     7
176
     1
 90
        5
176
     1
 90
        0
176
     1
 90
        0
176
     1
290
     0
176
     1
 90
        1
176
     1
 40
-50.0
176
     1
 90
        0
176
     1
290
     0
176
     1
290
     1
176
     1
290
     1
176
     1
290
     0
176
     1
290
     0
176
     1
290
     0
176
     1
290
     0
176
     1
290
     0
176
     1
290
     0
176
     1
 90
       50
176
     1
 40
0.0
176
     1
 40
1.0
176
     1
 90
        0
176
     1
 62
    18
420
        0
176
     1
 90
       50
176
     1
 90
        3
176
     1
 62
     5
420
      255
176
     1
290
     0
176
     1
 90
       50
176
     1
 90
       50
176
     1
 90
       50
176
     1
290
     0
176
     1
 90
       50
176
     1
 62
   256
176
     0
 40
1.0
176
     0
 90
        2
176
     1
  1
strokes_ogs.tif
176
     1
290
     0
176
     1
 40
1.0
176
     1
 40
1.0
176
     1
  0
VISUALSTYLE
  5
41
102
{ACAD_REACTORS
330
29
102
}
330
29
100
AcDbVisualStyle
  2
EdgeColorOff
 70
    22
177
     3
291
     1
 70
    58
 90
        2
176
     0
 90
        2
176
     0
 90
        0
176
     0
 90
        0
176
     0
 40
0.6
176
     0
 40
30.0
176
     0
 62
     7
420
 16777215
176
     0
 90
        1
176
     0
 90
        4
176
     0
 62
     7
176
     0
 62
   257
176
     0
 90
        1
176
     0
 90
        1
176
     0
 40
1.0
176
     0
 90
        8
176
     2
 62
     7
176
     0
 40
1.0
176
     0
 90
        1
176
     0
 90
        6
176
     0
 90
        2
176
     0
 62
     7
176
     0
 90
        5
176
     0
 90
        0
176
     0
 90
        0
176
     0
290
     0
176
     0
 90
        1
176
     0
 40
0.0
176
     0
 90
        0
176
     0
290
     0
176
     0
290
     1
176
     0
290
     1
176
     0
290
     0
176
     0
290
     0
176
     0
290
     0
176
     0
290
     0
176
     0
290
     0
176
     0
290
     0
176
     0
 90
       50
176
     0
 40
0.0
176
     0
 40
1.0
176
     0
 90
        0
176
     0
 62
    18
420
        0
176
     0
 90
       50
176
     0
 90
        3
176
     0
 62
     5
420
      255
176
     0
290
     0
176
     0
 90
       50
176
     0
 90
       50
176
     0
 90
       50
176
     0
290
     0
176
     0
 90
       50
176
     0
 62
   256
176
     0
 40
1.0
176
     0
 90
        2
176
     0
  1
strokes_ogs.tif
176
     0
290
     0
176
     0
 40
1.0
176
     0
 40
1.0
176
     0
  0
VISUALSTYLE
  5
38
102
{ACAD_REACTORS
330
29
102
}
330
29
100
AcDbVisualStyle
  2
Facepattern
 70
    15
177
     3
291
     1
 70
    58
 90
        2
176
     1
 90
        2
176
     1
 90
        0
176
     1
 90
        0
176
     1
 40
0.6
176
     1
 40
30.0
176
     1
 62
     7
420
 16777215
176
     1
 90
        1
176
     1
 90
        4
176
     1
 62
     7
176
     1
 62
   257
176
     1
 90
        1
176
     1
 90
        1
176
     1
 40
1.0
176
     1
 90
        8
176
     1
 62
     7
176
     1
 40
1.0
176
     1
 90
        1
176
     1
 90
        6
176
     1
 90
        2
176
     1
 62
     7
176
     1
 90
        5
176
     1
 90
        0
176
     1
 90
        0
176
     1
290
     0
176
     1
 90
        1
176
     1
 40
0.0
176
     1
 90
        0
176
     1
290
     0
176
     1
290
     1
176
     1
290
     1
176
     1
290
     0
176
     1
290
     0
176
     1
290
     0
176
     1
290
     0
176
     1
290
     0
176
     1
290
     0
176
     1
 90
       50
176
     1
 40
0.0
176
     1
 40
1.0
176
     1
 90
        0
176
     1
 62
    18
420
        0
176
     1
 90
       50
176
     1
 90
        3
176
     1
 62
     5
420
      255
176
     1
290
     0
176
     1
 90
       50
176
     1
 90
       50
176
     1
 90
       50
176
     1
290
     0
176
     1
 90
       50
176
     1
 62
   256
176
     0
 40
1.0
176
     0
 90
        2
176
     1
  1
strokes_ogs.tif
176
     1
290
     0
176
     1
 40
1.0
176
     1
 40
1.0
176
     1
  0
VISUALSTYLE
  5
2A
102
{ACAD_REACTORS
330
29
102
}
330
29
100
AcDbVisualStyle
  2
Flat
 70
     0
177
     3
291
     1
 70
    58
 90
        2
176
     1
 90
        1
176
     1
 90
        1
176
     1
 90
        2
176
     1
 40
0.6
176
     1
 40
30.0
176
     1
 62
     7
420
 16777215
176
     1
 90
        0
176
     1
 90
        0
176
     1
 62
     7
176
     1
 62
   257
176
     1
 90
        1
176
     1
 90
        1
176
     1
 40
1.0
176
     1
 90
        8
176
     1
 62
     7
176
     1
 40
1.0
176
     1
 90
        1
176
     1
 90
        6
176
     1
 90
        2
176
     1
 62
     7
176
     1
 90
        5
176
     1
 90
        0
176
     1
 90
        0
176
     1
290
     0
176
     1
 90
       13
176
     1
 40
0.0
176
     1
 90
        0
176
     1
290
     0
176
     1
290
     1
176
     1
290
     1
176
     1
290
     0
176
     1
290
     0
176
     1
290
     0
176
     1
290
     0
176
     1
290
     0
176
     1
290
     0
176
     1
 90
       50
176
     1
 40
0.0
176
     1
 40
1.0
176
     1
 90
        0
176
     1
 62
    18
420
        0
176
     1
 90
       50
176
     1
 90
        3
176
     1
 62
     5
420
      255
176
     1
290
     0
176
     1
 90
       50
176
     1
 90
       50
176
     1
 90
       50
176
     1
290
     0
176
     1
 90
       50
176
     1
 62
   256
176
     0
 40
1.0
176
     0
 90
        2
176
     1
  1
strokes_ogs.tif
176
     1
290
     0
176
     1
 40
1.0
176
     1
 40
1.0
176
     1
  0
VISUALSTYLE
  5
2B
102
{ACAD_REACTORS
330
29
102
}
330
29
100
AcDbVisualStyle
  2
FlatWithEdges
 70
     1
177
     3
291
     1
 70
    58
 90
        2
176
     1
 90
        1
176
     1
 90
        1
176
     1
 90
        2
176
     1
 40
0.6
176
     1
 40
30.0
176
     1
 62
     7
420
 16777215
176
     1
 90
        1
176
     1
 90
        0
176
     1
 62
     7
176
     1
 62
   257
176
     1
 90
        1
176
     1
 90
        1
176
     1
 40
1.0
176
     1
 90
        0
176
     1
 62
   257
176
     1
 40
1.0
176
     1
 90
        1
176
     1
 90
        6
176
     1
 90
        2
176
     1
 62
     7
176
     1
 90
        5
176
     1
 90
        0
176
     1
 90
        0
176
     1
290
     0
176
     1
 90
       13
176
     1
 40
0.0
176
     1
 90
        0
176
     1
290
     0
176
     1
290
     1
176
     1
290
     1
176
     1
290
     0
176
     1
290
     0
176
     1
290
     0
176
     1
290
     0
176
     1
290
     0
176
     1
290
     0
176
     1
 90
       50
176
     1
 40
0.0
176
     1
 40
1.0
176
     1
 90
        0
176
     1
 62
    18
420
        0
176
     1
 90
       50
176
     1
 90
        3
176
     1
 62
     5
420
      255
176
     1
290
     0
176
     1
 90
       50
176
     1
 90
       50
176
     1
 90
       50
176
     1
290
     0
176
     1
 90
       50
176
     1
 62
   256
176
     0
 40
1.0
176
     0
 90
        2
176
     1
  1
strokes_ogs.tif
176
     1
290
     0
176
     1
 40
1.0
176
     1
 40
1.0
176
     1
  0
VISUALSTYLE
  5
2C
102
{ACAD_REACTORS
330
29
102
}
330
29
100
AcDbVisualStyle
  2
Gouraud
 70
     2
177
     3
291
     1
 70
    58
 90
        2
176
     1
 90
        2
176
     1
 90
        1
176
     1
 90
        2
176
     1
 40
0.6
176
     1
 40
30.0
176
     1
 62
     7
420
 16777215
176
     1
 90
        0
176
     1
 90
        0
176
     1
 62
     7
176
     1
 62
   257
176
     1
 90
        1
176
     1
 90
        1
176
     1
 40
1.0
176
     1
 90
        0
176
     1
 62
     7
176
     1
 40
1.0
176
     1
 90
        1
176
     1
 90
        6
176
     1
 90
        2
176
     1
 62
     7
176
     1
 90
        5
176
     1
 90
        0
176
     1
 90
        0
176
     1
290
     0
176
     1
 90
       13
176
     1
 40
0.0
176
     1
 90
        0
176
     1
290
     0
176
     1
290
     1
176
     1
290
     1
176
     1
290
     0
176
     1
290
     0
176
     1
290
     0
176
     1
290
     0
176
     1
290
     0
176
     1
290
     0
176
     1
 90
       50
176
     1
 40
0.0
176
     1
 40
1.0
176
     1
 90
        0
176
     1
 62
    18
420
        0
176
     1
 90
       50
176
     1
 90
        3
176
     1
 62
     5
420
      255
176
     1
290
     0
176
     1
 90
       50
176
     1
 90
       50
176
     1
 90
       50
176
     1
290
     0
176
     1
 90
       50
176
     1
 62
   256
176
     0
 40
1.0
176
     0
 90
        2
176
     1
  1
strokes_ogs.tif
176
     1
290
     0
176
     1
 40
1.0
176
     1
 40
1.0
176
     1
  0
VISUALSTYLE
  5
2D
102
{ACAD_REACTORS
330
29
102
}
330
29
100
AcDbVisualStyle
  2
GouraudWithEdges
 70
     3
177
     3
291
     1
 70
    58
 90
        2
176
     1
 90
        2
176
     1
 90
        1
176
     1
 90
        2
176
     1
 40
0.6
176
     1
 40
30.0
176
     1
 62
     7
420
 16777215
176
     1
 90
        1
176
     1
 90
        0
176
     1
 62
     7
176
     1
 62
   257
176
     1
 90
        1
176
     1
 90
        1
176
     1
 40
1.0
176
     1
 90
        0
176
     1
 62
   257
176
     1
 40
1.0
176
     1
 90
        1
176
     1
 90
        6
176
     1
 90
        2
176
     1
 62
     7
176
     1
 90
        5
176
     1
 90
        0
176
     1
 90
        0
176
     1
290
     0
176
     1
 90
       13
176
     1
 40
0.0
176
     1
 90
        0
176
     1
290
     0
176
     1
290
     1
176
     1
290
     1
176
     1
290
     0
176
     1
290
     0
176
     1
290
     0
176
     1
290
     0
176
     1
290
     0
176
     1
290
     0
176
     1
 90
       50
176
     1
 40
0.0
176
     1
 40
1.0
176
     1
 90
        0
176
     1
 62
    18
420
        0
176
     1
 90
       50
176
     1
 90
        3
176
     1
 62
     5
420
      255
176
     1
290
     0
176
     1
 90
       50
176
     1
 90
       50
176
     1
 90
       50
176
     1
290
     0
176
     1
 90
       50
176
     1
 62
   256
176
     0
 40
1.0
176
     0
 90
        2
176
     1
  1
strokes_ogs.tif
176
     1
290
     0
176
     1
 40
1.0
176
     1
 40
1.0
176
     1
  0
VISUALSTYLE
  5
31
102
{ACAD_REACTORS
330
29
102
}
330
29
100
AcDbVisualStyle
  2
Hidden
 70
     6
177
     3
291
     0
 70
    58
 90
        1
176
     1
 90
        2
176
     1
 90
        2
176
     1
 90
        0
176
     1
 40
0.6
176
     1
 40
30.0
176
     1
 62
     7
420
 16777215
176
     1
 90
        2
176
     1
 90
        2
176
     1
 62
     7
176
     1
 62
   257
176
     1
 90
        2
176
     1
 90
        1
176
     1
 40
40.0
176
     1
 90
        0
176
     1
 62
   257
176
     1
 40
1.0
176
     1
 90
        1
176
     1
 90
        6
176
     1
 90
        2
176
     1
 62
     7
176
     1
 90
        3
176
     1
 90
        0
176
     1
 90
        0
176
     1
290
     0
176
     1
 90
        1
176
     1
 40
0.0
176
     1
 90
        0
176
     1
290
     0
176
     1
290
     1
176
     1
290
     1
176
     1
290
     0
176
     1
290
     0
176
     1
290
     0
176
     1
290
     0
176
     1
290
     0
176
     1
290
     0
176
     1
 90
       50
176
     1
 40
0.0
176
     1
 40
1.0
176
     1
 90
        0
176
     1
 62
    18
420
        0
176
     1
 90
       50
176
     1
 90
        3
176
     1
 62
     5
420
      255
176
     1
290
     0
176
     1
 90
       50
176
     1
 90
       50
176
     1
 90
       50
176
     1
290
     0
176
     1
 90
       50
176
     1
 62
   256
176
     0
 40
1.0
176
     0
 90
        2
176
     1
  1
strokes_ogs.tif
176
     1
290
     0
176
     1
 40
1.0
176
     1
 40
1.0
176
     1
  0
VISUALSTYLE
  5
3F
102
{ACAD_REACTORS
330
29
102
}
330
29
100
AcDbVisualStyle
  2
JitterOff
 70
    20
177
     3
291
     1
 70
    58
 90
        2
176
     0
 90
        2
176
     0
 90
        0
176
     0
 90
        0
176
     0
 40
0.6
176
     0
 40
30.0
176
     0
 62
     7
420
 16777215
176
     0
 90
        1
176
     0
 90
        4
176
     0
 62
     7
176
     0
 62
   257
176
     0
 90
        1
176
     0
 90
        1
176
     0
 40
1.0
176
     0
 90
       10
176
     2
 62
     7
176
     0
 40
1.0
176
     0
 90
        1
176
     0
 90
        6
176
     0
 90
        2
176
     0
 62
     7
176
     0
 90
        5
176
     0
 90
        0
176
     0
 90
        0
176
     0
290
     0
176
     0
 90
        1
176
     0
 40
0.0
176
     0
 90
        0
176
     0
290
     0
176
     0
290
     1
176
     0
290
     1
176
     0
290
     0
176
     0
290
     0
176
     0
290
     0
176
     0
290
     0
176
     0
290
     0
176
     0
290
     0
176
     0
 90
       50
176
     0
 40
0.0
176
     0
 40
1.0
176
     0
 90
        0
176
     0
 62
    18
420
        0
176
     0
 90
       50
176
     0
 90
        3
176
     0
 62
     5
420
      255
176
     0
290
     0
176
     0
 90
       50
176
     0
 90
       50
176
     0
 90
       50
176
     0
290
     0
176
     0
 90
       50
176
     0
 62
   256
176
     0
 40
1.0
176
     0
 90
        2
176
     0
  1
strokes_ogs.tif
176
     0
290
     0
176
     0
 40
1.0
176
     0
 40
1.0
176
     0
  0
VISUALSTYLE
  5
37
102
{ACAD_REACTORS
330
29
102
}
330
29
100
AcDbVisualStyle
  2
Linepattern
 70
    14
177
     3
291
     1
 70
    58
 90
        2
176
     1
 90
        2
176
     1
 90
        0
176
     1
 90
        0
176
     1
 40
0.6
176
     1
 40
30.0
176
     1
 62
     7
420
 16777215
176
     1
 90
        1
176
     1
 90
        4
176
     1
 62
     7
176
     1
 62
   257
176
     1
 90
        7
176
     1
 90
        7
176
     1
 40
1.0
176
     1
 90
        8
176
     1
 62
     7
176
     1
 40
1.0
176
     1
 90
        1
176
     1
 90
        6
176
     1
 90
        2
176
     1
 62
     7
176
     1
 90
        5
176
     1
 90
        0
176
     1
 90
        0
176
     1
290
     0
176
     1
 90
        1
176
     1
 40
0.0
176
     1
 90
        0
176
     1
290
     0
176
     1
290
     1
176
     1
290
     1
176
     1
290
     0
176
     1
290
     0
176
     1
290
     0
176
     1
290
     0
176
     1
290
     0
176
     1
290
     0
176
     1
 90
       50
176
     1
 40
0.0
176
     1
 40
1.0
176
     1
 90
        0
176
     1
 62
    18
420
        0
176
     1
 90
       50
176
     1
 90
        3
176
     1
 62
     5
420
      255
176
     1
290
     0
176
     1
 90
       50
176
     1
 90
       50
176
     1
 90
       50
176
     1
290
     0
176
     1
 90
       50
176
     1
 62
   256
176
     0
 40
1.0
176
     0
 90
        2
176
     1
  1
strokes_ogs.tif
176
     1
290
     0
176
     1
 40
1.0
176
     1
 40
1.0
176
     1
  0
VISUALSTYLE
  5
40
102
{ACAD_REACTORS
330
29
102
}
330
29
100
AcDbVisualStyle
  2
OverhangOff
 70
    21
177
     3
291
     1
 70
    58
 90
        2
176
     0
 90
        2
176
     0
 90
        0
176
     0
 90
        0
176
     0
 40
0.6
176
     0
 40
30.0
176
     0
 62
     7
420
 16777215
176
     0
 90
        1
176
     0
 90
        4
176
     0
 62
     7
176
     0
 62
   257
176
     0
 90
        1
176
     0
 90
        1
176
     0
 40
1.0
176
     0
 90
        9
176
     2
 62
     7
176
     0
 40
1.0
176
     0
 90
        1
176
     0
 90
        6
176
     0
 90
        2
176
     0
 62
     7
176
     0
 90
        5
176
     0
 90
        0
176
     0
 90
        0
176
     0
290
     0
176
     0
 90
        1
176
     0
 40
0.0
176
     0
 90
        0
176
     0
290
     0
176
     0
290
     1
176
     0
290
     1
176
     0
290
     0
176
     0
290
     0
176
     0
290
     0
176
     0
290
     0
176
     0
290
     0
176
     0
290
     0
176
     0
 90
       50
176
     0
 40
0.0
176
     0
 40
1.0
176
     0
 90
        0
176
     0
 62
    18
420
        0
176
     0
 90
       50
176
     0
 90
        3
176
     0
 62
     5
420
      255
176
     0
290
     0
176
     0
 90
       50
176
     0
 90
       50
176
     0
 90
       50
176
     0
290
     0
176
     0
 90
       50
176
     0
 62
   256
176
     0
 40
1.0
176
     0
 90
        2
176
     0
  1
strokes_ogs.tif
176
     0
290
     0
176
     0
 40
1.0
176
     0
 40
1.0
176
     0
  0
VISUALSTYLE
  5
33
102
{ACAD_REACTORS
330
29
102
}
330
29
100
AcDbVisualStyle
  2
Realistic
 70
     8
177
     3
291
     0
 70
    58
 90
        2
176
     1
 90
        3
176
     1
 90
        0
176
     1
 90
        2
176
     1
 40
0.6
176
     1
 40
30.0
176
     1
 62
     7
420
 16777215
176
     1
 90
        0
176
     1
 90
        0
176
     1
 62
     7
176
     1
 62
   257
176
     1
 90
        1
176
     1
 90
        1
176
     1
 40
1.0
176
     1
 90
        8
176
     1
 62
   257
176
     1
 40
1.0
176
     1
 90
        1
176
     1
 90
        6
176
     1
 90
        2
176
     1
 62
     7
176
     1
 90
        3
176
     1
 90
        0
176
     1
 90
        0
176
     1
290
     0
176
     1
 90
       13
176
     1
 40
0.0
176
     1
 90
        0
176
     1
290
     0
176
     1
290
     1
176
     1
290
     1
176
     1
290
     0
176
     1
290
     0
176
     1
290
     0
176
     1
290
     0
176
     1
290
     0
176
     1
290
     0
176
     1
 90
       50
176
     1
 40
0.0
176
     1
 40
1.0
176
     1
 90
        0
176
     1
 62
    18
420
        0
176
     1
 90
       50
176
     1
 90
        3
176
     1
 62
     5
420
      255
176
     1
290
     0
176
     1
 90
       50
176
     1
 90
       50
176
     1
 90
       50
176
     1
290
     0
176
     1
 90
       50
176
     1
 62
   256
176
     0
 40
1.0
176
     0
 90
        2
176
     1
  1
strokes_ogs.tif
176
     1
290
     0
176
     1
 40
1.0
176
     1
 40
1.0
176
     1
  0
VISUALSTYLE
  5
3E
102
{ACAD_REACTORS
330
29
102
}
330
29
100
AcDbVisualStyle
  2
Shaded
 70
    27
177
     3
291
     0
 70
    58
 90
        2
176
     1
 90
        2
176
     1
 90
        1
176
     1
 90
        2
176
     1
 40
0.6
176
     1
 40
30.0
176
     1
 62
     7
420
 16777215
176
     1
 90
        0
176
     1
 90
        4
176
     1
 62
     7
176
     1
 62
   257
176
     1
 90
        1
176
     1
 90
        1
176
     1
 40
1.0
176
     1
 90
        8
176
     1
 62
   257
176
     1
 40
1.0
176
     1
 90
        1
176
     1
 90
        6
176
     1
 90
        2
176
     1
 62
     8
420
  7895160
176
     1
 90
        3
176
     1
 90
        0
176
     1
 90
        0
176
     1
290
     0
176
     1
 90
        5
176
     1
 40
0.0
176
     1
 90
        0
176
     1
290
     0
176
     1
290
     1
176
     1
290
     1
176
     1
290
     0
176
     1
290
     0
176
     1
290
     0
176
     1
290
     0
176
     1
290
     0
176
     1
290
     0
176
     1
 90
       50
176
     1
 40
0.0
176
     1
 40
1.0
176
     1
 90
        0
176
     1
 62
    18
420
        0
176
     1
 90
       50
176
     1
 90
        3
176
     1
 62
     5
420
      255
176
     1
290
     0
176
     1
 90
       50
176
     1
 90
       50
176
     1
 90
       50
176
     1
290
     0
176
     1
 90
       50
176
     1
 62
   256
176
     0
 40
1.0
176
     0
 90
        2
176
     1
  1
strokes_ogs.tif
176
     1
290
     0
176
     1
 40
1.0
176
     1
 40
1.0
176
     1
  0
VISUALSTYLE
  5
3D
102
{ACAD_REACTORS
330
29
102
}
330
29
100
AcDbVisualStyle
  2
Shaded with edges
 70
    26
177
     3
291
     0
 70
    58
 90
        2
176
     1
 90
        2
176
     1
 90
        1
176
     1
 90
        2
176
     1
 40
0.6
176
     1
 40
30.0
176
     1
 62
     7
420
 16777215
176
     1
 90
        1
176
     1
 90
        2
176
     1
 62
     7
176
     1
 62
   257
176
     1
 90
        2
176
     1
 90
        1
176
     1
 40
1.0
176
     1
 90
        8
176
     1
 62
   257
176
     1
 40
1.0
176
     1
 90
        1
176
     1
 90
        6
176
     1
 90
        2
176
     1
 62
     7
176
     1
 90
        3
176
     1
 90
        0
176
     1
 90
        0
176
     1
290
     0
176
     1
 90
        5
176
     1
 40
0.0
176
     1
 90
        0
176
     1
290
     0
176
     1
290
     1
176
     1
290
     1
176
     1
290
     0
176
     1
290
     0
176
     1
290
     0
176
     1
290
     0
176
     1
290
     0
176
     1
290
     0
176
     1
 90
       50
176
     1
 40
0.0
176
     1
 40
1.0
176
     1
 90
        0
176
     1
 62
    18
420
        0
176
     1
 90
       50
176
     1
 90
        3
176
     1
 62
     5
420
      255
176
     1
290
     0
176
     1
 90
       50
176
     1
 90
       50
176
     1
 90
       50
176
     1
290
     0
176
     1
 90
       50
176
     1
 62
   256
176
     0
 40
1.0
176
     0
 90
        2
176
     1
  1
strokes_ogs.tif
176
     1
290
     0
176
     1
 40
1.0
176
     1
 40
1.0
176
     1
  0
VISUALSTYLE
  5
3A
102
{ACAD_REACTORS
330
29
102
}
330
29
100
AcDbVisualStyle
  2
Shades of Gray
 70
    23
177
     3
291
     0
 70
    58
 90
        2
176
     1
 90
        2
176
     1
 90
        3
176
     1
 90
        0
176
     1
 40
0.6
176
     1
 40
30.0
176
     1
 62
     7
420
 16777215
176
     1
 90
        2
176
     1
 90
        2
176
     1
 62
     7
176
     1
 62
     7
176
     1
 90
        1
176
     1
 90
        1
176
     1
 40
40.0
176
     1
 90
        8
176
     1
 62
     7
176
     1
 40
1.0
176
     1
 90
        1
176
     1
 90
        6
176
     1
 90
        2
176
     1
 62
     7
176
     1
 90
        3
176
     1
 90
        0
176
     1
 90
        0
176
     1
290
     0
176
     1
 90
        1
176
     1
 40
0.0
176
     1
 90
        0
176
     1
290
     0
176
     1
290
     1
176
     1
290
     1
176
     1
290
     0
176
     1
290
     0
176
     1
290
     0
176
     1
290
     0
176
     1
290
     0
176
     1
290
     0
176
     1
 90
       50
176
     1
 40
0.0
176
     1
 40
1.0
176
     1
 90
        0
176
     1
 62
    18
420
        0
176
     1
 90
       50
176
     1
 90
        3
176
     1
 62
     5
420
      255
176
     1
290
     0
176
     1
 90
       50
176
     1
 90
       50
176
     1
 90
       50
176
     1
290
     0
176
     1
 90
       50
176
     1
 62
   256
176
     0
 40
1.0
176
     0
 90
        2
176
     1
  1
strokes_ogs.tif
176
     1
290
     0
176
     1
 40
1.0
176
     1
 40
1.0
176
     1
  0
VISUALSTYLE
  5
3B
102
{ACAD_REACTORS
330
29
102
}
330
29
100
AcDbVisualStyle
  2
Sketchy
 70
    24
177
     3
291
     0
 70
    58
 90
        1
176
     1
 90
        2
176
     1
 90
        2
176
     1
 90
        0
176
     1
 40
0.6
176
     1
 40
30.0
176
     1
 62
     7
420
 16777215
176
     1
 90
        2
176
     1
 90
        2
176
     1
 62
     7
176
     1
 62
     7
176
     1
 90
        1
176
     1
 90
        1
176
     1
 40
40.0
176
     1
 90
       11
176
     1
 62
     7
176
     1
 40
1.0
176
     1
 90
        1
176
     1
 90
        6
176
     1
 90
        2
176
     1
 62
     7
176
     1
 90
        6
176
     1
 90
        0
176
     1
 90
        0
176
     1
290
     0
176
     1
 90
        1
176
     1
 40
0.0
176
     1
 90
        0
176
     1
290
     0
176
     1
290
     1
176
     1
290
     1
176
     1
290
     0
176
     1
290
     0
176
     1
290
     0
176
     1
290
     0
176
     1
290
     0
176
     1
290
     0
176
     1
 90
       50
176
     1
 40
0.0
176
     1
 40
1.0
176
     1
 90
        0
176
     1
 62
    18
420
        0
176
     1
 90
       50
176
     1
 90
        3
176
     1
 62
     5
420
      255
176
     1
290
     0
176
     1
 90
       50
176
     1
 90
       50
176
     1
 90
       50
176
     1
290
     0
176
     1
 90
       50
176
     1
 62
   256
176
     0
 40
1.0
176
     0
 90
        2
176
     1
  1
strokes_ogs.tif
176
     1
290
     0
176
     1
 40
1.0
176
     1
 40
1.0
176
     1
  0
VISUALSTYLE
  5
36
102
{ACAD_REACTORS
330
29
102
}
330
29
100
AcDbVisualStyle
  2
Thicken
 70
    13
177
     3
291
     1
 70
    58
 90
        2
176
     1
 90
        2
176
     1
 90
        0
176
     1
 90
        0
176
     1
 40
0.6
176
     1
 40
30.0
176
     1
 62
     7
420
 16777215
176
     1
 90
        1
176
     1
 90
        4
176
     1
 62
     7
176
     1
 62
   257
176
     1
 90
        1
176
     1
 90
        1
176
     1
 40
1.0
176
     1
 90
       12
176
     1
 62
     7
176
     1
 40
1.0
176
     1
 90
        1
176
     1
 90
        6
176
     1
 90
        2
176
     1
 62
     7
176
     1
 90
        5
176
     1
 90
        0
176
     1
 90
        0
176
     1
290
     0
176
     1
 90
        1
176
     1
 40
0.0
176
     1
 90
        0
176
     1
290
     0
176
     1
290
     1
176
     1
290
     1
176
     1
290
     0
176
     1
290
     0
176
     1
290
     0
176
     1
290
     0
176
     1
290
     0
176
     1
290
     0
176
     1
 90
       50
176
     1
 40
0.0
176
     1
 40
1.0
176
     1
 90
        0
176
     1
 62
    18
420
        0
176
     1
 90
       50
176
     1
 90
        3
176
     1
 62
     5
420
      255
176
     1
290
     0
176
     1
 90
       50
176
     1
 90
       50
176
     1
 90
       50
176
     1
290
     0
176
     1
 90
       50
176
     1
 62
   256
176
     0
 40
1.0
176
     0
 90
        2
176
     1
  1
strokes_ogs.tif
176
     1
290
     0
176
     1
 40
1.0
176
     1
 40
1.0
176
     1
  0
VISUALSTYLE
  5
30
102
{ACAD_REACTORS
330
29
102
}
330
29
100
AcDbVisualStyle
  2
Wireframe
 70
     5
177
     3
291
     0
 70
    58
 90
        0
176
     1
 90
        2
176
     1
 90
        0
176
     1
 90
        0
176
     1
 40
0.6
176
     1
 40
30.0
176
     1
 62
     7
420
 16777215
176
     1
 90
        1
176
     1
 90
        4
176
     1
 62
     7
176
     1
 62
   257
176
     1
 90
        1
176
     1
 90
        1
176
     1
 40
1.0
176
     1
 90
        0
176
     1
 62
   257
176
     1
 40
1.0
176
     1
 90
        1
176
     1
 90
        6
176
     1
 90
        2
176
     1
 62
     7
176
     1
 90
        3
176
     1
 90
        0
176
     1
 90
        0
176
     1
290
     0
176
     1
 90
        1
176
     1
 40
0.0
176
     1
 90
        0
176
     1
290
     0
176
     1
290
     1
176
     1
290
     1
176
     1
290
     0
176
     1
290
     0
176
     1
290
     0
176
     1
290
     0
176
     1
290
     0
176
     1
290
     0
176
     1
 90
       50
176
     1
 40
0.0
176
     1
 40
1.0
176
     1
 90
        0
176
     1
 62
    18
420
        0
176
     1
 90
       50
176
     1
 90
        3
176
     1
 62
     5
420
      255
176
     1
290
     0
176
     1
 90
       50
176
     1
 90
       50
176
     1
 90
       50
176
     1
290
     0
176
     1
 90
       50
176
     1
 62
   256
176
     0
 40
1.0
176
     0
 90
        2
176
     1
  1
strokes_ogs.tif
176
     1
290
     0
176
     1
 40
1.0
176
     1
 40
1.0
176
     1
  0
VISUALSTYLE
  5
3C
102
{ACAD_REACTORS
330
29
102
}
330
29
100
AcDbVisualStyle
  2
X-Ray
 70
    25
177
     3
291
     0
 70
    58
 90
        2
176
     1
 90
        2
176
     1
 90
        1
176
     1
 90
        1
176
     1
 40
0.5
176
     1
 40
30.0
176
     1
 62
     7
420
 16777215
176
     1
 90
        1
176
     1
 90
        0
176
     1
 62
     7
176
     1
 62
   257
176
     1
 90
        1
176
     1
 90
        1
176
     1
 40
1.0
176
     1
 90
        8
176
     1
 62
     7
176
     1
 40
1.0
176
     1
 90
        1
176
     1
 90
        6
176
     1
 90
        2
176
     1
 62
     7
176
     1
 90
        3
176
     1
 90
        0
176
     1
 90
        0
176
     1
290
     0
176
     1
 90
       13
176
     1
 40
0.0
176
     1
 90
        0
176
     1
290
     0
176
     1
290
     1
176
     1
290
     1
176
     1
290
     0
176
     1
290
     0
176
     1
290
     0
176
     1
290
     0
176
     1
290
     0
176
     1
290
     0
176
     1
 90
       50
176
     1
 40
0.0
176
     1
 40
1.0
176
     1
 90
        0
176
     1
 62
    18
420
        0
176
     1
 90
       50
176
     1
 90
        3
176
     1
 62
     5
420
      255
176
     1
290
     0
176
     1
 90
       50
176
     1
 90
       50
176
     1
 90
       50
176
     1
290
     0
176
     1
 90
       50
176
     1
 62
   256
176
     0
 40
1.0
176
     0
 90
        2
176
     1
  1
strokes_ogs.tif
176
     1
290
     0
176
     1
 40
1.0
176
     1
 40
1.0
176
     1
  0
DICTIONARYVAR
  5
1A1
102
{ACAD_REACTORS
330
19C
102
}
330
19C
100
DictionaryVariables
280
     0
  1
1:1
  0
DICTIONARYVAR
  5
19E
102
{ACAD_REACTORS
330
19C
102
}
330
19C
100
DictionaryVariables
280
     0
  1
STANDARD
  0
DICTIONARYVAR
  5
19D
102
{ACAD_REACTORS
330
19C
102
}
330
19C
100
DictionaryVariables
280
     0
  1
STANDARD
  0
DICTIONARYVAR
  5
19F
102
{ACAD_REACTORS
330
19C
102
}
330
19C
100
DictionaryVariables
280
     0
  1
Imperial24
  0
DICTIONARYVAR
  5
1A0
102
{ACAD_REACTORS
330
19C
102
}
330
19C
100
DictionaryVariables
280
     0
  1
Imperial24
  0
DICTIONARY
  5
1A
330
19
100
AcDbDictionary
280
     1
281
     1
  3
BUMPTILE
360
1C
  3
DIFFUSETILE
360
1B
  3
OPACITYTILE
360
1F
  3
REFLECTIONTILE
360
1E
  3
REFRACTIONTILE
360
20
  3
SPECULARTILE
360
1D
  0
DICTIONARY
  5
12
330
11
100
AcDbDictionary
280
     1
281
     1
  3
BUMPTILE
360
14
  3
DIFFUSETILE
360
13
  3
OPACITYTILE
360
17
  3
REFLECTIONTILE
360
16
  3
REFRACTIONTILE
360
18
  3
SPECULARTILE
360
15
  0
DICTIONARY
  5
22
330
21
100
AcDbDictionary
280
     1
281
     1
  3
BUMPTILE
360
24
  3
DIFFUSETILE
360
23
  3
OPACITYTILE
360
27
  3
REFLECTIONTILE
360
26
  3
REFRACTIONTILE
360
28
  3
SPECULARTILE
360
25
  0
DICTIONARY
  5
1A2
330
65
100
AcDbDictionary
280
     1
281
     1
  3
ACAD_ROUNDTRIP_2008_TABLESTYLE_CELLSTYLEMAP
360
1A3
  0
XRECORD
  5
1C
102
{ACAD_REACTORS
330
1A
102
}
330
1A
100
AcDbXrecord
280
     1
270
     1
271
     1
  0
XRECORD
  5
1B
102
{ACAD_REACTORS
330
1A
102
}
330
1A
100
AcDbXrecord
280
     1
270
     1
271
     1
  0
XRECORD
  5
1F
102
{ACAD_REACTORS
330
1A
102
}
330
1A
100
AcDbXrecord
280
     1
270
     1
271
     1
  0
XRECORD
  5
1E
102
{ACAD_REACTORS
330
1A
102
}
330
1A
100
AcDbXrecord
280
     1
270
     1
271
     1
  0
XRECORD
  5
20
102
{ACAD_REACTORS
330
1A
102
}
330
1A
100
AcDbXrecord
280
     1
270
     1
271
     1
  0
XRECORD
  5
1D
102
{ACAD_REACTORS
330
1A
102
}
330
1A
100
AcDbXrecord
280
     1
270
     1
271
     1
  0
XRECORD
  5
14
102
{ACAD_REACTORS
330
12
102
}
330
12
100
AcDbXrecord
280
     1
270
     1
271
     1
  0
XRECORD
  5
13
102
{ACAD_REACTORS
330
12
102
}
330
12
100
AcDbXrecord
280
     1
270
     1
271
     1
  0
XRECORD
  5
17
102
{ACAD_REACTORS
330
12
102
}
330
12
100
AcDbXrecord
280
     1
270
     1
271
     1
  0
XRECORD
  5
16
102
{ACAD_REACTORS
330
12
102
}
330
12
100
AcDbXrecord
280
     1
270
     1
271
     1
  0
XRECORD
  5
18
102
{ACAD_REACTORS
330
12
102
}
330
12
100
AcDbXrecord
280
     1
270
     1
271
     1
  0
XRECORD
  5
15
102
{ACAD_REACTORS
330
12
102
}
330
12
100
AcDbXrecord
280
     1
270
     1
271
     1
  0
XRECORD
  5
24
102
{ACAD_REACTORS
330
22
102
}
330
22
100
AcDbXrecord
280
     1
270
     1
271
     1
  0
XRECORD
  5
23
102
{ACAD_REACTORS
330
22
102
}
330
22
100
AcDbXrecord
280
     1
270
     1
271
     1
  0
XRECORD
  5
27
102
{ACAD_REACTORS
330
22
102
}
330
22
100
AcDbXrecord
280
     1
270
     1
271
     1
  0
XRECORD
  5
26
102
{ACAD_REACTORS
330
22
102
}
330
22
100
AcDbXrecord
280
     1
270
     1
271
     1
  0
XRECORD
  5
28
102
{ACAD_REACTORS
330
22
102
}
330
22
100
AcDbXrecord
280
     1
270
     1
271
     1
  0
XRECORD
  5
25
102
{ACAD_REACTORS
330
22
102
}
330
22
100
AcDbXrecord
280
     1
270
     1
271
     1
  0
CELLSTYLEMAP
  5
1A3
102
{ACAD_REACTORS
330
1A2
102
}
330
1A2
100
AcDbCellStyleMap
 90
        3
300
CELLSTYLE
  1
TABLEFORMAT_BEGIN
 90
        5
170
     1
 91
        0
 92
    32768
 62
   257
 93
        1
300
CONTENTFORMAT
  1
CONTENTFORMAT_BEGIN
 90
        0
 91
        0
 92
      512
 93
        0
300

 40
0.0
140
1.0
 94
        5
 62
     0
340
55
144
0.25
309
CONTENTFORMAT_END
171
     0
 94
        0
309
TABLEFORMAT_END
  1
CELLSTYLE_BEGIN
 90
        1
 91
        1
300
_TITLE
309
CELLSTYLE_END
300
CELLSTYLE
  1
TABLEFORMAT_BEGIN
 90
        5
170
     1
 91
        0
 92
        0
 62
   257
 93
        1
300
CONTENTFORMAT
  1
CONTENTFORMAT_BEGIN
 90
        0
 91
        0
 92
      512
 93
        0
300

 40
0.0
140
1.0
 94
        5
 62
     0
340
55
144
0.18
309
CONTENTFORMAT_END
171
     0
 94
        0
309
TABLEFORMAT_END
  1
CELLSTYLE_BEGIN
 90
        2
 91
        1
300
_HEADER
309
CELLSTYLE_END
300
CELLSTYLE
  1
TABLEFORMAT_BEGIN
 90
        5
170
     1
 91
        0
 92
        0
 62
   257
 93
        1
300
CONTENTFORMAT
  1
CONTENTFORMAT_BEGIN
 90
        0
 91
        0
 92
      512
 93
        0
300

 40
0.0
140
1.0
 94
        2
 62
     0
340
55
144
0.18
309
CONTENTFORMAT_END
171
     0
 94
        0
309
TABLEFORMAT_END
  1
CELLSTYLE_BEGIN
 90
        3
 91
        2
300
_DATA
309
CELLSTYLE_END
  0
ENDSEC
  0
EOF
