  0
SECTION
  2
HEADER
  9
$ACADVER
  1
AC1032
  9
$ACADMAINTVER
 90
      329
  9
$DWGCODEPAGE
  3
ANSI_936
  9
$REQUIREDVERSIONS
160
                 0
  9
$INSBASE
 10
0.0
 20
0.0
 30
0.0
  9
$EXTMIN
 10
1.000000000000000E+20
 20
1.000000000000000E+20
 30
1.000000000000000E+20
  9
$EXTMAX
 10
-1.000000000000000E+20
 20
-1.000000000000000E+20
 30
-1.000000000000000E+20
  9
$LIMMIN
 10
0.0
 20
0.0
  9
$LIMMAX
 10
12.0
 20
9.0
  9
$ORTHOMODE
 70
     0
  9
$REGENMODE
 70
     1
  9
$FILLMODE
 70
     1
  9
$QTEXTMODE
 70
     0
  9
$MIRRTEXT
 70
     0
  9
$LTSCALE
 40
1.0
  9
$ATTMODE
 70
     1
  9
$TEXTSIZE
 40
0.2
  9
$TRACEWID
 40
0.05
  9
$TEXTSTYLE
  7
Standard
  9
$CLAYER
  8
0
  9
$CELTYPE
  6
ByLayer
  9
$CECOLOR
 62
   256
  9
$CELTSCALE
 40
1.0
  9
$DISPSILH
 70
     0
  9
$DIMSCALE
 40
1.0
  9
$DIMASZ
 40
0.18
  9
$DIMEXO
 40
0.0625
  9
$DIMDLI
 40
0.38
  9
$DIMRND
 40
0.0
  9
$DIMDLE
 40
0.0
  9
$DIMEXE
 40
0.18
  9
$DIMTP
 40
0.0
  9
$DIMTM
 40
0.0
  9
$DIMTXT
 40
0.18
  9
$DIMCEN
 40
0.09
  9
$DIMTSZ
 40
0.0
  9
$DIMTOL
 70
     0
  9
$DIMLIM
 70
     0
  9
$DIMTIH
 70
     1
  9
$DIMTOH
 70
     1
  9
$DIMSE1
 70
     0
  9
$DIMSE2
 70
     0
  9
$DIMTAD
 70
     0
  9
$DIMZIN
 70
     0
  9
$DIMBLK
  1

  9
$DIMASO
 70
     1
  9
$DIMSHO
 70
     1
  9
$DIMPOST
  1

  9
$DIMAPOST
  1

  9
$DIMALT
 70
     0
  9
$DIMALTD
 70
     2
  9
$DIMALTF
 40
25.4
  9
$DIMLFAC
 40
1.0
  9
$DIMTOFL
 70
     0
  9
$DIMTVP
 40
0.0
  9
$DIMTIX
 70
     0
  9
$DIMSOXD
 70
     0
  9
$DIMSAH
 70
     0
  9
$DIMBLK1
  1

  9
$DIMBLK2
  1

  9
$DIMSTYLE
  2
Standard
  9
$DIMCLRD
 70
     0
  9
$DIMCLRE
 70
     0
  9
$DIMCLRT
 70
     0
  9
$DIMTFAC
 40
1.0
  9
$DIMGAP
 40
0.09
  9
$DIMJUST
 70
     0
  9
$DIMSD1
 70
     0
  9
$DIMSD2
 70
     0
  9
$DIMTOLJ
 70
     1
  9
$DIMTZIN
 70
     0
  9
$DIMALTZ
 70
     0
  9
$DIMALTTZ
 70
     0
  9
$DIMUPT
 70
     0
  9
$DIMDEC
 70
     4
  9
$DIMTDEC
 70
     4
  9
$DIMALTU
 70
     2
  9
$DIMALTTD
 70
     2
  9
$DIMTXSTY
  7
Standard
  9
$DIMAUNIT
 70
     0
  9
$DIMADEC
 70
     0
  9
$DIMALTRND
 40
0.0
  9
$DIMAZIN
 70
     0
  9
$DIMDSEP
 70
    46
  9
$DIMATFIT
 70
     3
  9
$DIMFRAC
 70
     0
  9
$DIMLDRBLK
  1

  9
$DIMLUNIT
 70
     2
  9
$DIMLWD
 70
    -2
  9
$DIMLWE
 70
    -2
  9
$DIMTMOVE
 70
     0
  9
$DIMFXL
 40
1.0
  9
$DIMFXLON
 70
     0
  9
$DIMJOGANG
 40
0.7853981633974483
  9
$DIMTFILL
 70
     0
  9
$DIMTFILLCLR
 70
     0
  9
$DIMARCSYM
 70
     0
  9
$DIMLTYPE
  6

  9
$DIMLTEX1
  6

  9
$DIMLTEX2
  6

  9
$DIMTXTDIRECTION
 70
     0
  9
$LUNITS
 70
     2
  9
$LUPREC
 70
     4
  9
$SKETCHINC
 40
0.1
  9
$FILLETRAD
 40
0.0
  9
$AUNITS
 70
     0
  9
$AUPREC
 70
     0
  9
$MENU
  1
.
  9
$ELEVATION
 40
0.0
  9
$PELEVATION
 40
0.0
  9
$THICKNESS
 40
0.0
  9
$LIMCHECK
 70
     0
  9
$CHAMFERA
 40
0.0
  9
$CHAMFERB
 40
0.0
  9
$CHAMFERC
 40
0.0
  9
$CHAMFERD
 40
0.0
  9
$SKPOLY
 70
     0
  9
$TDCREATE
 40
2460931.823900463
  9
$TDUCREATE
 40
2460931.490567130
  9
$TDUPDATE
 40
2460931.823900463
  9
$TDUUPDATE
 40
2460931.490567130
  9
$TDINDWG
 40
0.0000000000
  9
$TDUSRTIMER
 40
0.0000000000
  9
$USRTIMER
 70
     1
  9
$ANGBASE
 50
0.0
  9
$ANGDIR
 70
     0
  9
$PDMODE
 70
     0
  9
$PDSIZE
 40
0.0
  9
$PLINEWID
 40
0.0
  9
$SPLFRAME
 70
     0
  9
$SPLINETYPE
 70
     6
  9
$SPLINESEGS
 70
     8
  9
$HANDSEED
  5
EA
  9
$SURFTAB1
 70
     6
  9
$SURFTAB2
 70
     6
  9
$SURFTYPE
 70
     6
  9
$SURFU
 70
     6
  9
$SURFV
 70
     6
  9
$UCSBASE
  2

  9
$UCSNAME
  2

  9
$UCSORG
 10
0.0
 20
0.0
 30
0.0
  9
$UCSXDIR
 10
1.0
 20
0.0
 30
0.0
  9
$UCSYDIR
 10
0.0
 20
1.0
 30
0.0
  9
$UCSORTHOREF
  2

  9
$UCSORTHOVIEW
 70
     0
  9
$UCSORGTOP
 10
0.0
 20
0.0
 30
0.0
  9
$UCSORGBOTTOM
 10
0.0
 20
0.0
 30
0.0
  9
$UCSORGLEFT
 10
0.0
 20
0.0
 30
0.0
  9
$UCSORGRIGHT
 10
0.0
 20
0.0
 30
0.0
  9
$UCSORGFRONT
 10
0.0
 20
0.0
 30
0.0
  9
$UCSORGBACK
 10
0.0
 20
0.0
 30
0.0
  9
$PUCSBASE
  2

  9
$PUCSNAME
  2

  9
$PUCSORG
 10
0.0
 20
0.0
 30
0.0
  9
$PUCSXDIR
 10
1.0
 20
0.0
 30
0.0
  9
$PUCSYDIR
 10
0.0
 20
1.0
 30
0.0
  9
$PUCSORTHOREF
  2

  9
$PUCSORTHOVIEW
 70
     0
  9
$PUCSORGTOP
 10
0.0
 20
0.0
 30
0.0
  9
$PUCSORGBOTTOM
 10
0.0
 20
0.0
 30
0.0
  9
$PUCSORGLEFT
 10
0.0
 20
0.0
 30
0.0
  9
$PUCSORGRIGHT
 10
0.0
 20
0.0
 30
0.0
  9
$PUCSORGFRONT
 10
0.0
 20
0.0
 30
0.0
  9
$PUCSORGBACK
 10
0.0
 20
0.0
 30
0.0
  9
$USERI1
 70
     0
  9
$USERI2
 70
     0
  9
$USERI3
 70
     0
  9
$USERI4
 70
     0
  9
$USERI5
 70
     0
  9
$USERR1
 40
0.0
  9
$USERR2
 40
0.0
  9
$USERR3
 40
0.0
  9
$USERR4
 40
0.0
  9
$USERR5
 40
0.0
  9
$WORLDVIEW
 70
     1
  9
$SHADEDGE
 70
     3
  9
$SHADEDIF
 70
    70
  9
$TILEMODE
 70
     1
  9
$MAXACTVP
 70
    64
  9
$PINSBASE
 10
0.0
 20
0.0
 30
0.0
  9
$PLIMCHECK
 70
     0
  9
$PEXTMIN
 10
1.000000000000000E+20
 20
1.000000000000000E+20
 30
1.000000000000000E+20
  9
$PEXTMAX
 10
-1.000000000000000E+20
 20
-1.000000000000000E+20
 30
-1.000000000000000E+20
  9
$PLIMMIN
 10
0.0
 20
0.0
  9
$PLIMMAX
 10
12.0
 20
9.0
  9
$UNITMODE
 70
     0
  9
$VISRETAIN
 70
     1
  9
$PLINEGEN
 70
     0
  9
$PSLTSCALE
 70
     1
  9
$TREEDEPTH
 70
  3020
  9
$CMLSTYLE
  2
Standard
  9
$CMLJUST
 70
     0
  9
$CMLSCALE
 40
1.0
  9
$PROXYGRAPHICS
 70
     1
  9
$MEASUREMENT
 70
     0
  9
$CELWEIGHT
370
    -1
  9
$ENDCAPS
280
     0
  9
$JOINSTYLE
280
     0
  9
$LWDISPLAY
290
     1
  9
$INSUNITS
 70
     0
  9
$HYPERLINKBASE
  1

  9
$STYLESHEET
  1

  9
$XEDIT
290
     1
  9
$CEPSNTYPE
380
     0
  9
$PSTYLEMODE
290
     1
  9
$FINGERPRINTGUID
  2
{9BEB6E44-FC93-214B-8FC8-AF481D6AB1D2}
  9
$VERSIONGUID
  2
{8F8FA83A-6475-374A-A616-505511792247}
  9
$EXTNAMES
290
     1
  9
$PSVPSCALE
 40
0.0
  9
$OLESTARTUP
290
     0
  9
$SORTENTS
280
   127
  9
$INDEXCTL
280
     0
  9
$HIDETEXT
280
     1
  9
$XCLIPFRAME
280
     2
  9
$HALOGAP
280
     0
  9
$OBSCOLOR
 70
   257
  9
$OBSLTYPE
280
     0
  9
$INTERSECTIONDISPLAY
280
     0
  9
$INTERSECTIONCOLOR
 70
   257
  9
$DIMASSOC
280
     2
  9
$PROJECTNAME
  1

  9
$CAMERADISPLAY
290
     0
  9
$LENSLENGTH
 40
50.0
  9
$CAMERAHEIGHT
 40
0.0
  9
$STEPSPERSEC
 40
2.0
  9
$STEPSIZE
 40
6.0
  9
$3DDWFPREC
 40
2.0
  9
$PSOLWIDTH
 40
0.25
  9
$PSOLHEIGHT
 40
4.0
  9
$LOFTANG1
 40
1.570796326794896
  9
$LOFTANG2
 40
1.570796326794896
  9
$LOFTMAG1
 40
0.0
  9
$LOFTMAG2
 40
0.0
  9
$LOFTPARAM
 70
     7
  9
$LOFTNORMALS
280
     1
  9
$LATITUDE
 40
37.795
  9
$LONGITUDE
 40
-122.394
  9
$NORTHDIRECTION
 40
0.0
  9
$TIMEZONE
 70
 -8000
  9
$LIGHTGLYPHDISPLAY
280
     1
  9
$TILEMODELIGHTSYNCH
280
     1
  9
$CMATERIAL
347
11
  9
$SOLIDHIST
280
     0
  9
$SHOWHIST
280
     1
  9
$DWFFRAME
280
     2
  9
$DGNFRAME
280
     0
  9
$REALWORLDSCALE
290
     1
  9
$INTERFERECOLOR
 62
     1
  9
$INTERFEREOBJVS
345
33
  9
$INTERFEREVPVS
346
30
  9
$CSHADOW
280
     0
  9
$SHADOWPLANELOCATION
 40
0.0
  0
ENDSEC
  0
SECTION
  2
CLASSES
  0
CLASS
  1
ACDBDICTIONARYWDFLT
  2
AcDbDictionaryWithDefault
  3
ObjectDBX Classes
 90
        0
 91
        1
280
     0
281
     0
  0
CLASS
  1
MATERIAL
  2
AcDbMaterial
  3
ObjectDBX Classes
 90
     1153
 91
        3
280
     0
281
     0
  0
CLASS
  1
VISUALSTYLE
  2
AcDbVisualStyle
  3
ObjectDBX Classes
 90
     4095
 91
       24
280
     0
281
     0
  0
CLASS
  1
SCALE
  2
AcDbScale
  3
ObjectDBX Classes
 90
     1153
 91
       17
280
     0
281
     0
  0
CLASS
  1
TABLESTYLE
  2
AcDbTableStyle
  3
ObjectDBX Classes
 90
     4095
 91
        1
280
     0
281
     0
  0
CLASS
  1
MLEADERSTYLE
  2
AcDbMLeaderStyle
  3
ACDB_MLEADERSTYLE_CLASS
 90
     4095
 91
        1
280
     0
281
     0
  0
CLASS
  1
ACDBSECTIONVIEWSTYLE
  2
AcDbSectionViewStyle
  3
ObjectDBX Classes
 90
     1025
 91
        1
280
     0
281
     0
  0
CLASS
  1
ACDBDETAILVIEWSTYLE
  2
AcDbDetailViewStyle
  3
ObjectDBX Classes
 90
     1025
 91
        1
280
     0
281
     0
  0
CLASS
  1
DICTIONARYVAR
  2
AcDbDictionaryVar
  3
ObjectDBX Classes
 90
        0
 91
        5
280
     0
281
     0
  0
CLASS
  1
CELLSTYLEMAP
  2
AcDbCellStyleMap
  3
ObjectDBX Classes
 90
     1152
 91
        1
280
     0
281
     0
  0
ENDSEC
  0
SECTION
  2
TABLES
  0
TABLE
  2
VPORT
  5
8
330
0
100
AcDbSymbolTable
 70
     1
  0
VPORT
  5
57
330
8
100
AcDbSymbolTableRecord
100
AcDbViewportTableRecord
  2
*Active
 70
     0
 10
0.0
 20
0.0
 11
1.0
 21
1.0
 12
0.0
 22
0.0
 13
0.0
 23
0.0
 14
1.0
 24
1.0
 15
0.0
 25
0.0
 16
0.0
 26
0.0
 36
1.0
 17
420.9600219726562
 27
297.6600036621094
 37
0.0
 40
607.2264074707032
 41
1.41423105823284
 42
50.0
 43
0.0
 44
0.0
 50
0.0
 51
0.0
 71
     0
 72
   100
 73
     1
 74
     1
 75
     0
 76
     0
 77
     0
 78
     0
281
     0
 65
     1
110
0.0
120
0.0
130
0.0
111
1.0
121
0.0
131
0.0
112
0.0
122
1.0
132
0.0
 79
     0
146
0.0
 60
     3
 61
     5
292
     1
282
     1
141
0.0
142
0.0
 63
   250
421
  3355443
  0
ENDTAB
  0
TABLE
  2
LTYPE
  5
5
330
0
100
AcDbSymbolTable
 70
     1
  0
LTYPE
  5
5B
330
5
100
AcDbSymbolTableRecord
100
AcDbLinetypeTableRecord
  2
ByBlock
 70
     0
  3

 72
    65
 73
     0
 40
0.0
  0
LTYPE
  5
5C
330
5
100
AcDbSymbolTableRecord
100
AcDbLinetypeTableRecord
  2
ByLayer
 70
     0
  3

 72
    65
 73
     0
 40
0.0
  0
LTYPE
  5
5D
330
5
100
AcDbSymbolTableRecord
100
AcDbLinetypeTableRecord
  2
Continuous
 70
     0
  3
Solid line
 72
    65
 73
     0
 40
0.0
  0
ENDTAB
  0
TABLE
  2
LAYER
  5
2
330
0
100
AcDbSymbolTable
 70
     2
  0
LAYER
  5
54
330
2
100
AcDbSymbolTableRecord
100
AcDbLayerTableRecord
  2
0
 70
     0
 62
     7
  6
Continuous
370
    -3
390
F
347
21
348
0
  0
LAYER
  5
78
330
2
100
AcDbSymbolTableRecord
100
AcDbLayerTableRecord
  2
图层 1
 70
     0
 62
     7
  6
Continuous
370
     0
390
F
347
21
348
0
  0
ENDTAB
  0
TABLE
  2
STYLE
  5
3
330
0
100
AcDbSymbolTable
 70
     2
  0
STYLE
  5
55
330
3
100
AcDbSymbolTableRecord
100
AcDbTextStyleTableRecord
  2
Standard
 70
     0
 40
0.0
 41
1.0
 50
0.0
 71
     0
 42
0.2
  3
txt
  4

  0
STYLE
  5
5A
330
3
100
AcDbSymbolTableRecord
100
AcDbTextStyleTableRecord
  2
Annotative
 70
     0
 40
0.0
 41
1.0
 50
0.0
 71
     0
 42
0.2
  3
txt
  4

1001
AcadAnnotative
1000
AnnotativeData
1002
{
1070
     1
1070
     1
1002
}
  0
ENDTAB
  0
TABLE
  2
VIEW
  5
6
330
0
100
AcDbSymbolTable
 70
     0
  0
ENDTAB
  0
TABLE
  2
UCS
  5
7
330
0
100
AcDbSymbolTable
 70
     0
  0
ENDTAB
  0
TABLE
  2
APPID
  5
9
330
0
100
AcDbSymbolTable
 70
     2
  0
APPID
  5
56
330
9
100
AcDbSymbolTableRecord
100
AcDbRegAppTableRecord
  2
ACAD
 70
     0
  0
APPID
  5
5E
330
9
100
AcDbSymbolTableRecord
100
AcDbRegAppTableRecord
  2
AcadAnnotative
 70
     0
  0
ENDTAB
  0
TABLE
  2
DIMSTYLE
  5
A
330
0
100
AcDbSymbolTable
 70
     2
100
AcDbDimStyleTable
 71
     0
  0
DIMSTYLE
105
58
330
A
100
AcDbSymbolTableRecord
100
AcDbDimStyleTableRecord
  2
Standard
 70
     0
340
55
  0
DIMSTYLE
105
59
330
A
100
AcDbSymbolTableRecord
100
AcDbDimStyleTableRecord
  2
Annotative
 70
     0
340
55
1001
AcadAnnotative
1000
AnnotativeData
1002
{
1070
     1
1070
     1
1002
}
  0
ENDTAB
  0
TABLE
  2
BLOCK_RECORD
  5
1
330
0
100
AcDbSymbolTable
 70
     2
  0
BLOCK_RECORD
  5
70
330
1
100
AcDbSymbolTableRecord
100
AcDbBlockTableRecord
  2
*Model_Space
340
73
 70
     0
280
     1
281
     0
  0
BLOCK_RECORD
  5
6C
330
1
100
AcDbSymbolTableRecord
100
AcDbBlockTableRecord
  2
*Paper_Space
340
6F
 70
     0
280
     1
281
     0
  0
BLOCK_RECORD
  5
74
330
1
100
AcDbSymbolTableRecord
100
AcDbBlockTableRecord
  2
*Paper_Space0
340
77
 70
     0
280
     1
281
     0
  0
BLOCK_RECORD
  5
A8
330
1
100
AcDbSymbolTableRecord
100
AcDbBlockTableRecord
  2
Block_0
340
0
102
{BLKREFS
331
A9
102
}
 70
     0
280
     1
281
     0
  0
ENDTAB
  0
ENDSEC
  0
SECTION
  2
BLOCKS
  0
BLOCK
  5
71
330
70
100
AcDbEntity
  8
0
100
AcDbBlockBegin
  2
*Model_Space
 70
     0
 10
0.0
 20
0.0
 30
0.0
  3
*Model_Space
  1

  0
ENDBLK
  5
72
330
70
100
AcDbEntity
  8
0
100
AcDbBlockEnd
  0
BLOCK
  5
6D
330
6C
100
AcDbEntity
 67
     1
  8
0
100
AcDbBlockBegin
  2
*Paper_Space
 70
     0
 10
0.0
 20
0.0
 30
0.0
  3
*Paper_Space
  1

  0
ENDBLK
  5
6E
330
6C
100
AcDbEntity
 67
     1
  8
0
100
AcDbBlockEnd
  0
BLOCK
  5
75
330
74
100
AcDbEntity
 67
     1
  8
0
100
AcDbBlockBegin
  2
*Paper_Space0
 70
     0
 10
0.0
 20
0.0
 30
0.0
  3
*Paper_Space0
  1

  0
ENDBLK
  5
76
330
74
100
AcDbEntity
 67
     1
  8
0
100
AcDbBlockEnd
  0
BLOCK
  5
AA
330
A8
100
AcDbEntity
  8
0
100
AcDbBlockBegin
  2
Block_0
 70
     0
 10
0.0
 20
0.0
 30
0.0
  3
Block_0
  1

  0
SPLINE
  5
AC
330
A8
100
AcDbEntity
  8
图层 1
100
AcDbSpline
210
0.0
220
0.0
230
1.0
 70
     9
 71
     3
 72
    17
 73
    13
 74
     0
 42
0.0000000001
 43
0.0000000001
 40
0.0
 40
0.0
 40
0.0
 40
0.0
 40
1.0
 40
1.0
 40
1.0
 40
2.0
 40
2.0
 40
2.0
 40
3.0
 40
3.0
 40
3.0
 40
4.0
 40
4.0
 40
4.0
 40
4.0
 10
27.71695235112748
 20
39.61482935568529
 30
0.0
 10
20.93270591182863
 20
39.61482935568529
 30
0.0
 10
15.41186621646648
 20
34.09397969948805
 30
0.0
 10
15.41186621646648
 20
27.30714842487032
 30
0.0
 10
15.41186621646648
 20
20.52167182309859
 30
0.0
 10
20.93270591182863
 20
15.00082216690862
 30
0.0
 10
27.71695235112748
 20
15.00082216690862
 30
0.0
 10
34.50375872367386
 20
15.00082216690862
 30
0.0
 10
40.0245984190351
 20
20.52167182309859
 30
0.0
 10
40.0245984190351
 20
27.30714842487032
 30
0.0
 10
40.0245984190351
 20
34.09397969948805
 30
0.0
 10
34.50375872367386
 20
39.61482935568529
 30
0.0
 10
27.71695235112748
 20
39.61482935568529
 30
0.0
  0
SPLINE
  5
AD
330
A8
100
AcDbEntity
  8
图层 1
100
AcDbSpline
210
0.0
220
0.0
230
1.0
 70
     9
 71
     3
 72
    17
 73
    13
 74
     0
 42
0.0000000001
 43
0.0000000001
 40
0.0
 40
0.0
 40
0.0
 40
0.0
 40
1.0
 40
1.0
 40
1.0
 40
2.0
 40
2.0
 40
2.0
 40
3.0
 40
3.0
 40
3.0
 40
4.0
 40
4.0
 40
4.0
 40
4.0
 10
27.71695235112748
 20
14.30061567851226
 30
0.0
 10
20.54613108948706
 20
14.30061567851226
 30
0.0
 10
14.7116821399386
 20
20.13511194199782
 30
0.0
 10
14.7116821399386
 20
27.30714842487032
 30
0.0
 10
14.7116821399386
 20
34.48053958058881
 30
0.0
 10
20.54613108948706
 20
40.31631083028878
 30
0.0
 10
27.71695235112748
 20
40.31631083028878
 30
0.0
 10
34.88904859897684
 20
40.31631083028878
 30
0.0
 10
40.72478000535556
 20
34.48053958058881
 30
0.0
 10
40.72478000535556
 20
27.30714842487032
 30
0.0
 10
40.72478000535556
 20
20.13511194199782
 30
0.0
 10
34.88904859897684
 20
14.30061567851226
 30
0.0
 10
27.71695235112748
 20
14.30061567851226
 30
0.0
  0
HATCH
  5
AE
330
A8
100
AcDbEntity
  8
图层 1
 62
   250
420
  2236191
440
 33554687
100
AcDbHatch
 10
0.0
 20
0.0
 30
0.0
210
0.0
220
0.0
230
1.0
  2
SOLID
 70
     1
 71
     1
 91
        2
 92
        1
 93
        2
 72
     4
 94
        3
 73
     0
 74
     0
 95
       17
 96
       13
 40
0.0
 40
0.0
 40
0.0
 40
0.0
 40
1.0
 40
1.0
 40
1.0
 40
2.0
 40
2.0
 40
2.0
 40
3.0
 40
3.0
 40
3.0
 40
4.0
 40
4.0
 40
4.0
 40
4.0
 10
27.71695235112748
 20
39.61482935568529
 10
20.93270591182863
 20
39.61482935568529
 10
15.41186621646648
 20
34.09397969948805
 10
15.41186621646648
 20
27.30714842487032
 10
15.41186621646648
 20
20.52167182309859
 10
20.93270591182863
 20
15.00082216690862
 10
27.71695235112748
 20
15.00082216690862
 10
34.50375872367386
 20
15.00082216690862
 10
40.0245984190351
 20
20.52167182309859
 10
40.0245984190351
 20
27.30714842487032
 10
40.0245984190351
 20
34.09397969948805
 10
34.50375872367386
 20
39.61482935568529
 10
27.71695235112748
 20
39.61482935568529
 97
        0
 72
     1
 10
27.71695235112747
 20
39.61482935568529
 11
27.71695235112748
 21
39.61482935568529
 97
        0
 92
        1
 93
        2
 72
     4
 94
        3
 73
     0
 74
     0
 95
       17
 96
       13
 40
0.0
 40
0.0
 40
0.0
 40
0.0
 40
1.0
 40
1.0
 40
1.0
 40
2.0
 40
2.0
 40
2.0
 40
3.0
 40
3.0
 40
3.0
 40
4.0
 40
4.0
 40
4.0
 40
4.0
 10
27.71695235112748
 20
14.30061567851226
 10
20.54613108948706
 20
14.30061567851226
 10
14.7116821399386
 20
20.13511194199782
 10
14.7116821399386
 20
27.30714842487032
 10
14.7116821399386
 20
34.48053958058881
 10
20.54613108948706
 20
40.31631083028878
 10
27.71695235112748
 20
40.31631083028878
 10
34.88904859897684
 20
40.31631083028878
 10
40.72478000535556
 20
34.48053958058881
 10
40.72478000535556
 20
27.30714842487032
 10
40.72478000535556
 20
20.13511194199782
 10
34.88904859897684
 20
14.30061567851226
 10
27.71695235112748
 20
14.30061567851226
 97
        0
 72
     1
 10
27.71695235112747
 20
14.30061567851226
 11
27.71695235112748
 21
14.30061567851226
 97
        0
 75
     2
 76
     1
 98
        1
 10
0.0
 20
0.0
450
        0
451
        0
460
0.0
461
0.0
452
        0
462
0.0
453
        0
470

  0
LWPOLYLINE
  5
AF
330
A8
100
AcDbEntity
  8
图层 1
100
AcDbPolyline
 90
        8
 70
     1
 43
0.0
 10
22.03023495786965
 20
28.13668632679583
 10
22.03023495786965
 20
33.08921088053466
 10
20.57098086951464
 20
33.08921088053466
 10
20.57098086951464
 20
21.81068287991729
 10
22.03023495786965
 20
21.81068287991729
 10
22.03023495786965
 20
26.80926631044167
 10
23.64949483497913
 20
26.80926631044167
 10
23.64949483497913
 20
28.13668632679583
  0
HATCH
  5
B0
330
A8
100
AcDbEntity
  8
图层 1
 62
   250
420
  2236191
440
 33554687
100
AcDbHatch
 10
0.0
 20
0.0
 30
0.0
210
0.0
220
0.0
230
1.0
  2
SOLID
 70
     1
 71
     1
 91
        1
 92
        1
 93
        8
 72
     1
 10
22.03023495786965
 20
28.13668632679583
 11
22.03023495786965
 21
33.08921088053466
 72
     1
 10
22.03023495786965
 20
33.08921088053466
 11
20.57098086951464
 21
33.08921088053466
 72
     1
 10
20.57098086951464
 20
33.08921088053466
 11
20.57098086951464
 21
21.81068287991729
 72
     1
 10
20.57098086951464
 20
21.81068287991729
 11
22.03023495786965
 21
21.81068287991729
 72
     1
 10
22.03023495786965
 20
21.81068287991729
 11
22.03023495786965
 21
26.80926631044167
 72
     1
 10
22.03023495786965
 20
26.80926631044167
 11
23.64949483497913
 21
26.80926631044167
 72
     1
 10
23.64949483497913
 20
26.80926631044167
 11
23.64949483497913
 21
28.13668632679583
 72
     1
 10
23.64949483497913
 20
28.13668632679583
 11
22.03023495786965
 21
28.13668632679583
 97
        1
330
AF
 75
     2
 76
     1
 98
        1
 10
0.0
 20
0.0
450
        0
451
        0
460
0.0
461
0.0
452
        0
462
0.0
453
        0
470

  0
LWPOLYLINE
  5
B1
330
A8
100
AcDbEntity
  8
图层 1
100
AcDbPolyline
 90
        8
 70
     1
 43
0.0
 10
33.42429862280551
 20
28.13668632679583
 10
33.42429862280551
 20
33.08921088053466
 10
34.88227523474416
 20
33.08921088053466
 10
34.88227523474416
 20
21.81068287991729
 10
33.42429862280551
 20
21.81068287991729
 10
33.42429862280551
 20
26.80926631044167
 10
31.80760116915008
 20
26.80926631044167
 10
31.80760116915008
 20
28.13668632679583
  0
HATCH
  5
B2
330
A8
100
AcDbEntity
  8
图层 1
 62
   250
420
  2236191
440
 33554687
100
AcDbHatch
 10
0.0
 20
0.0
 30
0.0
210
0.0
220
0.0
230
1.0
  2
SOLID
 70
     1
 71
     1
 91
        1
 92
        1
 93
        8
 72
     1
 10
33.42429862280551
 20
28.13668632679583
 11
33.42429862280551
 21
33.08921088053466
 72
     1
 10
33.42429862280551
 20
33.08921088053466
 11
34.88227523474416
 21
33.08921088053466
 72
     1
 10
34.88227523474416
 20
33.08921088053466
 11
34.88227523474416
 21
21.81068287991729
 72
     1
 10
34.88227523474416
 20
21.81068287991729
 11
33.42429862280551
 21
21.81068287991729
 72
     1
 10
33.42429862280551
 20
21.81068287991729
 11
33.42429862280551
 21
26.80926631044167
 72
     1
 10
33.42429862280551
 20
26.80926631044167
 11
31.80760116915008
 21
26.80926631044167
 72
     1
 10
31.80760116915008
 20
26.80926631044167
 11
31.80760116915008
 21
28.13668632679583
 72
     1
 10
31.80760116915008
 20
28.13668632679583
 11
33.42429862280551
 21
28.13668632679583
 97
        1
330
B1
 75
     2
 76
     1
 98
        1
 10
0.0
 20
0.0
450
        0
451
        0
460
0.0
461
0.0
452
        0
462
0.0
453
        0
470

  0
SPLINE
  5
B3
330
A8
100
AcDbEntity
  8
图层 1
100
AcDbSpline
210
0.0
220
0.0
230
1.0
 70
     9
 71
     3
 72
   155
 73
   151
 74
     0
 42
0.0000000001
 43
0.0000000001
 40
0.0
 40
0.0
 40
0.0
 40
0.0
 40
1.0
 40
1.0
 40
1.0
 40
2.0
 40
2.0
 40
2.0
 40
3.0
 40
3.0
 40
3.0
 40
4.0
 40
4.0
 40
4.0
 40
5.0
 40
5.0
 40
5.0
 40
6.0
 40
6.0
 40
6.0
 40
7.0
 40
7.0
 40
7.0
 40
8.0
 40
8.0
 40
8.0
 40
9.0
 40
9.0
 40
9.0
 40
10.0
 40
10.0
 40
10.0
 40
11.0
 40
11.0
 40
11.0
 40
12.0
 40
12.0
 40
12.0
 40
13.0
 40
13.0
 40
13.0
 40
14.0
 40
14.0
 40
14.0
 40
15.0
 40
15.0
 40
15.0
 40
16.0
 40
16.0
 40
16.0
 40
17.0
 40
17.0
 40
17.0
 40
18.0
 40
18.0
 40
18.0
 40
19.0
 40
19.0
 40
19.0
 40
20.0
 40
20.0
 40
20.0
 40
21.0
 40
21.0
 40
21.0
 40
22.0
 40
22.0
 40
22.0
 40
23.0
 40
23.0
 40
23.0
 40
24.0
 40
24.0
 40
24.0
 40
25.0
 40
25.0
 40
25.0
 40
26.0
 40
26.0
 40
26.0
 40
27.0
 40
27.0
 40
27.0
 40
28.0
 40
28.0
 40
28.0
 40
29.0
 40
29.0
 40
29.0
 40
30.0
 40
30.0
 40
30.0
 40
31.0
 40
31.0
 40
31.0
 40
32.0
 40
32.0
 40
32.0
 40
33.0
 40
33.0
 40
33.0
 40
34.0
 40
34.0
 40
34.0
 40
35.0
 40
35.0
 40
35.0
 40
36.0
 40
36.0
 40
36.0
 40
37.0
 40
37.0
 40
37.0
 40
38.0
 40
38.0
 40
38.0
 40
39.0
 40
39.0
 40
39.0
 40
40.0
 40
40.0
 40
40.0
 40
41.0
 40
41.0
 40
41.0
 40
42.0
 40
42.0
 40
42.0
 40
43.0
 40
43.0
 40
43.0
 40
44.0
 40
44.0
 40
44.0
 40
45.0
 40
45.0
 40
45.0
 40
46.0
 40
46.0
 40
46.0
 40
47.0
 40
47.0
 40
47.0
 40
48.0
 40
48.0
 40
48.0
 40
49.0
 40
49.0
 40
49.0
 40
50.0
 40
50.0
 40
50.0
 40
50.0
 10
31.55108241070048
 20
26.03590748833449
 30
0.0
 10
31.33731055313911
 20
26.46215131517056
 30
0.0
 10
31.04290328851312
 20
26.82440677167142
 30
0.0
 10
30.6844927123002
 20
27.12139887161356
 30
0.0
 10
30.33759685528366
 20
27.40683640905081
 30
0.0
 10
29.9433447234087
 20
27.63721047960644
 30
0.0
 10
29.50172635584568
 20
27.8087758112888
 30
0.0
 10
29.08827223441131
 20
27.96751159425003
 30
0.0
 10
28.65945851349806
 20
28.09293836251163
 30
0.0
 10
28.23704213549445
 20
28.21071521352678
 30
0.0
 10
27.89399115876222
 20
28.30673761235448
 30
0.0
 10
27.63158056951215
 20
28.39885536592192
 30
0.0
 10
27.20404681522178
 20
28.54221162774411
 30
0.0
 10
26.83923142547701
 20
28.65616352012694
 30
0.0
 10
26.50129782503154
 20
28.79314485090799
 30
0.0
 10
26.20176820370398
 20
28.95953055112114
 30
0.0
 10
25.92655794821985
 20
29.12081630649846
 30
0.0
 10
25.69743147159352
 20
29.32688595245418
 30
0.0
 10
25.5284659164754
 20
29.56243965447902
 30
0.0
 10
25.37229753738211
 20
29.78643879398442
 30
0.0
 10
25.29549455956385
 20
30.0821559077267
 30
0.0
 10
25.29549455956385
 20
30.43923173274925
 30
0.0
 10
25.29549455956385
 20
30.68371033823496
 30
0.0
 10
25.34029588159047
 20
30.92436398509381
 30
0.0
 10
25.43118098247305
 20
31.15226776986856
 30
0.0
 10
25.52078362652719
 20
31.37244195075437
 30
0.0
 10
25.66158991593147
 20
31.57978658291904
 30
0.0
 10
25.85231490364822
 20
31.76027681806227
 30
0.0
 10
26.04816473827304
 20
31.94459201183054
 30
0.0
 10
26.30289303757491
 20
32.09432320469569
 30
0.0
 10
26.60242265890338
 20
32.20827509707851
 30
0.0
 10
26.91987679337308
 20
32.32477696188653
 30
0.0
 10
27.30260922563866
 20
32.38111541497711
 30
0.0
 10
27.74166267953933
 20
32.38111541497711
 30
0.0
 10
28.14487955819368
 20
32.38111541497711
 30
0.0
 10
28.49049046817163
 20
32.34015648302557
 30
0.0
 10
28.78618018962971
 20
32.26333856396195
 30
0.0
 10
29.07803250142479
 20
32.17887072764824
 30
0.0
 10
29.33532322418159
 20
32.08284832881873
 30
0.0
 10
29.55165003457387
 20
31.95742156055167
 30
0.0
 10
29.75261724548455
 20
31.84091969575093
 30
0.0
 10
29.93822485691544
 20
31.70393836497169
 30
0.0
 10
30.09054835572261
 20
31.56185708935664
 30
0.0
 10
30.25055414447706
 20
31.40439629260436
 30
0.0
 10
30.37344090115494
 20
31.26749464846762
 30
0.0
 10
30.46688344507766
 20
31.14581315219039
 30
0.0
 10
30.46688344507766
 20
31.14581315219039
 30
0.0
 10
30.65248856630024
 20
30.89368462945458
 30
0.0
 10
30.65248856630024
 20
30.89368462945458
 30
0.0
 10
30.65248856630024
 20
30.89368462945458
 30
0.0
 10
31.69828604301438
 20
31.78330625645322
 30
0.0
 10
31.69828604301438
 20
31.78330625645322
 30
0.0
 10
31.69828604301438
 20
31.78330625645322
 30
0.0
 10
31.5382802542581
 20
32.00603040975511
 30
0.0
 10
31.5382802542581
 20
32.00603040975511
 30
0.0
 10
31.4102786115036
 20
32.18142070006434
 30
0.0
 10
31.23746817609936
 20
32.3733858110827
 30
0.0
 10
31.02114136570708
 20
32.58591007472023
 30
0.0
 10
30.80865445518521
 20
32.79325470688309
 30
0.0
 10
30.54624386593605
 20
32.98011987306927
 30
0.0
 10
30.23647451162015
 20
33.15551016337849
 30
0.0
 10
29.9433447234087
 20
33.31679591875764
 30
0.0
 10
29.58237172374266
 20
33.45887719437087
 30
0.0
 10
29.17275501197219
 20
33.5779290315877
 30
0.0
 10
28.76826065690148
 20
33.68805596535276
 30
0.0
 10
28.29720305700084
 20
33.74303974559189
 30
0.0
 10
27.77878669203256
 20
33.74303974559189
 30
0.0
 10
27.17332512605208
 20
33.74303974559189
 30
0.0
 10
26.62162215825447
 20
33.65857190927818
 30
0.0
 10
26.14160728219668
 20
33.49218620906504
 30
0.0
 10
25.66158991593147
 20
33.3258005088519
 30
0.0
 10
25.24557337104307
 20
33.0889718206181
 30
0.0
 10
24.90508232755928
 20
32.79325470688309
 30
0.0
 10
24.55947141758043
 20
32.50016725219575
 30
0.0
 10
24.29322092846087
 20
32.14046176811826
 30
0.0
 10
24.11273318352324
 20
31.74234732450532
 30
0.0
 10
23.93608533845691
 20
31.33785794985124
 30
0.0
 10
23.84520272778082
 20
30.91288910921685
 30
0.0
 10
23.84520272778082
 20
30.47636570607756
 30
0.0
 10
23.84520272778082
 20
29.84405223328577
 30
0.0
 10
23.96552706100283
 20
29.31286110416113
 30
0.0
 10
24.2087381509009
 20
28.88916724973569
 30
0.0
 10
24.4545066838391
 20
28.48332320223562
 30
0.0
 10
24.76939839485658
 20
28.14417687076821
 30
0.0
 10
25.15213082712035
 20
27.88559373035241
 30
0.0
 10
25.51566376003393
 20
27.62956056235453
 30
0.0
 10
25.94447997115549
 20
27.42731587502385
 30
0.0
 10
26.41937747092652
 20
27.26985507827158
 30
0.0
 10
26.84307132534741
 20
27.12649881644757
 30
0.0
 10
27.1195640376618
 20
27.02665145899482
 30
0.0
 10
27.62518073639512
 20
26.8704656484515
 30
0.0
 10
27.98615124585467
 20
26.76169338753789
 30
0.0
 10
28.34712673572813
 20
26.64901648135492
 30
0.0
 10
28.69402010253634
 20
26.52103974067904
 30
0.0
 10
29.02554888945088
 20
26.40198790345312
 30
0.0
 10
29.32252106774013
 20
26.24843175196839
 30
0.0
 10
29.57596940041822
 20
26.06403687155944
 30
0.0
 10
29.82557783322591
 20
25.87334674674639
 30
0.0
 10
30.02526756772204
 20
25.64552264861049
 30
0.0
 10
30.16991375699581
 20
25.38821449440366
 30
0.0
 10
30.31711738930972
 20
25.13218132640577
 30
0.0
 10
30.39264040050603
 20
24.8019598983974
 30
0.0
 10
30.39264040050603
 20
24.42559990696646
 30
0.0
 10
30.39264040050603
 20
24.06971938150855
 30
0.0
 10
30.32479967925701
 20
23.74842285695923
 30
0.0
 10
30.1929531562173
 20
23.4707149234182
 30
0.0
 10
30.05214686681302
 20
23.19675226186337
 30
0.0
 10
29.86654174559044
 20
22.9727531223507
 30
0.0
 10
29.63357287888539
 20
22.80254246351251
 30
0.0
 10
29.38908431257005
 20
22.61687259689279
 30
0.0
 10
29.08571230116559
 20
22.47479132128501
 30
0.0
 10
28.74394129105622
 20
22.38394855392835
 30
0.0
 10
28.39704792424891
 20
22.28920114130233
 30
0.0
 10
28.00279330216654
 20
22.23413767442616
 30
0.0
 10
27.56885971475822
 20
22.23413767442616
 30
0.0
 10
26.81875195950306
 20
22.23413767442616
 30
0.0
 10
26.18384867097575
 20
22.38139858151044
 30
0.0
 10
25.6756695487893
 20
22.65528155642824
 30
0.0
 10
25.18285251628913
 20
22.92924421798125
 30
0.0
 10
24.75019640529718
 20
23.27994511196994
 30
0.0
 10
24.3866634723845
 20
23.70108899397201
 30
0.0
 10
24.3866634723845
 20
23.70108899397201
 30
0.0
 10
23.33446616255333
 20
22.68859057112241
 30
0.0
 10
23.33446616255333
 20
22.68859057112241
 30
0.0
 10
23.50086929421832
 20
22.47869596654709
 30
0.0
 10
23.70183899533731
 20
22.2712716477472
 30
0.0
 10
23.94120520495107
 20
22.07285191904702
 30
0.0
 10
24.21513798401793
 20
21.84502782091113
 30
0.0
 10
24.54026693781452
 20
21.63768318874463
 30
0.0
 10
24.91148216067632
 20
21.45719295360323
 30
0.0
 10
25.26605532722533
 20
21.27925269087791
 30
0.0
 10
25.67182964891799
 20
21.13717141526286
 30
0.0
 10
26.12496771609222
 20
21.01811957804421
 30
0.0
 10
26.57426339318863
 20
20.91572224816809
 30
0.0
 10
27.06196055919372
 20
20.85683382266688
 30
0.0
 10
27.56885971475822
 20
20.85683382266688
 30
0.0
 10
28.15511929118111
 20
20.85683382266688
 30
0.0
 10
28.71705950175874
 20
20.93492672793764
 30
0.0
 10
29.2367583235573
 20
21.09876245573468
 30
0.0
 10
29.76029953543275
 20
21.26132319732096
 30
0.0
 10
30.21727252206074
 20
21.49560191313685
 30
0.0
 10
30.61152714414402
 20
21.80024393033273
 30
0.0
 10
30.9981019664865
 20
22.10616093374301
 30
0.0
 10
31.30915128742527
 20
22.481245938965
 30
0.0
 10
31.542117663922
 20
22.92023962788698
 30
0.0
 10
31.77509151104005
 20
23.36831759354573
 30
0.0
 10
31.88901601114594
 20
23.87392931186332
 30
0.0
 10
31.88901601114594
 20
24.42559990696646
 30
0.0
 10
31.88901601114594
 20
25.05663839354929
 30
0.0
 10
31.77636898745641
 20
25.60065907139506
 30
0.0
 10
31.55108241070048
 20
26.03590748833449
 30
0.0
  0
HATCH
  5
B4
330
A8
100
AcDbEntity
  8
图层 1
 62
   250
420
  2236191
440
 33554687
100
AcDbHatch
 10
0.0
 20
0.0
 30
0.0
210
0.0
220
0.0
230
1.0
  2
SOLID
 70
     1
 71
     1
 91
        1
 92
        1
 93
        2
 72
     4
 94
        3
 73
     0
 74
     0
 95
      155
 96
      151
 40
0.0
 40
0.0
 40
0.0
 40
0.0
 40
1.0
 40
1.0
 40
1.0
 40
2.0
 40
2.0
 40
2.0
 40
3.0
 40
3.0
 40
3.0
 40
4.0
 40
4.0
 40
4.0
 40
5.0
 40
5.0
 40
5.0
 40
6.0
 40
6.0
 40
6.0
 40
7.0
 40
7.0
 40
7.0
 40
8.0
 40
8.0
 40
8.0
 40
9.0
 40
9.0
 40
9.0
 40
10.0
 40
10.0
 40
10.0
 40
11.0
 40
11.0
 40
11.0
 40
12.0
 40
12.0
 40
12.0
 40
13.0
 40
13.0
 40
13.0
 40
14.0
 40
14.0
 40
14.0
 40
15.0
 40
15.0
 40
15.0
 40
16.0
 40
16.0
 40
16.0
 40
17.0
 40
17.0
 40
17.0
 40
18.0
 40
18.0
 40
18.0
 40
19.0
 40
19.0
 40
19.0
 40
20.0
 40
20.0
 40
20.0
 40
21.0
 40
21.0
 40
21.0
 40
22.0
 40
22.0
 40
22.0
 40
23.0
 40
23.0
 40
23.0
 40
24.0
 40
24.0
 40
24.0
 40
25.0
 40
25.0
 40
25.0
 40
26.0
 40
26.0
 40
26.0
 40
27.0
 40
27.0
 40
27.0
 40
28.0
 40
28.0
 40
28.0
 40
29.0
 40
29.0
 40
29.0
 40
30.0
 40
30.0
 40
30.0
 40
31.0
 40
31.0
 40
31.0
 40
32.0
 40
32.0
 40
32.0
 40
33.0
 40
33.0
 40
33.0
 40
34.0
 40
34.0
 40
34.0
 40
35.0
 40
35.0
 40
35.0
 40
36.0
 40
36.0
 40
36.0
 40
37.0
 40
37.0
 40
37.0
 40
38.0
 40
38.0
 40
38.0
 40
39.0
 40
39.0
 40
39.0
 40
40.0
 40
40.0
 40
40.0
 40
41.0
 40
41.0
 40
41.0
 40
42.0
 40
42.0
 40
42.0
 40
43.0
 40
43.0
 40
43.0
 40
44.0
 40
44.0
 40
44.0
 40
45.0
 40
45.0
 40
45.0
 40
46.0
 40
46.0
 40
46.0
 40
47.0
 40
47.0
 40
47.0
 40
48.0
 40
48.0
 40
48.0
 40
49.0
 40
49.0
 40
49.0
 40
50.0
 40
50.0
 40
50.0
 40
50.0
 10
31.55108241070048
 20
26.03590748833449
 10
31.33731055313911
 20
26.46215131517056
 10
31.04290328851312
 20
26.82440677167142
 10
30.6844927123002
 20
27.12139887161356
 10
30.33759685528366
 20
27.40683640905081
 10
29.9433447234087
 20
27.63721047960644
 10
29.50172635584568
 20
27.8087758112888
 10
29.08827223441131
 20
27.96751159425003
 10
28.65945851349806
 20
28.09293836251163
 10
28.23704213549445
 20
28.21071521352678
 10
27.89399115876222
 20
28.30673761235448
 10
27.63158056951215
 20
28.39885536592192
 10
27.20404681522178
 20
28.54221162774411
 10
26.83923142547701
 20
28.65616352012694
 10
26.50129782503154
 20
28.79314485090799
 10
26.20176820370398
 20
28.95953055112114
 10
25.92655794821985
 20
29.12081630649846
 10
25.69743147159352
 20
29.32688595245418
 10
25.5284659164754
 20
29.56243965447902
 10
25.37229753738211
 20
29.78643879398442
 10
25.29549455956385
 20
30.0821559077267
 10
25.29549455956385
 20
30.43923173274925
 10
25.29549455956385
 20
30.68371033823496
 10
25.34029588159047
 20
30.92436398509381
 10
25.43118098247305
 20
31.15226776986856
 10
25.52078362652719
 20
31.37244195075437
 10
25.66158991593147
 20
31.57978658291904
 10
25.85231490364822
 20
31.76027681806227
 10
26.04816473827304
 20
31.94459201183054
 10
26.30289303757491
 20
32.09432320469569
 10
26.60242265890338
 20
32.20827509707851
 10
26.91987679337308
 20
32.32477696188653
 10
27.30260922563866
 20
32.38111541497711
 10
27.74166267953933
 20
32.38111541497711
 10
28.14487955819368
 20
32.38111541497711
 10
28.49049046817163
 20
32.34015648302557
 10
28.78618018962971
 20
32.26333856396195
 10
29.07803250142479
 20
32.17887072764824
 10
29.33532322418159
 20
32.08284832881873
 10
29.55165003457387
 20
31.95742156055167
 10
29.75261724548455
 20
31.84091969575093
 10
29.93822485691544
 20
31.70393836497169
 10
30.09054835572261
 20
31.56185708935664
 10
30.25055414447706
 20
31.40439629260436
 10
30.37344090115494
 20
31.26749464846762
 10
30.46688344507766
 20
31.14581315219039
 10
30.46688344507766
 20
31.14581315219039
 10
30.65248856630024
 20
30.89368462945458
 10
30.65248856630024
 20
30.89368462945458
 10
30.65248856630024
 20
30.89368462945458
 10
31.69828604301438
 20
31.78330625645322
 10
31.69828604301438
 20
31.78330625645322
 10
31.69828604301438
 20
31.78330625645322
 10
31.5382802542581
 20
32.00603040975511
 10
31.5382802542581
 20
32.00603040975511
 10
31.4102786115036
 20
32.18142070006434
 10
31.23746817609936
 20
32.3733858110827
 10
31.02114136570708
 20
32.58591007472023
 10
30.80865445518521
 20
32.79325470688309
 10
30.54624386593605
 20
32.98011987306927
 10
30.23647451162015
 20
33.15551016337849
 10
29.9433447234087
 20
33.31679591875764
 10
29.58237172374266
 20
33.45887719437087
 10
29.17275501197219
 20
33.5779290315877
 10
28.76826065690148
 20
33.68805596535276
 10
28.29720305700084
 20
33.74303974559189
 10
27.77878669203256
 20
33.74303974559189
 10
27.17332512605208
 20
33.74303974559189
 10
26.62162215825447
 20
33.65857190927818
 10
26.14160728219668
 20
33.49218620906504
 10
25.66158991593147
 20
33.3258005088519
 10
25.24557337104307
 20
33.0889718206181
 10
24.90508232755928
 20
32.79325470688309
 10
24.55947141758043
 20
32.50016725219575
 10
24.29322092846087
 20
32.14046176811826
 10
24.11273318352324
 20
31.74234732450532
 10
23.93608533845691
 20
31.33785794985124
 10
23.84520272778082
 20
30.91288910921685
 10
23.84520272778082
 20
30.47636570607756
 10
23.84520272778082
 20
29.84405223328577
 10
23.96552706100283
 20
29.31286110416113
 10
24.2087381509009
 20
28.88916724973569
 10
24.4545066838391
 20
28.48332320223562
 10
24.76939839485658
 20
28.14417687076821
 10
25.15213082712035
 20
27.88559373035241
 10
25.51566376003393
 20
27.62956056235453
 10
25.94447997115549
 20
27.42731587502385
 10
26.41937747092652
 20
27.26985507827158
 10
26.84307132534741
 20
27.12649881644757
 10
27.1195640376618
 20
27.02665145899482
 10
27.62518073639512
 20
26.8704656484515
 10
27.98615124585467
 20
26.76169338753789
 10
28.34712673572813
 20
26.64901648135492
 10
28.69402010253634
 20
26.52103974067904
 10
29.02554888945088
 20
26.40198790345312
 10
29.32252106774013
 20
26.24843175196839
 10
29.57596940041822
 20
26.06403687155944
 10
29.82557783322591
 20
25.87334674674639
 10
30.02526756772204
 20
25.64552264861049
 10
30.16991375699581
 20
25.38821449440366
 10
30.31711738930972
 20
25.13218132640577
 10
30.39264040050603
 20
24.8019598983974
 10
30.39264040050603
 20
24.42559990696646
 10
30.39264040050603
 20
24.06971938150855
 10
30.32479967925701
 20
23.74842285695923
 10
30.1929531562173
 20
23.4707149234182
 10
30.05214686681302
 20
23.19675226186337
 10
29.86654174559044
 20
22.9727531223507
 10
29.63357287888539
 20
22.80254246351251
 10
29.38908431257005
 20
22.61687259689279
 10
29.08571230116559
 20
22.47479132128501
 10
28.74394129105622
 20
22.38394855392835
 10
28.39704792424891
 20
22.28920114130233
 10
28.00279330216654
 20
22.23413767442616
 10
27.56885971475822
 20
22.23413767442616
 10
26.81875195950306
 20
22.23413767442616
 10
26.18384867097575
 20
22.38139858151044
 10
25.6756695487893
 20
22.65528155642824
 10
25.18285251628913
 20
22.92924421798125
 10
24.75019640529718
 20
23.27994511196994
 10
24.3866634723845
 20
23.70108899397201
 10
24.3866634723845
 20
23.70108899397201
 10
23.33446616255333
 20
22.68859057112241
 10
23.33446616255333
 20
22.68859057112241
 10
23.50086929421832
 20
22.47869596654709
 10
23.70183899533731
 20
22.2712716477472
 10
23.94120520495107
 20
22.07285191904702
 10
24.21513798401793
 20
21.84502782091113
 10
24.54026693781452
 20
21.63768318874463
 10
24.91148216067632
 20
21.45719295360323
 10
25.26605532722533
 20
21.27925269087791
 10
25.67182964891799
 20
21.13717141526286
 10
26.12496771609222
 20
21.01811957804421
 10
26.57426339318863
 20
20.91572224816809
 10
27.06196055919372
 20
20.85683382266688
 10
27.56885971475822
 20
20.85683382266688
 10
28.15511929118111
 20
20.85683382266688
 10
28.71705950175874
 20
20.93492672793764
 10
29.2367583235573
 20
21.09876245573468
 10
29.76029953543275
 20
21.26132319732096
 10
30.21727252206074
 20
21.49560191313685
 10
30.61152714414402
 20
21.80024393033273
 10
30.9981019664865
 20
22.10616093374301
 10
31.30915128742527
 20
22.481245938965
 10
31.542117663922
 20
22.92023962788698
 10
31.77509151104005
 20
23.36831759354573
 10
31.88901601114594
 20
23.87392931186332
 10
31.88901601114594
 20
24.42559990696646
 10
31.88901601114594
 20
25.05663839354929
 10
31.77636898745641
 20
25.60065907139506
 10
31.55108241070048
 20
26.03590748833449
 97
        0
 72
     1
 10
31.55108241070048
 20
26.03590748833449
 11
31.55108241070048
 21
26.03590748833449
 97
        0
 75
     2
 76
     1
 98
        1
 10
0.0
 20
0.0
450
        0
451
        0
460
0.0
461
0.0
452
        0
462
0.0
453
        0
470

  0
SPLINE
  5
B5
330
A8
100
AcDbEntity
  8
图层 1
100
AcDbSpline
210
0.0
220
0.0
230
1.0
 70
     9
 71
     3
 72
   149
 73
   145
 74
     0
 42
0.0000000001
 43
0.0000000001
 40
0.0
 40
0.0
 40
0.0
 40
0.0
 40
1.0
 40
1.0
 40
1.0
 40
2.0
 40
2.0
 40
2.0
 40
3.0
 40
3.0
 40
3.0
 40
4.0
 40
4.0
 40
4.0
 40
5.0
 40
5.0
 40
5.0
 40
6.0
 40
6.0
 40
6.0
 40
7.0
 40
7.0
 40
7.0
 40
8.0
 40
8.0
 40
8.0
 40
9.0
 40
9.0
 40
9.0
 40
10.0
 40
10.0
 40
10.0
 40
11.0
 40
11.0
 40
11.0
 40
12.0
 40
12.0
 40
12.0
 40
13.0
 40
13.0
 40
13.0
 40
14.0
 40
14.0
 40
14.0
 40
15.0
 40
15.0
 40
15.0
 40
16.0
 40
16.0
 40
16.0
 40
17.0
 40
17.0
 40
17.0
 40
18.0
 40
18.0
 40
18.0
 40
19.0
 40
19.0
 40
19.0
 40
20.0
 40
20.0
 40
20.0
 40
21.0
 40
21.0
 40
21.0
 40
22.0
 40
22.0
 40
22.0
 40
23.0
 40
23.0
 40
23.0
 40
24.0
 40
24.0
 40
24.0
 40
25.0
 40
25.0
 40
25.0
 40
26.0
 40
26.0
 40
26.0
 40
27.0
 40
27.0
 40
27.0
 40
28.0
 40
28.0
 40
28.0
 40
29.0
 40
29.0
 40
29.0
 40
30.0
 40
30.0
 40
30.0
 40
31.0
 40
31.0
 40
31.0
 40
32.0
 40
32.0
 40
32.0
 40
33.0
 40
33.0
 40
33.0
 40
34.0
 40
34.0
 40
34.0
 40
35.0
 40
35.0
 40
35.0
 40
36.0
 40
36.0
 40
36.0
 40
37.0
 40
37.0
 40
37.0
 40
38.0
 40
38.0
 40
38.0
 40
39.0
 40
39.0
 40
39.0
 40
40.0
 40
40.0
 40
40.0
 40
41.0
 40
41.0
 40
41.0
 40
42.0
 40
42.0
 40
42.0
 40
43.0
 40
43.0
 40
43.0
 40
44.0
 40
44.0
 40
44.0
 40
45.0
 40
45.0
 40
45.0
 40
46.0
 40
46.0
 40
46.0
 40
47.0
 40
47.0
 40
47.0
 40
48.0
 40
48.0
 40
48.0
 40
48.0
 10
49.37631845326359
 20
23.95680341541811
 30
0.0
 10
49.75392852882669
 20
23.50107553250564
 30
0.0
 10
50.20578662937714
 20
23.12989517255301
 30
0.0
 10
50.73316276070818
 20
22.84063267648889
 30
0.0
 10
51.25926390583117
 20
22.55384046621475
 30
0.0
 10
51.90056702747461
 20
22.40920921818361
 30
0.0
 10
52.65451219239276
 20
22.40920921818361
 30
0.0
 10
53.08845076021498
 20
22.40920921818361
 30
0.0
 10
53.48526531554398
 20
22.46044772644018
 30
0.0
 10
53.84495585838067
 20
22.55902009768579
 30
0.0
 10
54.20593134825321
 20
22.65886745513853
 30
0.0
 10
54.5169831594003
 20
22.80604867558759
 30
0.0
 10
54.77683132519633
 20
22.99936845945012
 30
0.0
 10
55.03795945761431
 20
23.19388354289367
 30
0.0
 10
55.24020912535798
 20
23.43708716217043
 30
0.0
 10
55.38485033421602
 20
23.73280427590544
 30
0.0
 10
55.52822153728175
 20
24.02589173059278
 30
0.0
 10
55.6011796348157
 20
24.36766772111514
 30
0.0
 10
55.6011796348157
 20
24.75558227506008
 30
0.0
 10
55.6011796348157
 20
25.16644658075711
 30
0.0
 10
55.52054173754186
 20
25.51587248852775
 30
0.0
 10
55.3605359487874
 20
25.80393968501994
 30
0.0
 10
55.19925019340826
 20
26.09447716728937
 30
0.0
 10
54.98419587901662
 20
26.33513081414822
 30
0.0
 10
54.71923282714306
 20
26.52845059801439
 30
0.0
 10
54.4516949007766
 20
26.72296568145066
 30
0.0
 10
54.15088780303268
 20
26.88170146441189
 30
0.0
 10
53.81167174575785
 20
27.00330327405391
 30
0.0
 10
53.47374063551888
 20
27.12490508368683
 30
0.0
 10
53.13196962541133
 20
27.23630700366084
 30
0.0
 10
52.78891864868
 20
27.33615436111541
 30
0.0
 10
52.36650476088198
 20
27.44747659444511
 30
0.0
 10
51.94408589267005
 20
27.57162837650322
 30
0.0
 10
51.52295197149669
 20
27.7098846934914
 30
0.0
 10
51.10181805032152
 20
27.8494159966831
 30
0.0
 10
50.72420299434452
 20
28.03245620424787
 30
0.0
 10
50.39139175059972
 20
28.26028030238012
 30
0.0
 10
50.05858050685493
 20
28.48690910094592
 30
0.0
 10
49.78977257469705
 20
28.77617159700822
 30
0.0
 10
49.58368300708389
 20
29.12559750478067
 30
0.0
 10
49.37887838651022
 20
29.47510309919562
 30
0.0
 10
49.27775106243188
 20
29.9256513506316
 30
0.0
 10
49.27775106243188
 20
30.48250157720395
 30
0.0
 10
49.27775106243188
 20
30.85878188199786
 30
0.0
 10
49.35455404025105
 20
31.21976235228431
 30
0.0
 10
49.50943996251226
 20
31.56408831522095
 30
0.0
 10
49.66432588477346
 20
31.90713929195772
 30
0.0
 10
49.88833498511394
 20
32.20668136431959
 30
0.0
 10
50.18402221636461
 20
32.46271453232294
 30
0.0
 10
50.47715449478255
 20
32.71874770032082
 30
0.0
 10
50.83812998465692
 20
32.92099238764604
 30
0.0
 10
51.26438377232443
 20
33.06944859430223
 30
0.0
 10
51.69191752661572
 20
33.22053446001337
 30
0.0
 10
52.177059739789
 20
33.29472272002204
 30
0.0
 10
52.7210754372245
 20
33.29472272002204
 30
0.0
 10
53.18829313725564
 20
33.29472272002204
 30
0.0
 10
53.60047227248014
 20
33.24483888461145
 30
0.0
 10
53.96143780152488
 20
33.14371654094975
 30
0.0
 10
54.32241329139833
 20
33.0464191559131
 30
0.0
 10
54.63858994945349
 20
32.92099238764604
 30
0.0
 10
54.90995781485981
 20
32.7699065219349
 30
0.0
 10
55.18132568026612
 20
32.62145031528417
 30
0.0
 10
55.40917468047609
 20
32.45633960127998
 30
0.0
 10
55.59221986845205
 20
32.27967432475634
 30
0.0
 10
55.77655000346658
 20
32.10173406203103
 30
0.0
 10
55.92887599248115
 20
31.93024841698571
 30
0.0
 10
56.05047780211953
 20
31.76250804392657
 30
0.0
 10
56.05047780211953
 20
31.76250804392657
 30
0.0
 10
55.4846976916715
 20
31.28120075020888
 30
0.0
 10
55.4846976916715
 20
31.28120075020888
 30
0.0
 10
55.38485033421602
 20
31.41435712236307
 30
0.0
 10
55.25684869146061
 20
31.55643839797085
 30
0.0
 10
55.10196276919941
 20
31.70489460462886
 30
0.0
 10
54.94579688031445
 20
31.85598047033818
 30
0.0
 10
54.75763182584524
 20
31.99423678732637
 30
0.0
 10
54.53618265875229
 20
32.12093854179511
 30
0.0
 10
54.31345352503559
 20
32.24764029627113
 30
0.0
 10
54.0510404455772
 20
32.35521725761282
 30
0.0
 10
53.74639344796287
 20
32.43586013530148
 30
0.0
 10
53.43918651710191
 20
32.52032797161519
 30
0.0
 10
53.08845076021498
 20
32.56128690356855
 30
0.0
 10
52.68779630501558
 20
32.56128690356855
 30
0.0
 10
52.2333782712185
 20
32.56128690356855
 30
0.0
 10
51.84296354900652
 20
32.50112349185292
 30
0.0
 10
51.5152721717559
 20
32.37952168221637
 30
0.0
 10
51.18758079450436
 20
32.25791987257617
 30
0.0
 10
50.91877286234648
 20
32.09535913098989
 30
0.0
 10
50.70756342824006
 20
31.89693940228972
 30
0.0
 10
50.49763894117223
 20
31.69724468737695
 30
0.0
 10
50.34146807187153
 20
31.47197056165533
 30
0.0
 10
50.24290566145555
 20
31.2223123247004
 30
0.0
 10
50.14178331779294
 20
30.97273377438251
 30
0.0
 10
50.09185963906475
 20
30.71415063396671
 30
0.0
 10
50.09185963906475
 20
30.44791757630083
 30
0.0
 10
50.09185963906475
 20
30.04980313268788
 30
0.0
 10
50.18402221636461
 20
29.71958170467951
 30
0.0
 10
50.36707238475537
 20
29.45717360563321
 30
0.0
 10
50.54883760610846
 20
29.19731547901029
 30
0.0
 10
50.79076623917626
 20
28.98096625674952
 30
0.0
 10
51.09029835071215
 20
28.80948061170239
 30
0.0
 10
51.38983046224803
 20
28.63791528002002
 30
0.0
 10
51.72520163923855
 20
28.49583400440497
 30
0.0
 10
52.0976968287232
 20
28.38451177107527
 30
0.0
 10
52.46890707116927
 20
28.27438483731567
 30
0.0
 10
52.84396219390055
 20
28.16943753502164
 30
0.0
 10
53.22157226946456
 20
28.06831519136176
 30
0.0
 10
53.60943203884471
 20
27.9684678339072
 30
0.0
 10
53.99728184739524
 20
27.84304106564014
 30
0.0
 10
54.38641660298344
 20
27.69450517234691
 30
0.0
 10
54.77427139194879
 20
27.54477397948722
 30
0.0
 10
55.1211622685505
 20
27.34507926457445
 30
0.0
 10
55.42581424658056
 20
27.0942257280476
 30
0.0
 10
55.7304662246097
 20
26.84584247729981
 30
0.0
 10
55.98135462404115
 20
26.53100057043048
 30
0.0
 10
56.17591951162831
 20
26.15464057899953
 30
0.0
 10
56.36920941300741
 20
25.77700560136691
 30
0.0
 10
56.46649185679962
 20
25.31107782878826
 30
0.0
 10
56.46649185679962
 20
24.75558227506008
 30
0.0
 10
56.46649185679962
 20
24.27937492617457
 30
0.0
 10
56.36664947975896
 20
23.84930614071345
 30
0.0
 10
56.16695974526374
 20
23.46657121823955
 30
0.0
 10
55.96727499118333
 20
23.08383629576565
 30
0.0
 10
55.69846705902455
 20
22.75998979880023
 30
0.0
 10
55.3605359487874
 20
22.49367705449731
 30
0.0
 10
55.02131989151076
 20
22.22616901062247
 30
0.0
 10
54.61810550306473
 20
22.0213743508757
 30
0.0
 10
54.15344773628021
 20
21.87674310284456
 30
0.0
 10
53.68623003624816
 20
21.73211185481887
 30
0.0
 10
53.18829313725564
 20
21.66039388058925
 30
0.0
 10
52.65451219239276
 20
21.66039388058925
 30
0.0
 10
52.18857943939929
 20
21.66039388058925
 30
0.0
 10
51.75592083819992
 20
21.71035740263142
 30
0.0
 10
51.35654634962429
 20
21.81020476009144
 30
0.0
 10
50.95717186104867
 20
21.91132710375314
 30
0.0
 10
50.59363643792767
 20
22.03930384443083
 30
0.0
 10
50.26723000771562
 20
22.20186458601893
 30
0.0
 10
49.93953863046499
 20
22.36315034139625
 30
0.0
 10
49.65152123812368
 20
22.54491556275389
 30
0.0
 10
49.40063781910794
 20
22.74971022249701
 30
0.0
 10
49.15102440588452
 20
22.95577986845092
 30
0.0
 10
48.94877971855658
 20
23.16830413208117
 30
0.0
 10
48.79389379629628
 20
23.39102828538489
 30
0.0
 10
48.79389379629628
 20
23.39102828538489
 30
0.0
 10
49.37631845326359
 20
23.95680341541811
 30
0.0
 10
49.37631845326359
 20
23.95680341541811
 30
0.0
  0
HATCH
  5
B6
330
A8
100
AcDbEntity
  8
图层 1
 62
   250
420
  2236191
440
 33554687
100
AcDbHatch
 10
0.0
 20
0.0
 30
0.0
210
0.0
220
0.0
230
1.0
  2
SOLID
 70
     1
 71
     1
 91
        1
 92
        1
 93
        1
 72
     4
 94
        3
 73
     0
 74
     0
 95
      149
 96
      145
 40
0.0
 40
0.0
 40
0.0
 40
0.0
 40
1.0
 40
1.0
 40
1.0
 40
2.0
 40
2.0
 40
2.0
 40
3.0
 40
3.0
 40
3.0
 40
4.0
 40
4.0
 40
4.0
 40
5.0
 40
5.0
 40
5.0
 40
6.0
 40
6.0
 40
6.0
 40
7.0
 40
7.0
 40
7.0
 40
8.0
 40
8.0
 40
8.0
 40
9.0
 40
9.0
 40
9.0
 40
10.0
 40
10.0
 40
10.0
 40
11.0
 40
11.0
 40
11.0
 40
12.0
 40
12.0
 40
12.0
 40
13.0
 40
13.0
 40
13.0
 40
14.0
 40
14.0
 40
14.0
 40
15.0
 40
15.0
 40
15.0
 40
16.0
 40
16.0
 40
16.0
 40
17.0
 40
17.0
 40
17.0
 40
18.0
 40
18.0
 40
18.0
 40
19.0
 40
19.0
 40
19.0
 40
20.0
 40
20.0
 40
20.0
 40
21.0
 40
21.0
 40
21.0
 40
22.0
 40
22.0
 40
22.0
 40
23.0
 40
23.0
 40
23.0
 40
24.0
 40
24.0
 40
24.0
 40
25.0
 40
25.0
 40
25.0
 40
26.0
 40
26.0
 40
26.0
 40
27.0
 40
27.0
 40
27.0
 40
28.0
 40
28.0
 40
28.0
 40
29.0
 40
29.0
 40
29.0
 40
30.0
 40
30.0
 40
30.0
 40
31.0
 40
31.0
 40
31.0
 40
32.0
 40
32.0
 40
32.0
 40
33.0
 40
33.0
 40
33.0
 40
34.0
 40
34.0
 40
34.0
 40
35.0
 40
35.0
 40
35.0
 40
36.0
 40
36.0
 40
36.0
 40
37.0
 40
37.0
 40
37.0
 40
38.0
 40
38.0
 40
38.0
 40
39.0
 40
39.0
 40
39.0
 40
40.0
 40
40.0
 40
40.0
 40
41.0
 40
41.0
 40
41.0
 40
42.0
 40
42.0
 40
42.0
 40
43.0
 40
43.0
 40
43.0
 40
44.0
 40
44.0
 40
44.0
 40
45.0
 40
45.0
 40
45.0
 40
46.0
 40
46.0
 40
46.0
 40
47.0
 40
47.0
 40
47.0
 40
48.0
 40
48.0
 40
48.0
 40
48.0
 10
49.37631845326359
 20
23.95680341541811
 10
49.75392852882669
 20
23.50107553250564
 10
50.20578662937714
 20
23.12989517255301
 10
50.73316276070818
 20
22.84063267648889
 10
51.25926390583117
 20
22.55384046621475
 10
51.90056702747461
 20
22.40920921818361
 10
52.65451219239276
 20
22.40920921818361
 10
53.08845076021498
 20
22.40920921818361
 10
53.48526531554398
 20
22.46044772644018
 10
53.84495585838067
 20
22.55902009768579
 10
54.20593134825321
 20
22.65886745513853
 10
54.5169831594003
 20
22.80604867558759
 10
54.77683132519633
 20
22.99936845945012
 10
55.03795945761431
 20
23.19388354289367
 10
55.24020912535798
 20
23.43708716217043
 10
55.38485033421602
 20
23.73280427590544
 10
55.52822153728175
 20
24.02589173059278
 10
55.6011796348157
 20
24.36766772111514
 10
55.6011796348157
 20
24.75558227506008
 10
55.6011796348157
 20
25.16644658075711
 10
55.52054173754186
 20
25.51587248852775
 10
55.3605359487874
 20
25.80393968501994
 10
55.19925019340826
 20
26.09447716728937
 10
54.98419587901662
 20
26.33513081414822
 10
54.71923282714306
 20
26.52845059801439
 10
54.4516949007766
 20
26.72296568145066
 10
54.15088780303268
 20
26.88170146441189
 10
53.81167174575785
 20
27.00330327405391
 10
53.47374063551888
 20
27.12490508368683
 10
53.13196962541133
 20
27.23630700366084
 10
52.78891864868
 20
27.33615436111541
 10
52.36650476088198
 20
27.44747659444511
 10
51.94408589267005
 20
27.57162837650322
 10
51.52295197149669
 20
27.7098846934914
 10
51.10181805032152
 20
27.8494159966831
 10
50.72420299434452
 20
28.03245620424787
 10
50.39139175059972
 20
28.26028030238012
 10
50.05858050685493
 20
28.48690910094592
 10
49.78977257469705
 20
28.77617159700822
 10
49.58368300708389
 20
29.12559750478067
 10
49.37887838651022
 20
29.47510309919562
 10
49.27775106243188
 20
29.9256513506316
 10
49.27775106243188
 20
30.48250157720395
 10
49.27775106243188
 20
30.85878188199786
 10
49.35455404025105
 20
31.21976235228431
 10
49.50943996251226
 20
31.56408831522095
 10
49.66432588477346
 20
31.90713929195772
 10
49.88833498511394
 20
32.20668136431959
 10
50.18402221636461
 20
32.46271453232294
 10
50.47715449478255
 20
32.71874770032082
 10
50.83812998465692
 20
32.92099238764604
 10
51.26438377232443
 20
33.06944859430223
 10
51.69191752661572
 20
33.22053446001337
 10
52.177059739789
 20
33.29472272002204
 10
52.7210754372245
 20
33.29472272002204
 10
53.18829313725564
 20
33.29472272002204
 10
53.60047227248014
 20
33.24483888461145
 10
53.96143780152488
 20
33.14371654094975
 10
54.32241329139833
 20
33.0464191559131
 10
54.63858994945349
 20
32.92099238764604
 10
54.90995781485981
 20
32.7699065219349
 10
55.18132568026612
 20
32.62145031528417
 10
55.40917468047609
 20
32.45633960127998
 10
55.59221986845205
 20
32.27967432475634
 10
55.77655000346658
 20
32.10173406203103
 10
55.92887599248115
 20
31.93024841698571
 10
56.05047780211953
 20
31.76250804392657
 10
56.05047780211953
 20
31.76250804392657
 10
55.4846976916715
 20
31.28120075020888
 10
55.4846976916715
 20
31.28120075020888
 10
55.38485033421602
 20
31.41435712236307
 10
55.25684869146061
 20
31.55643839797085
 10
55.10196276919941
 20
31.70489460462886
 10
54.94579688031445
 20
31.85598047033818
 10
54.75763182584524
 20
31.99423678732637
 10
54.53618265875229
 20
32.12093854179511
 10
54.31345352503559
 20
32.24764029627113
 10
54.0510404455772
 20
32.35521725761282
 10
53.74639344796287
 20
32.43586013530148
 10
53.43918651710191
 20
32.52032797161519
 10
53.08845076021498
 20
32.56128690356855
 10
52.68779630501558
 20
32.56128690356855
 10
52.2333782712185
 20
32.56128690356855
 10
51.84296354900652
 20
32.50112349185292
 10
51.5152721717559
 20
32.37952168221637
 10
51.18758079450436
 20
32.25791987257617
 10
50.91877286234648
 20
32.09535913098989
 10
50.70756342824006
 20
31.89693940228972
 10
50.49763894117223
 20
31.69724468737695
 10
50.34146807187153
 20
31.47197056165533
 10
50.24290566145555
 20
31.2223123247004
 10
50.14178331779294
 20
30.97273377438251
 10
50.09185963906475
 20
30.71415063396671
 10
50.09185963906475
 20
30.44791757630083
 10
50.09185963906475
 20
30.04980313268788
 10
50.18402221636461
 20
29.71958170467951
 10
50.36707238475537
 20
29.45717360563321
 10
50.54883760610846
 20
29.19731547901029
 10
50.79076623917626
 20
28.98096625674952
 10
51.09029835071215
 20
28.80948061170239
 10
51.38983046224803
 20
28.63791528002002
 10
51.72520163923855
 20
28.49583400440497
 10
52.0976968287232
 20
28.38451177107527
 10
52.46890707116927
 20
28.27438483731567
 10
52.84396219390055
 20
28.16943753502164
 10
53.22157226946456
 20
28.06831519136176
 10
53.60943203884471
 20
27.9684678339072
 10
53.99728184739524
 20
27.84304106564014
 10
54.38641660298344
 20
27.69450517234691
 10
54.77427139194879
 20
27.54477397948722
 10
55.1211622685505
 20
27.34507926457445
 10
55.42581424658056
 20
27.0942257280476
 10
55.7304662246097
 20
26.84584247729981
 10
55.98135462404115
 20
26.53100057043048
 10
56.17591951162831
 20
26.15464057899953
 10
56.36920941300741
 20
25.77700560136691
 10
56.46649185679962
 20
25.31107782878826
 10
56.46649185679962
 20
24.75558227506008
 10
56.46649185679962
 20
24.27937492617457
 10
56.36664947975896
 20
23.84930614071345
 10
56.16695974526374
 20
23.46657121823955
 10
55.96727499118333
 20
23.08383629576565
 10
55.69846705902455
 20
22.75998979880023
 10
55.3605359487874
 20
22.49367705449731
 10
55.02131989151076
 20
22.22616901062247
 10
54.61810550306473
 20
22.0213743508757
 10
54.15344773628021
 20
21.87674310284456
 10
53.68623003624816
 20
21.73211185481887
 10
53.18829313725564
 20
21.66039388058925
 10
52.65451219239276
 20
21.66039388058925
 10
52.18857943939929
 20
21.66039388058925
 10
51.75592083819992
 20
21.71035740263142
 10
51.35654634962429
 20
21.81020476009144
 10
50.95717186104867
 20
21.91132710375314
 10
50.59363643792767
 20
22.03930384443083
 10
50.26723000771562
 20
22.20186458601893
 10
49.93953863046499
 20
22.36315034139625
 10
49.65152123812368
 20
22.54491556275389
 10
49.40063781910794
 20
22.74971022249701
 10
49.15102440588452
 20
22.95577986845092
 10
48.94877971855658
 20
23.16830413208117
 10
48.79389379629628
 20
23.39102828538489
 10
48.79389379629628
 20
23.39102828538489
 10
49.37631845326359
 20
23.95680341541811
 10
49.37631845326359
 20
23.95680341541811
 97
        0
 97
        1
330
B5
 75
     2
 76
     1
 98
        1
 10
0.0
 20
0.0
450
        0
451
        0
460
0.0
461
0.0
452
        0
462
0.0
453
        0
470

  0
LWPOLYLINE
  5
B7
330
A8
100
AcDbEntity
  8
图层 1
100
AcDbPolyline
 90
        4
 70
     1
 43
0.0
 10
59.82750989533451
 20
33.02777248261009
 10
60.62753883911046
 20
33.02777248261009
 10
60.62753883911046
 20
21.92598944515157
 10
59.82750989533451
 20
21.92598944515157
  0
HATCH
  5
B8
330
A8
100
AcDbEntity
  8
图层 1
 62
   250
420
  2236191
440
 33554687
100
AcDbHatch
 10
0.0
 20
0.0
 30
0.0
210
0.0
220
0.0
230
1.0
  2
SOLID
 70
     1
 71
     1
 91
        1
 92
        1
 93
        4
 72
     1
 10
59.82750989533451
 20
33.02777248261009
 11
60.62753883911046
 21
33.02777248261009
 72
     1
 10
60.62753883911046
 20
33.02777248261009
 11
60.62753883911046
 21
21.92598944515157
 72
     1
 10
60.62753883911046
 20
21.92598944515157
 11
59.82750989533451
 21
21.92598944515157
 72
     1
 10
59.82750989533451
 20
21.92598944515157
 11
59.82750989533451
 21
33.02777248261009
 97
        1
330
B7
 75
     2
 76
     1
 98
        1
 10
0.0
 20
0.0
450
        0
451
        0
460
0.0
461
0.0
452
        0
462
0.0
453
        0
470

  0
SPLINE
  5
B9
330
A8
100
AcDbEntity
  8
图层 1
100
AcDbSpline
210
0.0
220
0.0
230
1.0
 70
    11
 71
     3
 72
   113
 73
   109
 74
     0
 42
0.0000000001
 43
0.0000000001
 40
0.0
 40
0.0
 40
0.0
 40
0.0
 40
1.0
 40
1.0
 40
1.0
 40
2.0
 40
2.0
 40
2.0
 40
3.0
 40
3.0
 40
3.0
 40
4.0
 40
4.0
 40
4.0
 40
5.0
 40
5.0
 40
5.0
 40
6.0
 40
6.0
 40
6.0
 40
7.0
 40
7.0
 40
7.0
 40
8.0
 40
8.0
 40
8.0
 40
9.0
 40
9.0
 40
9.0
 40
10.0
 40
10.0
 40
10.0
 40
11.0
 40
11.0
 40
11.0
 40
12.0
 40
12.0
 40
12.0
 40
13.0
 40
13.0
 40
13.0
 40
14.0
 40
14.0
 40
14.0
 40
15.0
 40
15.0
 40
15.0
 40
16.0
 40
16.0
 40
16.0
 40
17.0
 40
17.0
 40
17.0
 40
18.0
 40
18.0
 40
18.0
 40
19.0
 40
19.0
 40
19.0
 40
20.0
 40
20.0
 40
20.0
 40
21.0
 40
21.0
 40
21.0
 40
22.0
 40
22.0
 40
22.0
 40
23.0
 40
23.0
 40
23.0
 40
24.0
 40
24.0
 40
24.0
 40
25.0
 40
25.0
 40
25.0
 40
26.0
 40
26.0
 40
26.0
 40
27.0
 40
27.0
 40
27.0
 40
28.0
 40
28.0
 40
28.0
 40
29.0
 40
29.0
 40
29.0
 40
30.0
 40
30.0
 40
30.0
 40
31.0
 40
31.0
 40
31.0
 40
32.0
 40
32.0
 40
32.0
 40
33.0
 40
33.0
 40
33.0
 40
34.0
 40
34.0
 40
34.0
 40
35.0
 40
35.0
 40
35.0
 40
36.0
 40
36.0
 40
36.0
 40
36.0
 10
72.8437594311199
 20
26.43697033755234
 30
0.0
 10
72.8437594311199
 20
26.43697033755234
 30
0.0
 10
69.88172740880054
 20
26.43697033755234
 30
0.0
 10
69.88172740880054
 20
26.43697033755234
 30
0.0
 10
69.88172740880054
 20
26.43697033755234
 30
0.0
 10
69.88172740880054
 20
27.18578567514487
 30
0.0
 10
69.88172740880054
 20
27.18578567514487
 30
0.0
 10
69.88172740880054
 20
27.18578567514487
 30
0.0
 10
73.64249844744245
 20
27.18578567514487
 30
0.0
 10
73.64249844744245
 20
27.18578567514487
 30
0.0
 10
73.64249844744245
 20
27.18578567514487
 30
0.0
 10
73.64249844744245
 20
23.02566505000505
 30
0.0
 10
73.64249844744245
 20
23.02566505000505
 30
0.0
 10
73.45433837338714
 20
22.85792467694773
 30
0.0
 10
73.22648937317717
 20
22.69536393535964
 30
0.0
 10
72.9602363938493
 20
22.53407817998231
 30
0.0
 10
72.69398839493715
 20
22.37279242460318
 30
0.0
 10
72.38550149745333
 20
22.22561120415594
 30
0.0
 10
72.03604570718926
 20
22.09245483200175
 30
0.0
 10
71.68659489734091
 20
21.95937814648823
 30
0.0
 10
71.29234027525763
 20
21.85443084419421
 30
0.0
 10
70.85456678797982
 20
21.77633793892346
 30
0.0
 10
70.41678832028719
 20
21.69824503365089
 30
0.0
 10
69.9252512544117
 20
21.66111106032986
 30
0.0
 10
69.38251054318425
 20
21.66111106032986
 30
0.0
 10
68.58248159940922
 20
21.66111106032986
 30
0.0
 10
67.85029586708879
 20
21.80191734973596
 30
0.0
 10
67.18467337960101
 20
22.08607990095879
 30
0.0
 10
66.51904591169659
 20
22.36769247976917
 30
0.0
 10
65.94942590137907
 20
22.76708190958925
 30
0.0
 10
65.47836830147753
 20
23.28289351757485
 30
0.0
 10
65.00731568199171
 20
23.79878481219567
 30
0.0
 10
64.64122032562318
 20
24.41452346427832
 30
0.0
 10
64.38008721278857
 20
25.13002978717668
 30
0.0
 10
64.11895908037059
 20
25.84689078292104
 30
0.0
 10
63.98967747099232
 20
26.63284009384006
 30
0.0
 10
63.98967747099232
 20
27.4853277475122
 30
0.0
 10
63.98967747099232
 20
28.29430649682218
 30
0.0
 10
64.11895908037059
 20
29.05212642451625
 30
0.0
 10
64.38008721278857
 20
29.75743285774115
 30
0.0
 10
64.64122032562318
 20
30.46146430476438
 30
0.0
 10
65.00731568199171
 20
31.07712327020818
 30
0.0
 10
65.47836830147753
 20
31.6057644269149
 30
0.0
 10
65.94942590137907
 20
32.13193529784803
 30
0.0
 10
66.51904591169659
 20
32.54534957596116
 30
0.0
 10
67.18467337960101
 20
32.84489164832848
 30
0.0
 10
67.85029586708879
 20
33.14315873448141
 30
0.0
 10
68.58248159940922
 20
33.29543989976446
 30
0.0
 10
69.38251054318425
 20
33.29543989976446
 30
0.0
 10
70.03661831147747
 20
33.29543989976446
 30
0.0
 10
70.59983350826406
 20
33.20459713240598
 30
0.0
 10
71.07217107478755
 20
33.02793185588962
 30
0.0
 10
71.54322867469
 20
32.84999159316249
 30
0.0
 10
71.94004323001809
 20
32.64264696099963
 30
0.0
 10
72.2613347741526
 20
32.40454328655687
 30
0.0
 10
72.58262631828529
 20
32.16643961211412
 30
0.0
 10
72.83479468434143
 20
31.92961092388032
 30
0.0
 10
73.01783987231738
 20
31.6966868809086
 30
0.0
 10
73.20217000733191
 20
31.46368315129985
 30
0.0
 10
73.32633673063174
 20
31.29092252004557
 30
0.0
 10
73.39289001463384
 20
31.18207057249674
 30
0.0
 10
73.39289001463384
 20
31.18207057249674
 30
0.0
 10
72.79383575239262
 20
30.76483133575675
 30
0.0
 10
72.79383575239262
 20
30.76483133575675
 30
0.0
 10
72.72727250755997
 20
30.85184914448837
 30
0.0
 10
72.6171903975328
 20
30.99393042010161
 30
0.0
 10
72.46101952823301
 20
31.18852519017492
 30
0.0
 10
72.30485363934803
 20
31.38431525982014
 30
0.0
 10
72.09108427199589
 20
31.58018501610786
 30
0.0
 10
71.82099637321335
 20
31.77987973101517
 30
0.0
 10
71.54835352159807
 20
31.98084943213689
 30
0.0
 10
71.21810221110172
 20
32.15623972244612
 30
0.0
 10
70.83024244171975
 20
32.31234584635422
 30
0.0
 10
70.44110768613155
 20
32.4672566706904
 30
0.0
 10
69.98669463274928
 20
32.54534957596116
 30
0.0
 10
69.46571833453527
 20
32.54534957596116
 30
0.0
 10
68.74376735478745
 20
32.54534957596116
 30
0.0
 10
68.09734934706466
 20
32.41482286286009
 30
0.0
 10
67.52644438970765
 20
32.15368975003003
 30
0.0
 10
66.9542644461435
 20
31.89255663719632
 30
0.0
 10
66.47168714663166
 20
31.53540112552946
 30
0.0
 10
66.07871249117216
 20
31.08094822883322
 30
0.0
 10
65.68317790246601
 20
30.62530003255961
 30
0.0
 10
65.38236582430727
 20
30.09020425816562
 30
0.0
 10
65.16987642357799
 20
29.47454529272727
 30
0.0
 10
64.95995193651015
 20
28.86008162685539
 30
0.0
 10
64.85498969297623
 20
28.19573412557657
 30
0.0
 10
64.85498969297623
 20
27.4853277475122
 30
0.0
 10
64.85498969297623
 20
26.77492136944784
 30
0.0
 10
64.95611203663975
 20
26.11312384058692
 30
0.0
 10
65.16219662383718
 20
25.49611020229531
 30
0.0
 10
65.36828619144944
 20
24.88045123685879
 30
0.0
 10
65.66653833636246
 20
24.34408047625766
 30
0.0
 10
66.0620729250677
 20
23.88197766230224
 30
0.0
 10
66.4550475805272
 20
23.42114983456304
 30
0.0
 10
66.93250501354578
 20
23.06016936427295
 30
0.0
 10
67.49188031046196
 20
22.80039092428524
 30
0.0
 10
68.05382550145441
 20
22.54053279766049
 30
0.0
 10
68.68232397644897
 20
22.40865141171525
 30
0.0
 10
69.38251054318425
 20
22.40865141171525
 30
0.0
 10
70.23630306555787
 20
22.40865141171525
 30
0.0
 10
70.93776959891602
 20
22.503398824334
 30
0.0
 10
71.4869101432605
 20
22.69281396294354
 30
0.0
 10
72.03604570718926
 20
22.88230878818286
 30
0.0
 10
72.4878988273249
 20
23.10375795527761
 30
0.0
 10
72.8437594311199
 20
23.35843645043133
 30
0.0
 10
72.8437594311199
 20
23.35843645043133
 30
0.0
 10
72.8437594311199
 20
26.43697033755234
 30
0.0
 10
72.8437594311199
 20
26.43697033755234
 30
0.0
  0
HATCH
  5
BA
330
A8
100
AcDbEntity
  8
图层 1
 62
   250
420
  2236191
440
 33554687
100
AcDbHatch
 10
0.0
 20
0.0
 30
0.0
210
0.0
220
0.0
230
1.0
  2
SOLID
 70
     1
 71
     1
 91
        1
 92
        1
 93
        1
 72
     4
 94
        3
 73
     0
 74
     0
 95
      113
 96
      109
 40
0.0
 40
0.0
 40
0.0
 40
0.0
 40
1.0
 40
1.0
 40
1.0
 40
2.0
 40
2.0
 40
2.0
 40
3.0
 40
3.0
 40
3.0
 40
4.0
 40
4.0
 40
4.0
 40
5.0
 40
5.0
 40
5.0
 40
6.0
 40
6.0
 40
6.0
 40
7.0
 40
7.0
 40
7.0
 40
8.0
 40
8.0
 40
8.0
 40
9.0
 40
9.0
 40
9.0
 40
10.0
 40
10.0
 40
10.0
 40
11.0
 40
11.0
 40
11.0
 40
12.0
 40
12.0
 40
12.0
 40
13.0
 40
13.0
 40
13.0
 40
14.0
 40
14.0
 40
14.0
 40
15.0
 40
15.0
 40
15.0
 40
16.0
 40
16.0
 40
16.0
 40
17.0
 40
17.0
 40
17.0
 40
18.0
 40
18.0
 40
18.0
 40
19.0
 40
19.0
 40
19.0
 40
20.0
 40
20.0
 40
20.0
 40
21.0
 40
21.0
 40
21.0
 40
22.0
 40
22.0
 40
22.0
 40
23.0
 40
23.0
 40
23.0
 40
24.0
 40
24.0
 40
24.0
 40
25.0
 40
25.0
 40
25.0
 40
26.0
 40
26.0
 40
26.0
 40
27.0
 40
27.0
 40
27.0
 40
28.0
 40
28.0
 40
28.0
 40
29.0
 40
29.0
 40
29.0
 40
30.0
 40
30.0
 40
30.0
 40
31.0
 40
31.0
 40
31.0
 40
32.0
 40
32.0
 40
32.0
 40
33.0
 40
33.0
 40
33.0
 40
34.0
 40
34.0
 40
34.0
 40
35.0
 40
35.0
 40
35.0
 40
36.0
 40
36.0
 40
36.0
 40
36.0
 10
72.8437594311199
 20
26.43697033755234
 10
72.8437594311199
 20
26.43697033755234
 10
69.88172740880054
 20
26.43697033755234
 10
69.88172740880054
 20
26.43697033755234
 10
69.88172740880054
 20
26.43697033755234
 10
69.88172740880054
 20
27.18578567514487
 10
69.88172740880054
 20
27.18578567514487
 10
69.88172740880054
 20
27.18578567514487
 10
73.64249844744245
 20
27.18578567514487
 10
73.64249844744245
 20
27.18578567514487
 10
73.64249844744245
 20
27.18578567514487
 10
73.64249844744245
 20
23.02566505000505
 10
73.64249844744245
 20
23.02566505000505
 10
73.45433837338714
 20
22.85792467694773
 10
73.22648937317717
 20
22.69536393535964
 10
72.9602363938493
 20
22.53407817998231
 10
72.69398839493715
 20
22.37279242460318
 10
72.38550149745333
 20
22.22561120415594
 10
72.03604570718926
 20
22.09245483200175
 10
71.68659489734091
 20
21.95937814648823
 10
71.29234027525763
 20
21.85443084419421
 10
70.85456678797982
 20
21.77633793892346
 10
70.41678832028719
 20
21.69824503365089
 10
69.9252512544117
 20
21.66111106032986
 10
69.38251054318425
 20
21.66111106032986
 10
68.58248159940922
 20
21.66111106032986
 10
67.85029586708879
 20
21.80191734973596
 10
67.18467337960101
 20
22.08607990095879
 10
66.51904591169659
 20
22.36769247976917
 10
65.94942590137907
 20
22.76708190958925
 10
65.47836830147753
 20
23.28289351757485
 10
65.00731568199171
 20
23.79878481219567
 10
64.64122032562318
 20
24.41452346427832
 10
64.38008721278857
 20
25.13002978717668
 10
64.11895908037059
 20
25.84689078292104
 10
63.98967747099232
 20
26.63284009384006
 10
63.98967747099232
 20
27.4853277475122
 10
63.98967747099232
 20
28.29430649682218
 10
64.11895908037059
 20
29.05212642451625
 10
64.38008721278857
 20
29.75743285774115
 10
64.64122032562318
 20
30.46146430476438
 10
65.00731568199171
 20
31.07712327020818
 10
65.47836830147753
 20
31.6057644269149
 10
65.94942590137907
 20
32.13193529784803
 10
66.51904591169659
 20
32.54534957596116
 10
67.18467337960101
 20
32.84489164832848
 10
67.85029586708879
 20
33.14315873448141
 10
68.58248159940922
 20
33.29543989976446
 10
69.38251054318425
 20
33.29543989976446
 10
70.03661831147747
 20
33.29543989976446
 10
70.59983350826406
 20
33.20459713240598
 10
71.07217107478755
 20
33.02793185588962
 10
71.54322867469
 20
32.84999159316249
 10
71.94004323001809
 20
32.64264696099963
 10
72.2613347741526
 20
32.40454328655687
 10
72.58262631828529
 20
32.16643961211412
 10
72.83479468434143
 20
31.92961092388032
 10
73.01783987231738
 20
31.6966868809086
 10
73.20217000733191
 20
31.46368315129985
 10
73.32633673063174
 20
31.29092252004557
 10
73.39289001463384
 20
31.18207057249674
 10
73.39289001463384
 20
31.18207057249674
 10
72.79383575239262
 20
30.76483133575675
 10
72.79383575239262
 20
30.76483133575675
 10
72.72727250755997
 20
30.85184914448837
 10
72.6171903975328
 20
30.99393042010161
 10
72.46101952823301
 20
31.18852519017492
 10
72.30485363934803
 20
31.38431525982014
 10
72.09108427199589
 20
31.58018501610786
 10
71.82099637321335
 20
31.77987973101517
 10
71.54835352159807
 20
31.98084943213689
 10
71.21810221110172
 20
32.15623972244612
 10
70.83024244171975
 20
32.31234584635422
 10
70.44110768613155
 20
32.4672566706904
 10
69.98669463274928
 20
32.54534957596116
 10
69.46571833453527
 20
32.54534957596116
 10
68.74376735478745
 20
32.54534957596116
 10
68.09734934706466
 20
32.41482286286009
 10
67.52644438970765
 20
32.15368975003003
 10
66.9542644461435
 20
31.89255663719632
 10
66.47168714663166
 20
31.53540112552946
 10
66.07871249117216
 20
31.08094822883322
 10
65.68317790246601
 20
30.62530003255961
 10
65.38236582430727
 20
30.09020425816562
 10
65.16987642357799
 20
29.47454529272727
 10
64.95995193651015
 20
28.86008162685539
 10
64.85498969297623
 20
28.19573412557657
 10
64.85498969297623
 20
27.4853277475122
 10
64.85498969297623
 20
26.77492136944784
 10
64.95611203663975
 20
26.11312384058692
 10
65.16219662383718
 20
25.49611020229531
 10
65.36828619144944
 20
24.88045123685879
 10
65.66653833636246
 20
24.34408047625766
 10
66.0620729250677
 20
23.88197766230224
 10
66.4550475805272
 20
23.42114983456304
 10
66.93250501354578
 20
23.06016936427295
 10
67.49188031046196
 20
22.80039092428524
 10
68.05382550145441
 20
22.54053279766049
 10
68.68232397644897
 20
22.40865141171525
 10
69.38251054318425
 20
22.40865141171525
 10
70.23630306555787
 20
22.40865141171525
 10
70.93776959891602
 20
22.503398824334
 10
71.4869101432605
 20
22.69281396294354
 10
72.03604570718926
 20
22.88230878818286
 10
72.4878988273249
 20
23.10375795527761
 10
72.8437594311199
 20
23.35843645043133
 10
72.8437594311199
 20
23.35843645043133
 10
72.8437594311199
 20
26.43697033755234
 10
72.8437594311199
 20
26.43697033755234
 97
        0
 97
        1
330
B9
 75
     2
 76
     1
 98
        1
 10
0.0
 20
0.0
450
        0
451
        0
460
0.0
461
0.0
452
        0
462
0.0
453
        0
470

  0
LWPOLYLINE
  5
BB
330
A8
100
AcDbEntity
  8
图层 1
100
AcDbPolyline
 90
       10
 70
     1
 43
0.0
 10
77.42041705450538
 20
33.02817091580437
 10
78.25372015007451
 20
33.02817091580437
 10
85.37717766623428
 20
23.1244764811654
 10
85.37717766623428
 20
33.02817091580437
 10
86.15929205769679
 20
33.02817091580437
 10
86.15929205769679
 20
21.92630819170336
 10
85.32725398750699
 20
21.92630819170336
 10
78.20380643217595
 20
31.69692594082517
 10
78.20380643217595
 20
21.92630819170336
 10
77.42041705450538
 20
21.92630819170336
  0
HATCH
  5
BC
330
A8
100
AcDbEntity
  8
图层 1
 62
   250
420
  2236191
440
 33554687
100
AcDbHatch
 10
0.0
 20
0.0
 30
0.0
210
0.0
220
0.0
230
1.0
  2
SOLID
 70
     1
 71
     1
 91
        1
 92
        1
 93
       10
 72
     1
 10
77.42041705450538
 20
33.02817091580437
 11
78.25372015007451
 21
33.02817091580437
 72
     1
 10
78.25372015007451
 20
33.02817091580437
 11
85.37717766623428
 21
23.1244764811654
 72
     1
 10
85.37717766623428
 20
23.1244764811654
 11
85.37717766623428
 21
33.02817091580437
 72
     1
 10
85.37717766623428
 20
33.02817091580437
 11
86.15929205769679
 21
33.02817091580437
 72
     1
 10
86.15929205769679
 20
33.02817091580437
 11
86.15929205769679
 21
21.92630819170336
 72
     1
 10
86.15929205769679
 20
21.92630819170336
 11
85.32725398750699
 21
21.92630819170336
 72
     1
 10
85.32725398750699
 20
21.92630819170336
 11
78.20380643217595
 21
31.69692594082517
 72
     1
 10
78.20380643217595
 20
31.69692594082517
 11
78.20380643217595
 21
21.92630819170336
 72
     1
 10
78.20380643217595
 20
21.92630819170336
 11
77.42041705450538
 21
21.92630819170336
 72
     1
 10
77.42041705450538
 20
21.92630819170336
 11
77.42041705450538
 21
33.02817091580437
 97
        1
330
BB
 75
     2
 76
     1
 98
        1
 10
0.0
 20
0.0
450
        0
451
        0
460
0.0
461
0.0
452
        0
462
0.0
453
        0
470

  0
SPLINE
  5
BD
330
A8
100
AcDbEntity
  8
图层 1
100
AcDbSpline
210
0.0
220
0.0
230
1.0
 70
    11
 71
     3
 72
    14
 73
    10
 74
     0
 42
0.0000000001
 43
0.0000000001
 40
0.0
 40
0.0
 40
0.0
 40
0.0
 40
1.0
 40
1.0
 40
1.0
 40
2.0
 40
2.0
 40
2.0
 40
3.0
 40
3.0
 40
3.0
 40
3.0
 10
96.14566137929342
 20
26.25416918990777
 30
0.0
 10
96.14566137929342
 20
26.25416918990777
 30
0.0
 10
93.83132235090398
 20
32.01312252053867
 30
0.0
 10
93.83132235090398
 20
32.01312252053867
 30
0.0
 10
93.83132235090398
 20
32.01312252053867
 30
0.0
 10
91.51827823038457
 20
26.25416918990777
 30
0.0
 10
91.51827823038457
 20
26.25416918990777
 30
0.0
 10
91.51827823038457
 20
26.25416918990777
 30
0.0
 10
96.14566137929342
 20
26.25416918990777
 30
0.0
 10
96.14566137929342
 20
26.25416918990777
 30
0.0
  0
SPLINE
  5
BE
330
A8
100
AcDbEntity
  8
图层 1
100
AcDbSpline
210
0.0
220
0.0
230
1.0
 70
    11
 71
     3
 72
    29
 73
    25
 74
     0
 42
0.0000000001
 43
0.0000000001
 40
0.0
 40
0.0
 40
0.0
 40
0.0
 40
1.0
 40
1.0
 40
1.0
 40
2.0
 40
2.0
 40
2.0
 40
3.0
 40
3.0
 40
3.0
 40
4.0
 40
4.0
 40
4.0
 40
5.0
 40
5.0
 40
5.0
 40
6.0
 40
6.0
 40
6.0
 40
7.0
 40
7.0
 40
7.0
 40
8.0
 40
8.0
 40
8.0
 40
8.0
 10
93.46651692198975
 20
33.02817091580437
 30
0.0
 10
93.46651692198975
 20
33.02817091580437
 30
0.0
 10
94.26526589914283
 20
33.02817091580437
 30
0.0
 10
94.26526589914283
 20
33.02817091580437
 30
0.0
 10
94.26526589914283
 20
33.02817091580437
 30
0.0
 10
98.80942631545531
 20
21.92630819170336
 30
0.0
 10
98.80942631545531
 20
21.92630819170336
 30
0.0
 10
98.80942631545531
 20
21.92630819170336
 30
0.0
 10
97.89292040894999
 20
21.92630819170336
 30
0.0
 10
97.89292040894999
 20
21.92630819170336
 30
0.0
 10
97.89292040894999
 20
21.92630819170336
 30
0.0
 10
96.44518352999876
 20
25.50535385230797
 30
0.0
 10
96.44518352999876
 20
25.50535385230797
 30
0.0
 10
96.44518352999876
 20
25.50535385230797
 30
0.0
 10
91.2187461188496
 20
25.50535385230797
 30
0.0
 10
91.2187461188496
 20
25.50535385230797
 30
0.0
 10
91.2187461188496
 20
25.50535385230797
 30
0.0
 10
89.78766374724727
 20
21.92630819170336
 30
0.0
 10
89.78766374724727
 20
21.92630819170336
 30
0.0
 10
89.78766374724727
 20
21.92630819170336
 30
0.0
 10
88.92234654484855
 20
21.92630819170336
 30
0.0
 10
88.92234654484855
 20
21.92630819170336
 30
0.0
 10
88.92234654484855
 20
21.92630819170336
 30
0.0
 10
93.46651692198975
 20
33.02817091580437
 30
0.0
 10
93.46651692198975
 20
33.02817091580437
 30
0.0
  0
HATCH
  5
BF
330
A8
100
AcDbEntity
  8
图层 1
 62
   250
420
  2236191
440
 33554687
100
AcDbHatch
 10
0.0
 20
0.0
 30
0.0
210
0.0
220
0.0
230
1.0
  2
SOLID
 70
     1
 71
     1
 91
        2
 92
        1
 93
        1
 72
     4
 94
        3
 73
     0
 74
     0
 95
       14
 96
       10
 40
0.0
 40
0.0
 40
0.0
 40
0.0
 40
1.0
 40
1.0
 40
1.0
 40
2.0
 40
2.0
 40
2.0
 40
3.0
 40
3.0
 40
3.0
 40
3.0
 10
96.14566137929342
 20
26.25416918990777
 10
96.14566137929342
 20
26.25416918990777
 10
93.83132235090398
 20
32.01312252053867
 10
93.83132235090398
 20
32.01312252053867
 10
93.83132235090398
 20
32.01312252053867
 10
91.51827823038457
 20
26.25416918990777
 10
91.51827823038457
 20
26.25416918990777
 10
91.51827823038457
 20
26.25416918990777
 10
96.14566137929342
 20
26.25416918990777
 10
96.14566137929342
 20
26.25416918990777
 97
        0
 97
        1
330
BD
 92
        1
 93
        1
 72
     4
 94
        3
 73
     0
 74
     0
 95
       29
 96
       25
 40
0.0
 40
0.0
 40
0.0
 40
0.0
 40
1.0
 40
1.0
 40
1.0
 40
2.0
 40
2.0
 40
2.0
 40
3.0
 40
3.0
 40
3.0
 40
4.0
 40
4.0
 40
4.0
 40
5.0
 40
5.0
 40
5.0
 40
6.0
 40
6.0
 40
6.0
 40
7.0
 40
7.0
 40
7.0
 40
8.0
 40
8.0
 40
8.0
 40
8.0
 10
93.46651692198975
 20
33.02817091580437
 10
93.46651692198975
 20
33.02817091580437
 10
94.26526589914283
 20
33.02817091580437
 10
94.26526589914283
 20
33.02817091580437
 10
94.26526589914283
 20
33.02817091580437
 10
98.80942631545531
 20
21.92630819170336
 10
98.80942631545531
 20
21.92630819170336
 10
98.80942631545531
 20
21.92630819170336
 10
97.89292040894999
 20
21.92630819170336
 10
97.89292040894999
 20
21.92630819170336
 10
97.89292040894999
 20
21.92630819170336
 10
96.44518352999876
 20
25.50535385230797
 10
96.44518352999876
 20
25.50535385230797
 10
96.44518352999876
 20
25.50535385230797
 10
91.2187461188496
 20
25.50535385230797
 10
91.2187461188496
 20
25.50535385230797
 10
91.2187461188496
 20
25.50535385230797
 10
89.78766374724727
 20
21.92630819170336
 10
89.78766374724727
 20
21.92630819170336
 10
89.78766374724727
 20
21.92630819170336
 10
88.92234654484855
 20
21.92630819170336
 10
88.92234654484855
 20
21.92630819170336
 10
88.92234654484855
 20
21.92630819170336
 10
93.46651692198975
 20
33.02817091580437
 10
93.46651692198975
 20
33.02817091580437
 97
        0
 97
        1
330
BE
 75
     2
 76
     1
 98
        1
 10
0.0
 20
0.0
450
        0
451
        0
460
0.0
461
0.0
452
        0
462
0.0
453
        0
470

  0
LWPOLYLINE
  5
C0
330
A8
100
AcDbEntity
  8
图层 1
100
AcDbPolyline
 90
        8
 70
     1
 43
0.0
 10
102.9517768203168
 20
32.31226615971718
 10
98.64185527650262
 20
32.31226615971718
 10
98.64185527650262
 20
33.02777248261009
 10
108.0617123666634
 20
33.02777248261009
 10
108.0617123666634
 20
32.31226615971718
 10
103.7505158366393
 20
32.31226615971718
 10
103.7505158366393
 20
21.92726443136053
 10
102.9517768203168
 20
21.92726443136053
  0
HATCH
  5
C1
330
A8
100
AcDbEntity
  8
图层 1
 62
   250
420
  2236191
440
 33554687
100
AcDbHatch
 10
0.0
 20
0.0
 30
0.0
210
0.0
220
0.0
230
1.0
  2
SOLID
 70
     1
 71
     1
 91
        1
 92
        1
 93
        8
 72
     1
 10
102.9517768203168
 20
32.31226615971718
 11
98.64185527650262
 21
32.31226615971718
 72
     1
 10
98.64185527650262
 20
32.31226615971718
 11
98.64185527650262
 21
33.02777248261009
 72
     1
 10
98.64185527650262
 20
33.02777248261009
 11
108.0617123666634
 21
33.02777248261009
 72
     1
 10
108.0617123666634
 20
33.02777248261009
 11
108.0617123666634
 21
32.31226615971718
 72
     1
 10
108.0617123666634
 20
32.31226615971718
 11
103.7505158366393
 21
32.31226615971718
 72
     1
 10
103.7505158366393
 20
32.31226615971718
 11
103.7505158366393
 21
21.92726443136053
 72
     1
 10
103.7505158366393
 20
21.92726443136053
 11
102.9517768203168
 21
21.92726443136053
 72
     1
 10
102.9517768203168
 20
21.92726443136053
 11
102.9517768203168
 21
32.31226615971718
 97
        1
330
C0
 75
     2
 76
     1
 98
        1
 10
0.0
 20
0.0
450
        0
451
        0
460
0.0
461
0.0
452
        0
462
0.0
453
        0
470

  0
SPLINE
  5
C2
330
A8
100
AcDbEntity
  8
图层 1
100
AcDbSpline
210
0.0
220
0.0
230
1.0
 70
    11
 71
     3
 72
    71
 73
    67
 74
     0
 42
0.0000000001
 43
0.0000000001
 40
0.0
 40
0.0
 40
0.0
 40
0.0
 40
1.0
 40
1.0
 40
1.0
 40
2.0
 40
2.0
 40
2.0
 40
3.0
 40
3.0
 40
3.0
 40
4.0
 40
4.0
 40
4.0
 40
5.0
 40
5.0
 40
5.0
 40
6.0
 40
6.0
 40
6.0
 40
7.0
 40
7.0
 40
7.0
 40
8.0
 40
8.0
 40
8.0
 40
9.0
 40
9.0
 40
9.0
 40
10.0
 40
10.0
 40
10.0
 40
11.0
 40
11.0
 40
11.0
 40
12.0
 40
12.0
 40
12.0
 40
13.0
 40
13.0
 40
13.0
 40
14.0
 40
14.0
 40
14.0
 40
15.0
 40
15.0
 40
15.0
 40
16.0
 40
16.0
 40
16.0
 40
17.0
 40
17.0
 40
17.0
 40
18.0
 40
18.0
 40
18.0
 40
19.0
 40
19.0
 40
19.0
 40
20.0
 40
20.0
 40
20.0
 40
21.0
 40
21.0
 40
21.0
 40
22.0
 40
22.0
 40
22.0
 40
22.0
 10
110.8251752478336
 20
33.02817091580437
 30
0.0
 10
110.8251752478336
 20
33.02817091580437
 30
0.0
 10
111.6239142641552
 20
33.02817091580437
 30
0.0
 10
111.6239142641552
 20
33.02817091580437
 30
0.0
 10
111.6239142641552
 20
33.02817091580437
 30
0.0
 10
111.6239142641552
 20
26.77006048453041
 30
0.0
 10
111.6239142641552
 20
26.77006048453041
 30
0.0
 10
111.6239142641552
 20
26.13639233889262
 30
0.0
 10
111.6738379428834
 20
25.55396270151141
 30
0.0
 10
111.7736853003389
 20
25.02149658617236
 30
0.0
 10
111.8735226969647
 20
24.48895078420355
 30
0.0
 10
112.0540129321089
 20
24.02947762930307
 30
0.0
 10
112.3151360841129
 20
23.640288089151
 30
0.0
 10
112.5762691969466
 20
23.25117823563414
 30
0.0
 10
112.9270099342484
 20
22.95036117706513
 30
0.0
 10
113.3711832546432
 20
22.73401195480437
 30
0.0
 10
113.8153565750381
 20
22.51774241918065
 30
0.0
 10
114.3811416659009
 20
22.40889047163182
 30
0.0
 10
115.0697935917806
 20
22.40889047163182
 30
0.0
 10
115.7571904531123
 20
22.40889047163182
 30
0.0
 10
116.3242505301832
 20
22.51774241918065
 30
0.0
 10
116.76714886437
 20
22.73401195480437
 30
0.0
 10
117.2100372377272
 20
22.95036117706513
 30
0.0
 10
117.5633379082756
 20
23.25117823563414
 30
0.0
 10
117.823176113241
 20
23.640288089151
 30
0.0
 10
118.0855941731133
 20
24.02947762930307
 30
0.0
 10
118.2660744474278
 20
24.48895078420355
 30
0.0
 10
118.3646468186744
 20
25.02149658617236
 30
0.0
 10
118.4644842152993
 20
25.55396270151141
 30
0.0
 10
118.5144078940266
 20
26.13639233889262
 30
0.0
 10
118.5144078940266
 20
26.77006048453041
 30
0.0
 10
118.5144078940266
 20
26.77006048453041
 30
0.0
 10
118.5144078940266
 20
33.02817091580437
 30
0.0
 10
118.5144078940266
 20
33.02817091580437
 30
0.0
 10
118.5144078940266
 20
33.02817091580437
 30
0.0
 10
119.3131568711796
 20
33.02817091580437
 30
0.0
 10
119.3131568711796
 20
33.02817091580437
 30
0.0
 10
119.3131568711796
 20
33.02817091580437
 30
0.0
 10
119.3131568711796
 20
26.35274156115338
 30
0.0
 10
119.3131568711796
 20
26.35274156115338
 30
0.0
 10
119.3131568711796
 20
25.69859394954256
 30
0.0
 10
119.2440287126856
 20
25.08548495651485
 30
0.0
 10
119.1045073703199
 20
24.51588486785658
 30
0.0
 10
118.9662610141631
 20
23.94365512014338
 30
0.0
 10
118.7332871670442
 20
23.44704799192368
 30
0.0
 10
118.4056057506231
 20
23.02590410991979
 30
0.0
 10
118.0791893595806
 20
22.60348524170331
 30
0.0
 10
117.6426958389265
 20
22.27063415464363
 30
0.0
 10
117.0999501472843
 20
22.02615554915792
 30
0.0
 10
116.5559394302636
 20
21.78295192988116
 30
0.0
 10
115.8787922627498
 20
21.66007513403747
 30
0.0
 10
115.0697935917806
 20
21.66007513403747
 30
0.0
 10
114.2595298954329
 20
21.66007513403747
 30
0.0
 10
113.5823926887487
 20
21.78295192988116
 30
0.0
 10
113.0396469971074
 20
22.02615554915792
 30
0.0
 10
112.4943413722194
 20
22.27063415464363
 30
0.0
 10
112.0591327986021
 20
22.60348524170331
 30
0.0
 10
111.7314314605219
 20
23.02590410991979
 30
0.0
 10
111.4050250303098
 20
23.44704799192368
 30
0.0
 10
111.1720611440214
 20
23.94365512014338
 30
0.0
 10
111.0338147878638
 20
24.51588486785658
 30
0.0
 10
110.8942834846675
 20
25.08548495651485
 30
0.0
 10
110.8251752478336
 20
25.69859394954256
 30
0.0
 10
110.8251752478336
 20
26.35274156115338
 30
0.0
 10
110.8251752478336
 20
26.35274156115338
 30
0.0
 10
110.8251752478336
 20
33.02817091580437
 30
0.0
 10
110.8251752478336
 20
33.02817091580437
 30
0.0
  0
HATCH
  5
C3
330
A8
100
AcDbEntity
  8
图层 1
 62
   250
420
  2236191
440
 33554687
100
AcDbHatch
 10
0.0
 20
0.0
 30
0.0
210
0.0
220
0.0
230
1.0
  2
SOLID
 70
     1
 71
     1
 91
        1
 92
        1
 93
        1
 72
     4
 94
        3
 73
     0
 74
     0
 95
       71
 96
       67
 40
0.0
 40
0.0
 40
0.0
 40
0.0
 40
1.0
 40
1.0
 40
1.0
 40
2.0
 40
2.0
 40
2.0
 40
3.0
 40
3.0
 40
3.0
 40
4.0
 40
4.0
 40
4.0
 40
5.0
 40
5.0
 40
5.0
 40
6.0
 40
6.0
 40
6.0
 40
7.0
 40
7.0
 40
7.0
 40
8.0
 40
8.0
 40
8.0
 40
9.0
 40
9.0
 40
9.0
 40
10.0
 40
10.0
 40
10.0
 40
11.0
 40
11.0
 40
11.0
 40
12.0
 40
12.0
 40
12.0
 40
13.0
 40
13.0
 40
13.0
 40
14.0
 40
14.0
 40
14.0
 40
15.0
 40
15.0
 40
15.0
 40
16.0
 40
16.0
 40
16.0
 40
17.0
 40
17.0
 40
17.0
 40
18.0
 40
18.0
 40
18.0
 40
19.0
 40
19.0
 40
19.0
 40
20.0
 40
20.0
 40
20.0
 40
21.0
 40
21.0
 40
21.0
 40
22.0
 40
22.0
 40
22.0
 40
22.0
 10
110.8251752478336
 20
33.02817091580437
 10
110.8251752478336
 20
33.02817091580437
 10
111.6239142641552
 20
33.02817091580437
 10
111.6239142641552
 20
33.02817091580437
 10
111.6239142641552
 20
33.02817091580437
 10
111.6239142641552
 20
26.77006048453041
 10
111.6239142641552
 20
26.77006048453041
 10
111.6239142641552
 20
26.13639233889262
 10
111.6738379428834
 20
25.55396270151141
 10
111.7736853003389
 20
25.02149658617236
 10
111.8735226969647
 20
24.48895078420355
 10
112.0540129321089
 20
24.02947762930307
 10
112.3151360841129
 20
23.640288089151
 10
112.5762691969466
 20
23.25117823563414
 10
112.9270099342484
 20
22.95036117706513
 10
113.3711832546432
 20
22.73401195480437
 10
113.8153565750381
 20
22.51774241918065
 10
114.3811416659009
 20
22.40889047163182
 10
115.0697935917806
 20
22.40889047163182
 10
115.7571904531123
 20
22.40889047163182
 10
116.3242505301832
 20
22.51774241918065
 10
116.76714886437
 20
22.73401195480437
 10
117.2100372377272
 20
22.95036117706513
 10
117.5633379082756
 20
23.25117823563414
 10
117.823176113241
 20
23.640288089151
 10
118.0855941731133
 20
24.02947762930307
 10
118.2660744474278
 20
24.48895078420355
 10
118.3646468186744
 20
25.02149658617236
 10
118.4644842152993
 20
25.55396270151141
 10
118.5144078940266
 20
26.13639233889262
 10
118.5144078940266
 20
26.77006048453041
 10
118.5144078940266
 20
26.77006048453041
 10
118.5144078940266
 20
33.02817091580437
 10
118.5144078940266
 20
33.02817091580437
 10
118.5144078940266
 20
33.02817091580437
 10
119.3131568711796
 20
33.02817091580437
 10
119.3131568711796
 20
33.02817091580437
 10
119.3131568711796
 20
33.02817091580437
 10
119.3131568711796
 20
26.35274156115338
 10
119.3131568711796
 20
26.35274156115338
 10
119.3131568711796
 20
25.69859394954256
 10
119.2440287126856
 20
25.08548495651485
 10
119.1045073703199
 20
24.51588486785658
 10
118.9662610141631
 20
23.94365512014338
 10
118.7332871670442
 20
23.44704799192368
 10
118.4056057506231
 20
23.02590410991979
 10
118.0791893595806
 20
22.60348524170331
 10
117.6426958389265
 20
22.27063415464363
 10
117.0999501472843
 20
22.02615554915792
 10
116.5559394302636
 20
21.78295192988116
 10
115.8787922627498
 20
21.66007513403747
 10
115.0697935917806
 20
21.66007513403747
 10
114.2595298954329
 20
21.66007513403747
 10
113.5823926887487
 20
21.78295192988116
 10
113.0396469971074
 20
22.02615554915792
 10
112.4943413722194
 20
22.27063415464363
 10
112.0591327986021
 20
22.60348524170331
 10
111.7314314605219
 20
23.02590410991979
 10
111.4050250303098
 20
23.44704799192368
 10
111.1720611440214
 20
23.94365512014338
 10
111.0338147878638
 20
24.51588486785658
 10
110.8942834846675
 20
25.08548495651485
 10
110.8251752478336
 20
25.69859394954256
 10
110.8251752478336
 20
26.35274156115338
 10
110.8251752478336
 20
26.35274156115338
 10
110.8251752478336
 20
33.02817091580437
 10
110.8251752478336
 20
33.02817091580437
 97
        0
 97
        1
330
C2
 75
     2
 76
     1
 98
        1
 10
0.0
 20
0.0
450
        0
451
        0
460
0.0
461
0.0
452
        0
462
0.0
453
        0
470

  0
SPLINE
  5
C4
330
A8
100
AcDbEntity
  8
图层 1
100
AcDbSpline
210
0.0
220
0.0
230
1.0
 70
     9
 71
     3
 72
    23
 73
    19
 74
     0
 42
0.0000000001
 43
0.0000000001
 40
0.0
 40
0.0
 40
0.0
 40
0.0
 40
1.0
 40
1.0
 40
1.0
 40
2.0
 40
2.0
 40
2.0
 40
3.0
 40
3.0
 40
3.0
 40
4.0
 40
4.0
 40
4.0
 40
5.0
 40
5.0
 40
5.0
 40
6.0
 40
6.0
 40
6.0
 40
6.0
 10
126.7699336334008
 20
27.48548712079173
 30
0.0
 10
128.6003954739935
 20
27.48548712079173
 30
0.0
 10
129.5156363551196
 20
28.28426598043188
 30
0.0
 10
129.5156363551196
 20
29.88174401307151
 30
0.0
 10
129.5156363551196
 20
30.68044318607827
 30
0.0
 10
129.2749827082607
 20
31.28080231702006
 30
0.0
 10
128.7924004283331
 20
31.67891676063118
 30
0.0
 10
128.308553123029
 20
32.07958117666021
 30
0.0
 10
127.6019617427609
 20
32.27927589156934
 30
0.0
 10
126.6700862759453
 20
32.27927589156934
 30
0.0
 10
126.6700862759453
 20
32.27927589156934
 30
0.0
 10
123.8911143828472
 20
32.27927589156934
 30
0.0
 10
123.8911143828472
 20
32.27927589156934
 30
0.0
 10
123.8911143828472
 20
32.27927589156934
 30
0.0
 10
123.8911143828472
 20
27.48548712079173
 30
0.0
 10
123.8911143828472
 20
27.48548712079173
 30
0.0
 10
123.8911143828472
 20
27.48548712079173
 30
0.0
 10
126.7699336334008
 20
27.48548712079173
 30
0.0
 10
126.7699336334008
 20
27.48548712079173
 30
0.0
  0
SPLINE
  5
C5
330
A8
100
AcDbEntity
  8
图层 1
100
AcDbSpline
210
0.0
220
0.0
230
1.0
 70
    11
 71
     3
 72
    47
 73
    43
 74
     0
 42
0.0000000001
 43
0.0000000001
 40
0.0
 40
0.0
 40
0.0
 40
0.0
 40
1.0
 40
1.0
 40
1.0
 40
2.0
 40
2.0
 40
2.0
 40
3.0
 40
3.0
 40
3.0
 40
4.0
 40
4.0
 40
4.0
 40
5.0
 40
5.0
 40
5.0
 40
6.0
 40
6.0
 40
6.0
 40
7.0
 40
7.0
 40
7.0
 40
8.0
 40
8.0
 40
8.0
 40
9.0
 40
9.0
 40
9.0
 40
10.0
 40
10.0
 40
10.0
 40
11.0
 40
11.0
 40
11.0
 40
12.0
 40
12.0
 40
12.0
 40
13.0
 40
13.0
 40
13.0
 40
14.0
 40
14.0
 40
14.0
 40
14.0
 10
123.0910804586574
 20
33.02809122916187
 30
0.0
 10
123.0910804586574
 20
33.02809122916187
 30
0.0
 10
126.4371223896569
 20
33.02809122916187
 30
0.0
 10
126.4371223896569
 20
33.02809122916187
 30
0.0
 10
127.1590634085751
 20
33.02809122916187
 30
0.0
 10
127.768377325463
 20
32.95127331009826
 30
0.0
 10
128.2675941910802
 20
32.79636248576208
 30
0.0
 10
128.7668110566956
 20
32.6389813756523
 30
0.0
 10
129.1725853783891
 20
32.42008218097363
 30
0.0
 10
129.4823472620819
 20
32.13846960216324
 30
0.0
 10
129.7921290674348
 20
31.85558203714936
 30
0.0
 10
130.0186881401923
 20
31.52145596387891
 30
0.0
 10
130.1569344963491
 20
31.13872104140682
 30
0.0
 10
130.2951808525067
 20
30.75726110514188
 30
0.0
 10
130.3655839972089
 20
30.33739220934695
 30
0.0
 10
130.3655839972089
 20
29.88174401307151
 30
0.0
 10
130.3655839972089
 20
29.16105805870393
 30
0.0
 10
130.1786989093616
 20
28.51973999581423
 30
0.0
 10
129.8074787060859
 20
27.96041948346647
 30
0.0
 10
129.4349835166003
 20
27.40101928447621
 30
0.0
 10
128.8448840403089
 20
27.02593427925422
 30
0.0
 10
128.0346203439603
 20
26.83651914065194
 30
0.0
 10
128.0346203439603
 20
26.83651914065194
 30
0.0
 10
130.6817606552631
 20
21.92622850506632
 30
0.0
 10
130.6817606552631
 20
21.92622850506632
 30
0.0
 10
130.6817606552631
 20
21.92622850506632
 30
0.0
 10
129.7652447879281
 20
21.92622850506632
 30
0.0
 10
129.7652447879281
 20
21.92622850506632
 30
0.0
 10
129.7652447879281
 20
21.92622850506632
 30
0.0
 10
127.1859476880809
 20
26.73667178319192
 30
0.0
 10
127.1859476880809
 20
26.73667178319192
 30
0.0
 10
127.1859476880809
 20
26.73667178319192
 30
0.0
 10
123.8911143828472
 20
26.73667178319192
 30
0.0
 10
123.8911143828472
 20
26.73667178319192
 30
0.0
 10
123.8911143828472
 20
26.73667178319192
 30
0.0
 10
123.8911143828472
 20
21.92622850506632
 30
0.0
 10
123.8911143828472
 20
21.92622850506632
 30
0.0
 10
123.8911143828472
 20
21.92622850506632
 30
0.0
 10
123.0910804586574
 20
21.92622850506632
 30
0.0
 10
123.0910804586574
 20
21.92622850506632
 30
0.0
 10
123.0910804586574
 20
21.92622850506632
 30
0.0
 10
123.0910804586574
 20
33.02809122916187
 30
0.0
 10
123.0910804586574
 20
33.02809122916187
 30
0.0
  0
HATCH
  5
C6
330
A8
100
AcDbEntity
  8
图层 1
 62
   250
420
  2236191
440
 33554687
100
AcDbHatch
 10
0.0
 20
0.0
 30
0.0
210
0.0
220
0.0
230
1.0
  2
SOLID
 70
     1
 71
     1
 91
        2
 92
        1
 93
        1
 72
     4
 94
        3
 73
     0
 74
     0
 95
       23
 96
       19
 40
0.0
 40
0.0
 40
0.0
 40
0.0
 40
1.0
 40
1.0
 40
1.0
 40
2.0
 40
2.0
 40
2.0
 40
3.0
 40
3.0
 40
3.0
 40
4.0
 40
4.0
 40
4.0
 40
5.0
 40
5.0
 40
5.0
 40
6.0
 40
6.0
 40
6.0
 40
6.0
 10
126.7699336334008
 20
27.48548712079173
 10
128.6003954739935
 20
27.48548712079173
 10
129.5156363551196
 20
28.28426598043188
 10
129.5156363551196
 20
29.88174401307151
 10
129.5156363551196
 20
30.68044318607827
 10
129.2749827082607
 20
31.28080231702006
 10
128.7924004283331
 20
31.67891676063118
 10
128.308553123029
 20
32.07958117666021
 10
127.6019617427609
 20
32.27927589156934
 10
126.6700862759453
 20
32.27927589156934
 10
126.6700862759453
 20
32.27927589156934
 10
123.8911143828472
 20
32.27927589156934
 10
123.8911143828472
 20
32.27927589156934
 10
123.8911143828472
 20
32.27927589156934
 10
123.8911143828472
 20
27.48548712079173
 10
123.8911143828472
 20
27.48548712079173
 10
123.8911143828472
 20
27.48548712079173
 10
126.7699336334008
 20
27.48548712079173
 10
126.7699336334008
 20
27.48548712079173
 97
        0
 97
        1
330
C4
 92
        1
 93
        1
 72
     4
 94
        3
 73
     0
 74
     0
 95
       47
 96
       43
 40
0.0
 40
0.0
 40
0.0
 40
0.0
 40
1.0
 40
1.0
 40
1.0
 40
2.0
 40
2.0
 40
2.0
 40
3.0
 40
3.0
 40
3.0
 40
4.0
 40
4.0
 40
4.0
 40
5.0
 40
5.0
 40
5.0
 40
6.0
 40
6.0
 40
6.0
 40
7.0
 40
7.0
 40
7.0
 40
8.0
 40
8.0
 40
8.0
 40
9.0
 40
9.0
 40
9.0
 40
10.0
 40
10.0
 40
10.0
 40
11.0
 40
11.0
 40
11.0
 40
12.0
 40
12.0
 40
12.0
 40
13.0
 40
13.0
 40
13.0
 40
14.0
 40
14.0
 40
14.0
 40
14.0
 10
123.0910804586574
 20
33.02809122916187
 10
123.0910804586574
 20
33.02809122916187
 10
126.4371223896569
 20
33.02809122916187
 10
126.4371223896569
 20
33.02809122916187
 10
127.1590634085751
 20
33.02809122916187
 10
127.768377325463
 20
32.95127331009826
 10
128.2675941910802
 20
32.79636248576208
 10
128.7668110566956
 20
32.6389813756523
 10
129.1725853783891
 20
32.42008218097363
 10
129.4823472620819
 20
32.13846960216324
 10
129.7921290674348
 20
31.85558203714936
 10
130.0186881401923
 20
31.52145596387891
 10
130.1569344963491
 20
31.13872104140682
 10
130.2951808525067
 20
30.75726110514188
 10
130.3655839972089
 20
30.33739220934695
 10
130.3655839972089
 20
29.88174401307151
 10
130.3655839972089
 20
29.16105805870393
 10
130.1786989093616
 20
28.51973999581423
 10
129.8074787060859
 20
27.96041948346647
 10
129.4349835166003
 20
27.40101928447621
 10
128.8448840403089
 20
27.02593427925422
 10
128.0346203439603
 20
26.83651914065194
 10
128.0346203439603
 20
26.83651914065194
 10
130.6817606552631
 20
21.92622850506632
 10
130.6817606552631
 20
21.92622850506632
 10
130.6817606552631
 20
21.92622850506632
 10
129.7652447879281
 20
21.92622850506632
 10
129.7652447879281
 20
21.92622850506632
 10
129.7652447879281
 20
21.92622850506632
 10
127.1859476880809
 20
26.73667178319192
 10
127.1859476880809
 20
26.73667178319192
 10
127.1859476880809
 20
26.73667178319192
 10
123.8911143828472
 20
26.73667178319192
 10
123.8911143828472
 20
26.73667178319192
 10
123.8911143828472
 20
26.73667178319192
 10
123.8911143828472
 20
21.92622850506632
 10
123.8911143828472
 20
21.92622850506632
 10
123.8911143828472
 20
21.92622850506632
 10
123.0910804586574
 20
21.92622850506632
 10
123.0910804586574
 20
21.92622850506632
 10
123.0910804586574
 20
21.92622850506632
 10
123.0910804586574
 20
33.02809122916187
 10
123.0910804586574
 20
33.02809122916187
 97
        0
 97
        1
330
C5
 75
     2
 76
     1
 98
        1
 10
0.0
 20
0.0
450
        0
451
        0
460
0.0
461
0.0
452
        0
462
0.0
453
        0
470

  0
LWPOLYLINE
  5
C7
330
A8
100
AcDbEntity
  8
图层 1
100
AcDbPolyline
 90
       12
 70
     1
 43
0.0
 10
134.0097037585992
 20
33.02817091580437
 10
140.667213580522
 20
33.02817091580437
 10
140.667213580522
 20
32.27935557820456
 10
134.8084427749218
 20
32.27935557820456
 10
134.8084427749218
 20
28.08465095215615
 10
139.3858922842728
 20
28.08465095215615
 10
139.3858922842728
 20
27.33583561456362
 10
134.8084427749218
 20
27.33583561456362
 10
134.8084427749218
 20
22.67512352929771
 10
141.0985872346827
 20
22.67512352929771
 10
141.0985872346827
 20
21.92630819170336
 10
134.0097037585992
 20
21.92630819170336
  0
HATCH
  5
C8
330
A8
100
AcDbEntity
  8
图层 1
 62
   250
420
  2236191
440
 33554687
100
AcDbHatch
 10
0.0
 20
0.0
 30
0.0
210
0.0
220
0.0
230
1.0
  2
SOLID
 70
     1
 71
     1
 91
        1
 92
        1
 93
       12
 72
     1
 10
134.0097037585992
 20
33.02817091580437
 11
140.667213580522
 21
33.02817091580437
 72
     1
 10
140.667213580522
 20
33.02817091580437
 11
140.667213580522
 21
32.27935557820456
 72
     1
 10
140.667213580522
 20
32.27935557820456
 11
134.8084427749218
 21
32.27935557820456
 72
     1
 10
134.8084427749218
 20
32.27935557820456
 11
134.8084427749218
 21
28.08465095215615
 72
     1
 10
134.8084427749218
 20
28.08465095215615
 11
139.3858922842728
 21
28.08465095215615
 72
     1
 10
139.3858922842728
 20
28.08465095215615
 11
139.3858922842728
 21
27.33583561456362
 72
     1
 10
139.3858922842728
 20
27.33583561456362
 11
134.8084427749218
 21
27.33583561456362
 72
     1
 10
134.8084427749218
 20
27.33583561456362
 11
134.8084427749218
 21
22.67512352929771
 72
     1
 10
134.8084427749218
 20
22.67512352929771
 11
141.0985872346827
 21
22.67512352929771
 72
     1
 10
141.0985872346827
 20
22.67512352929771
 11
141.0985872346827
 21
21.92630819170336
 72
     1
 10
141.0985872346827
 20
21.92630819170336
 11
134.0097037585992
 21
21.92630819170336
 72
     1
 10
134.0097037585992
 20
21.92630819170336
 11
134.0097037585992
 21
33.02817091580437
 97
        1
330
C7
 75
     2
 76
     1
 98
        1
 10
0.0
 20
0.0
450
        0
451
        0
460
0.0
461
0.0
452
        0
462
0.0
453
        0
470

  0
LWPOLYLINE
  5
C9
330
A8
100
AcDbEntity
  8
图层 1
100
AcDbPolyline
 90
       12
 70
     1
 43
0.0
 10
150.6194272168914
 20
33.02817091580437
 10
151.4207361272902
 20
33.02817091580437
 10
151.4207361272902
 20
28.08465095215615
 10
158.4097722459182
 20
28.08465095215615
 10
158.4097722459182
 20
33.02817091580437
 10
159.2085311839
 20
33.02817091580437
 10
159.2085311839
 20
21.92630819170336
 10
158.4097722459182
 20
21.92630819170336
 10
158.4097722459182
 20
27.33583561456362
 10
151.4207361272902
 20
27.33583561456362
 10
151.4207361272902
 20
21.92630819170336
 10
150.6194272168914
 20
21.92630819170336
  0
HATCH
  5
CA
330
A8
100
AcDbEntity
  8
图层 1
 62
   250
420
  2236191
440
 33554687
100
AcDbHatch
 10
0.0
 20
0.0
 30
0.0
210
0.0
220
0.0
230
1.0
  2
SOLID
 70
     1
 71
     1
 91
        1
 92
        1
 93
       12
 72
     1
 10
150.6194272168914
 20
33.02817091580437
 11
151.4207361272902
 21
33.02817091580437
 72
     1
 10
151.4207361272902
 20
33.02817091580437
 11
151.4207361272902
 21
28.08465095215615
 72
     1
 10
151.4207361272902
 20
28.08465095215615
 11
158.4097722459182
 21
28.08465095215615
 72
     1
 10
158.4097722459182
 20
28.08465095215615
 11
158.4097722459182
 21
33.02817091580437
 72
     1
 10
158.4097722459182
 20
33.02817091580437
 11
159.2085311839
 21
33.02817091580437
 72
     1
 10
159.2085311839
 20
33.02817091580437
 11
159.2085311839
 21
21.92630819170336
 72
     1
 10
159.2085311839
 20
21.92630819170336
 11
158.4097722459182
 21
21.92630819170336
 72
     1
 10
158.4097722459182
 20
21.92630819170336
 11
158.4097722459182
 21
27.33583561456362
 72
     1
 10
158.4097722459182
 20
27.33583561456362
 11
151.4207361272902
 21
27.33583561456362
 72
     1
 10
151.4207361272902
 20
27.33583561456362
 11
151.4207361272902
 21
21.92630819170336
 72
     1
 10
151.4207361272902
 20
21.92630819170336
 11
150.6194272168914
 21
21.92630819170336
 72
     1
 10
150.6194272168914
 20
21.92630819170336
 11
150.6194272168914
 21
33.02817091580437
 97
        1
330
C9
 75
     2
 76
     1
 98
        1
 10
0.0
 20
0.0
450
        0
451
        0
460
0.0
461
0.0
452
        0
462
0.0
453
        0
470

  0
SPLINE
  5
CB
330
A8
100
AcDbEntity
  8
图层 1
100
AcDbSpline
210
0.0
220
0.0
230
1.0
 70
    11
 71
     3
 72
    14
 73
    10
 74
     0
 42
0.0000000001
 43
0.0000000001
 40
0.0
 40
0.0
 40
0.0
 40
0.0
 40
1.0
 40
1.0
 40
1.0
 40
2.0
 40
2.0
 40
2.0
 40
3.0
 40
3.0
 40
3.0
 40
3.0
 10
169.1950399571124
 20
26.25416918990777
 30
0.0
 10
169.1950399571124
 20
26.25416918990777
 30
0.0
 10
166.8807009287238
 20
32.01312252053867
 30
0.0
 10
166.8807009287238
 20
32.01312252053867
 30
0.0
 10
166.8807009287238
 20
32.01312252053867
 30
0.0
 10
164.5676767298637
 20
26.25416918990777
 30
0.0
 10
164.5676767298637
 20
26.25416918990777
 30
0.0
 10
164.5676767298637
 20
26.25416918990777
 30
0.0
 10
169.1950399571124
 20
26.25416918990777
 30
0.0
 10
169.1950399571124
 20
26.25416918990777
 30
0.0
  0
SPLINE
  5
CC
330
A8
100
AcDbEntity
  8
图层 1
100
AcDbSpline
210
0.0
220
0.0
230
1.0
 70
    11
 71
     3
 72
    29
 73
    25
 74
     0
 42
0.0000000001
 43
0.0000000001
 40
0.0
 40
0.0
 40
0.0
 40
0.0
 40
1.0
 40
1.0
 40
1.0
 40
2.0
 40
2.0
 40
2.0
 40
3.0
 40
3.0
 40
3.0
 40
4.0
 40
4.0
 40
4.0
 40
5.0
 40
5.0
 40
5.0
 40
6.0
 40
6.0
 40
6.0
 40
7.0
 40
7.0
 40
7.0
 40
8.0
 40
8.0
 40
8.0
 40
8.0
 10
166.5146205136007
 20
33.02817091580437
 30
0.0
 10
166.5146205136007
 20
33.02817091580437
 30
0.0
 10
167.3133794515834
 20
33.02817091580437
 30
0.0
 10
167.3133794515834
 20
33.02817091580437
 30
0.0
 10
167.3133794515834
 20
33.02817091580437
 30
0.0
 10
171.8575299070662
 20
21.92630819170336
 30
0.0
 10
171.8575299070662
 20
21.92630819170336
 30
0.0
 10
171.8575299070662
 20
21.92630819170336
 30
0.0
 10
170.9422890259402
 20
21.92630819170336
 30
0.0
 10
170.9422890259402
 20
21.92630819170336
 30
0.0
 10
170.9422890259402
 20
21.92630819170336
 30
0.0
 10
169.4945621078186
 20
25.50535385230797
 30
0.0
 10
169.4945621078186
 20
25.50535385230797
 30
0.0
 10
169.4945621078186
 20
25.50535385230797
 30
0.0
 10
164.2681346574982
 20
25.50535385230797
 30
0.0
 10
164.2681346574982
 20
25.50535385230797
 30
0.0
 10
164.2681346574982
 20
25.50535385230797
 30
0.0
 10
162.8370423250662
 20
21.92630819170336
 30
0.0
 10
162.8370423250662
 20
21.92630819170336
 30
0.0
 10
162.8370423250662
 20
21.92630819170336
 30
0.0
 10
161.9717450443277
 20
21.92630819170336
 30
0.0
 10
161.9717450443277
 20
21.92630819170336
 30
0.0
 10
161.9717450443277
 20
21.92630819170336
 30
0.0
 10
166.5146205136007
 20
33.02817091580437
 30
0.0
 10
166.5146205136007
 20
33.02817091580437
 30
0.0
  0
HATCH
  5
CD
330
A8
100
AcDbEntity
  8
图层 1
 62
   250
420
  2236191
440
 33554687
100
AcDbHatch
 10
0.0
 20
0.0
 30
0.0
210
0.0
220
0.0
230
1.0
  2
SOLID
 70
     1
 71
     1
 91
        2
 92
        1
 93
        1
 72
     4
 94
        3
 73
     0
 74
     0
 95
       14
 96
       10
 40
0.0
 40
0.0
 40
0.0
 40
0.0
 40
1.0
 40
1.0
 40
1.0
 40
2.0
 40
2.0
 40
2.0
 40
3.0
 40
3.0
 40
3.0
 40
3.0
 10
169.1950399571124
 20
26.25416918990777
 10
169.1950399571124
 20
26.25416918990777
 10
166.8807009287238
 20
32.01312252053867
 10
166.8807009287238
 20
32.01312252053867
 10
166.8807009287238
 20
32.01312252053867
 10
164.5676767298637
 20
26.25416918990777
 10
164.5676767298637
 20
26.25416918990777
 10
164.5676767298637
 20
26.25416918990777
 10
169.1950399571124
 20
26.25416918990777
 10
169.1950399571124
 20
26.25416918990777
 97
        0
 97
        1
330
CB
 92
        1
 93
        1
 72
     4
 94
        3
 73
     0
 74
     0
 95
       29
 96
       25
 40
0.0
 40
0.0
 40
0.0
 40
0.0
 40
1.0
 40
1.0
 40
1.0
 40
2.0
 40
2.0
 40
2.0
 40
3.0
 40
3.0
 40
3.0
 40
4.0
 40
4.0
 40
4.0
 40
5.0
 40
5.0
 40
5.0
 40
6.0
 40
6.0
 40
6.0
 40
7.0
 40
7.0
 40
7.0
 40
8.0
 40
8.0
 40
8.0
 40
8.0
 10
166.5146205136007
 20
33.02817091580437
 10
166.5146205136007
 20
33.02817091580437
 10
167.3133794515834
 20
33.02817091580437
 10
167.3133794515834
 20
33.02817091580437
 10
167.3133794515834
 20
33.02817091580437
 10
171.8575299070662
 20
21.92630819170336
 10
171.8575299070662
 20
21.92630819170336
 10
171.8575299070662
 20
21.92630819170336
 10
170.9422890259402
 20
21.92630819170336
 10
170.9422890259402
 20
21.92630819170336
 10
170.9422890259402
 20
21.92630819170336
 10
169.4945621078186
 20
25.50535385230797
 10
169.4945621078186
 20
25.50535385230797
 10
169.4945621078186
 20
25.50535385230797
 10
164.2681346574982
 20
25.50535385230797
 10
164.2681346574982
 20
25.50535385230797
 10
164.2681346574982
 20
25.50535385230797
 10
162.8370423250662
 20
21.92630819170336
 10
162.8370423250662
 20
21.92630819170336
 10
162.8370423250662
 20
21.92630819170336
 10
161.9717450443277
 20
21.92630819170336
 10
161.9717450443277
 20
21.92630819170336
 10
161.9717450443277
 20
21.92630819170336
 10
166.5146205136007
 20
33.02817091580437
 10
166.5146205136007
 20
33.02817091580437
 97
        0
 97
        1
330
CC
 75
     2
 76
     1
 98
        1
 10
0.0
 20
0.0
450
        0
451
        0
460
0.0
461
0.0
452
        0
462
0.0
453
        0
470

  0
SPLINE
  5
CE
330
A8
100
AcDbEntity
  8
图层 1
100
AcDbSpline
210
0.0
220
0.0
230
1.0
 70
     9
 71
     3
 72
    23
 73
    19
 74
     0
 42
0.0000000001
 43
0.0000000001
 40
0.0
 40
0.0
 40
0.0
 40
0.0
 40
1.0
 40
1.0
 40
1.0
 40
2.0
 40
2.0
 40
2.0
 40
3.0
 40
3.0
 40
3.0
 40
4.0
 40
4.0
 40
4.0
 40
5.0
 40
5.0
 40
5.0
 40
6.0
 40
6.0
 40
6.0
 40
6.0
 10
178.2997363938539
 20
27.48548712079173
 30
0.0
 10
180.1301982344466
 20
27.48548712079173
 30
0.0
 10
181.0454191939134
 20
28.28426598043188
 30
0.0
 10
181.0454191939134
 20
29.88174401307151
 30
0.0
 10
181.0454191939134
 20
30.68044318607827
 30
0.0
 10
180.8034905608456
 20
31.28080231702006
 30
0.0
 10
180.3209282025782
 20
31.67891676063118
 30
0.0
 10
179.8383459226515
 20
32.07958117666021
 30
0.0
 10
179.1317645032141
 20
32.27927589156934
 30
0.0
 10
178.1998890363984
 20
32.27927589156934
 30
0.0
 10
178.1998890363984
 20
32.27927589156934
 30
0.0
 10
175.4196222354321
 20
32.27927589156934
 30
0.0
 10
175.4196222354321
 20
32.27927589156934
 30
0.0
 10
175.4196222354321
 20
32.27927589156934
 30
0.0
 10
175.4196222354321
 20
27.48548712079173
 30
0.0
 10
175.4196222354321
 20
27.48548712079173
 30
0.0
 10
175.4196222354321
 20
27.48548712079173
 30
0.0
 10
178.2997363938539
 20
27.48548712079173
 30
0.0
 10
178.2997363938539
 20
27.48548712079173
 30
0.0
  0
SPLINE
  5
CF
330
A8
100
AcDbEntity
  8
图层 1
100
AcDbSpline
210
0.0
220
0.0
230
1.0
 70
    11
 71
     3
 72
    47
 73
    43
 74
     0
 42
0.0000000001
 43
0.0000000001
 40
0.0
 40
0.0
 40
0.0
 40
0.0
 40
1.0
 40
1.0
 40
1.0
 40
2.0
 40
2.0
 40
2.0
 40
3.0
 40
3.0
 40
3.0
 40
4.0
 40
4.0
 40
4.0
 40
5.0
 40
5.0
 40
5.0
 40
6.0
 40
6.0
 40
6.0
 40
7.0
 40
7.0
 40
7.0
 40
8.0
 40
8.0
 40
8.0
 40
9.0
 40
9.0
 40
9.0
 40
10.0
 40
10.0
 40
10.0
 40
11.0
 40
11.0
 40
11.0
 40
12.0
 40
12.0
 40
12.0
 40
13.0
 40
13.0
 40
13.0
 40
14.0
 40
14.0
 40
14.0
 40
14.0
 10
174.6208632974503
 20
33.02809122916187
 30
0.0
 10
174.6208632974503
 20
33.02809122916187
 30
0.0
 10
177.9669052284498
 20
33.02809122916187
 30
0.0
 10
177.9669052284498
 20
33.02809122916187
 30
0.0
 10
178.6875712611599
 20
33.02809122916187
 30
0.0
 10
179.2981701250855
 20
32.95127331009826
 30
0.0
 10
179.7973869907027
 20
32.79636248576208
 30
0.0
 10
180.296603856319
 20
32.6389813756523
 30
0.0
 10
180.701093230974
 20
32.42008218097363
 30
0.0
 10
181.0121301008758
 20
32.13846960216324
 30
0.0
 10
181.3219119062278
 20
31.85558203714936
 30
0.0
 10
181.5471860319467
 20
31.52145596387891
 30
0.0
 10
181.6854423489339
 20
31.13872104140682
 30
0.0
 10
181.8249736521293
 20
30.75726110514188
 30
0.0
 10
181.8941018106234
 20
30.33739220934695
 30
0.0
 10
181.8941018106234
 20
29.88174401307151
 30
0.0
 10
181.8941018106234
 20
29.16105805870393
 30
0.0
 10
181.7084917089851
 20
28.51973999581423
 30
0.0
 10
181.3359965194995
 20
27.96041948346647
 30
0.0
 10
180.9647763162247
 20
27.40101928447621
 30
0.0
 10
180.3734018537234
 20
27.02593427925422
 30
0.0
 10
179.5644031827541
 20
26.83651914065194
 30
0.0
 10
179.5644031827541
 20
26.83651914065194
 30
0.0
 10
182.2102585470183
 20
21.92622850506632
 30
0.0
 10
182.2102585470183
 20
21.92622850506632
 30
0.0
 10
182.2102585470183
 20
21.92622850506632
 30
0.0
 10
181.2950375875516
 20
21.92622850506632
 30
0.0
 10
181.2950375875516
 20
21.92622850506632
 30
0.0
 10
181.2950375875516
 20
21.92622850506632
 30
0.0
 10
178.7157404877043
 20
26.73667178319192
 30
0.0
 10
178.7157404877043
 20
26.73667178319192
 30
0.0
 10
178.7157404877043
 20
26.73667178319192
 30
0.0
 10
175.4196222354321
 20
26.73667178319192
 30
0.0
 10
175.4196222354321
 20
26.73667178319192
 30
0.0
 10
175.4196222354321
 20
26.73667178319192
 30
0.0
 10
175.4196222354321
 20
21.92622850506632
 30
0.0
 10
175.4196222354321
 20
21.92622850506632
 30
0.0
 10
175.4196222354321
 20
21.92622850506632
 30
0.0
 10
174.6208632974503
 20
21.92622850506632
 30
0.0
 10
174.6208632974503
 20
21.92622850506632
 30
0.0
 10
174.6208632974503
 20
21.92622850506632
 30
0.0
 10
174.6208632974503
 20
33.02809122916187
 30
0.0
 10
174.6208632974503
 20
33.02809122916187
 30
0.0
  0
HATCH
  5
D0
330
A8
100
AcDbEntity
  8
图层 1
 62
   250
420
  2236191
440
 33554687
100
AcDbHatch
 10
0.0
 20
0.0
 30
0.0
210
0.0
220
0.0
230
1.0
  2
SOLID
 70
     1
 71
     1
 91
        2
 92
        1
 93
        1
 72
     4
 94
        3
 73
     0
 74
     0
 95
       23
 96
       19
 40
0.0
 40
0.0
 40
0.0
 40
0.0
 40
1.0
 40
1.0
 40
1.0
 40
2.0
 40
2.0
 40
2.0
 40
3.0
 40
3.0
 40
3.0
 40
4.0
 40
4.0
 40
4.0
 40
5.0
 40
5.0
 40
5.0
 40
6.0
 40
6.0
 40
6.0
 40
6.0
 10
178.2997363938539
 20
27.48548712079173
 10
180.1301982344466
 20
27.48548712079173
 10
181.0454191939134
 20
28.28426598043188
 10
181.0454191939134
 20
29.88174401307151
 10
181.0454191939134
 20
30.68044318607827
 10
180.8034905608456
 20
31.28080231702006
 10
180.3209282025782
 20
31.67891676063118
 10
179.8383459226515
 20
32.07958117666021
 10
179.1317645032141
 20
32.27927589156934
 10
178.1998890363984
 20
32.27927589156934
 10
178.1998890363984
 20
32.27927589156934
 10
175.4196222354321
 20
32.27927589156934
 10
175.4196222354321
 20
32.27927589156934
 10
175.4196222354321
 20
32.27927589156934
 10
175.4196222354321
 20
27.48548712079173
 10
175.4196222354321
 20
27.48548712079173
 10
175.4196222354321
 20
27.48548712079173
 10
178.2997363938539
 20
27.48548712079173
 10
178.2997363938539
 20
27.48548712079173
 97
        0
 97
        1
330
CE
 92
        1
 93
        1
 72
     4
 94
        3
 73
     0
 74
     0
 95
       47
 96
       43
 40
0.0
 40
0.0
 40
0.0
 40
0.0
 40
1.0
 40
1.0
 40
1.0
 40
2.0
 40
2.0
 40
2.0
 40
3.0
 40
3.0
 40
3.0
 40
4.0
 40
4.0
 40
4.0
 40
5.0
 40
5.0
 40
5.0
 40
6.0
 40
6.0
 40
6.0
 40
7.0
 40
7.0
 40
7.0
 40
8.0
 40
8.0
 40
8.0
 40
9.0
 40
9.0
 40
9.0
 40
10.0
 40
10.0
 40
10.0
 40
11.0
 40
11.0
 40
11.0
 40
12.0
 40
12.0
 40
12.0
 40
13.0
 40
13.0
 40
13.0
 40
14.0
 40
14.0
 40
14.0
 40
14.0
 10
174.6208632974503
 20
33.02809122916187
 10
174.6208632974503
 20
33.02809122916187
 10
177.9669052284498
 20
33.02809122916187
 10
177.9669052284498
 20
33.02809122916187
 10
178.6875712611599
 20
33.02809122916187
 10
179.2981701250855
 20
32.95127331009826
 10
179.7973869907027
 20
32.79636248576208
 10
180.296603856319
 20
32.6389813756523
 10
180.701093230974
 20
32.42008218097363
 10
181.0121301008758
 20
32.13846960216324
 10
181.3219119062278
 20
31.85558203714936
 10
181.5471860319467
 20
31.52145596387891
 10
181.6854423489339
 20
31.13872104140682
 10
181.8249736521293
 20
30.75726110514188
 10
181.8941018106234
 20
30.33739220934695
 10
181.8941018106234
 20
29.88174401307151
 10
181.8941018106234
 20
29.16105805870393
 10
181.7084917089851
 20
28.51973999581423
 10
181.3359965194995
 20
27.96041948346647
 10
180.9647763162247
 20
27.40101928447621
 10
180.3734018537234
 20
27.02593427925422
 10
179.5644031827541
 20
26.83651914065194
 10
179.5644031827541
 20
26.83651914065194
 10
182.2102585470183
 20
21.92622850506632
 10
182.2102585470183
 20
21.92622850506632
 10
182.2102585470183
 20
21.92622850506632
 10
181.2950375875516
 20
21.92622850506632
 10
181.2950375875516
 20
21.92622850506632
 10
181.2950375875516
 20
21.92622850506632
 10
178.7157404877043
 20
26.73667178319192
 10
178.7157404877043
 20
26.73667178319192
 10
178.7157404877043
 20
26.73667178319192
 10
175.4196222354321
 20
26.73667178319192
 10
175.4196222354321
 20
26.73667178319192
 10
175.4196222354321
 20
26.73667178319192
 10
175.4196222354321
 20
21.92622850506632
 10
175.4196222354321
 20
21.92622850506632
 10
175.4196222354321
 20
21.92622850506632
 10
174.6208632974503
 20
21.92622850506632
 10
174.6208632974503
 20
21.92622850506632
 10
174.6208632974503
 20
21.92622850506632
 10
174.6208632974503
 20
33.02809122916187
 10
174.6208632974503
 20
33.02809122916187
 97
        0
 97
        1
330
CF
 75
     2
 76
     1
 98
        1
 10
0.0
 20
0.0
450
        0
451
        0
460
0.0
461
0.0
452
        0
462
0.0
453
        0
470

  0
SPLINE
  5
D1
330
A8
100
AcDbEntity
  8
图层 1
100
AcDbSpline
210
0.0
220
0.0
230
1.0
 70
     9
 71
     3
 72
    38
 73
    34
 74
     0
 42
0.0000000001
 43
0.0000000001
 40
0.0
 40
0.0
 40
0.0
 40
0.0
 40
1.0
 40
1.0
 40
1.0
 40
2.0
 40
2.0
 40
2.0
 40
3.0
 40
3.0
 40
3.0
 40
4.0
 40
4.0
 40
4.0
 40
5.0
 40
5.0
 40
5.0
 40
6.0
 40
6.0
 40
6.0
 40
7.0
 40
7.0
 40
7.0
 40
8.0
 40
8.0
 40
8.0
 40
9.0
 40
9.0
 40
9.0
 40
10.0
 40
10.0
 40
10.0
 40
11.0
 40
11.0
 40
11.0
 40
11.0
 10
188.7351399207646
 20
22.67520321593293
 30
0.0
 10
189.5223642178916
 20
22.67520321593293
 30
0.0
 10
190.2353604116906
 20
22.77377558718399
 30
0.0
 10
190.874088658843
 20
22.96574069820417
 30
0.0
 10
191.5128567493138
 20
23.16033546827748
 30
0.0
 10
192.0581324917129
 20
23.45860255443586
 30
0.0
 10
192.5138404529625
 20
23.85799198425775
 30
0.0
 10
192.9682535063457
 20
24.25602674123183
 30
0.0
 10
193.3176993357792
 20
24.75908848713334
 30
0.0
 10
193.5621978629242
 20
25.36454756290914
 30
0.0
 10
193.8054014822
 20
25.96745666626339
 30
0.0
 10
193.9270232134977
 20
26.67531307190984
 30
0.0
 10
193.9270232134977
 20
27.48564649406399
 30
0.0
 10
193.9270232134977
 20
28.29462524337396
 30
0.0
 10
193.802851509783
 20
29.00120666281328
 30
0.0
 10
193.5532331161448
 20
29.59893613469649
 30
0.0
 10
193.3023397362985
 20
30.19929526563828
 30
0.0
 10
192.9490490265798
 20
30.69725706670397
 30
0.0
 10
192.4882411204953
 20
31.097921482733
 30
0.0
 10
192.0274132927507
 20
31.49603592634594
 30
0.0
 10
191.4706029094968
 20
31.79294833965287
 30
0.0
 10
190.8152201549956
 20
31.98754310973163
 30
0.0
 10
190.1598374004943
 20
32.18213787980494
 30
0.0
 10
189.4225168604362
 20
32.27935557820456
 30
0.0
 10
188.6020233919307
 20
32.27935557820456
 30
0.0
 10
188.6020233919307
 20
32.27935557820456
 30
0.0
 10
186.3376279639297
 20
32.27935557820456
 30
0.0
 10
186.3376279639297
 20
32.27935557820456
 30
0.0
 10
186.3376279639297
 20
32.27935557820456
 30
0.0
 10
186.3376279639297
 20
22.67520321593293
 30
0.0
 10
186.3376279639297
 20
22.67520321593293
 30
0.0
 10
186.3376279639297
 20
22.67520321593293
 30
0.0
 10
188.7351399207646
 20
22.67520321593293
 30
0.0
 10
188.7351399207646
 20
22.67520321593293
 30
0.0
  0
SPLINE
  5
D2
330
A8
100
AcDbEntity
  8
图层 1
100
AcDbSpline
210
0.0
220
0.0
230
1.0
 70
    11
 71
     3
 72
    38
 73
    34
 74
     0
 42
0.0000000001
 43
0.0000000001
 40
0.0
 40
0.0
 40
0.0
 40
0.0
 40
1.0
 40
1.0
 40
1.0
 40
2.0
 40
2.0
 40
2.0
 40
3.0
 40
3.0
 40
3.0
 40
4.0
 40
4.0
 40
4.0
 40
5.0
 40
5.0
 40
5.0
 40
6.0
 40
6.0
 40
6.0
 40
7.0
 40
7.0
 40
7.0
 40
8.0
 40
8.0
 40
8.0
 40
9.0
 40
9.0
 40
9.0
 40
10.0
 40
10.0
 40
10.0
 40
11.0
 40
11.0
 40
11.0
 40
11.0
 10
185.5401440121568
 20
33.02825060244141
 30
0.0
 10
185.5401440121568
 20
33.02825060244141
 30
0.0
 10
188.5674393910249
 20
33.02825060244141
 30
0.0
 10
188.5674393910249
 20
33.02825060244141
 30
0.0
 10
189.4775604056576
 20
33.02825060244141
 30
0.0
 10
190.313433395303
 20
32.92067364109243
 30
0.0
 10
191.0725083875441
 20
32.70304943263
 30
0.0
 10
191.832858365994
 20
32.48677989700627
 30
0.0
 10
192.4882411204953
 20
32.15392880994477
 30
0.0
 10
193.0373816648398
 20
31.7046555447123
 30
0.0
 10
193.5865222091834
 20
31.25538227948528
 30
0.0
 10
194.0127660360213
 20
30.68060255935598
 30
0.0
 10
194.319977947297
 20
29.98294604337753
 30
0.0
 10
194.6246398861567
 20
29.28536921403429
 30
0.0
 10
194.7756859085484
 20
28.45208604012805
 30
0.0
 10
194.7756859085484
 20
27.48564649406399
 30
0.0
 10
194.7756859085484
 20
26.52175692041965
 30
0.0
 10
194.6246398861567
 20
25.68839405987456
 30
0.0
 10
194.319977947297
 20
24.98826725811523
 30
0.0
 10
194.0127660360213
 20
24.29061074213496
 30
0.0
 10
193.5865222091834
 20
23.71328104958957
 30
0.0
 10
193.0373816648398
 20
23.25890783952855
 30
0.0
 10
192.4882411204953
 20
22.8031799566179
 30
0.0
 10
191.832858365994
 20
22.46785858377553
 30
0.0
 10
191.0725083875441
 20
22.25150936151476
 30
0.0
 10
190.313433395303
 20
22.035160139254
 30
0.0
 10
189.4775604056576
 20
21.92638787834039
 30
0.0
 10
188.5674393910249
 20
21.92638787834039
 30
0.0
 10
188.5674393910249
 20
21.92638787834039
 30
0.0
 10
185.5401440121568
 20
21.92638787834039
 30
0.0
 10
185.5401440121568
 20
21.92638787834039
 30
0.0
 10
185.5401440121568
 20
21.92638787834039
 30
0.0
 10
185.5401440121568
 20
33.02825060244141
 30
0.0
 10
185.5401440121568
 20
33.02825060244141
 30
0.0
  0
HATCH
  5
D3
330
A8
100
AcDbEntity
  8
图层 1
 62
   250
420
  2236191
440
 33554687
100
AcDbHatch
 10
0.0
 20
0.0
 30
0.0
210
0.0
220
0.0
230
1.0
  2
SOLID
 70
     1
 71
     1
 91
        2
 92
        1
 93
        1
 72
     4
 94
        3
 73
     0
 74
     0
 95
       38
 96
       34
 40
0.0
 40
0.0
 40
0.0
 40
0.0
 40
1.0
 40
1.0
 40
1.0
 40
2.0
 40
2.0
 40
2.0
 40
3.0
 40
3.0
 40
3.0
 40
4.0
 40
4.0
 40
4.0
 40
5.0
 40
5.0
 40
5.0
 40
6.0
 40
6.0
 40
6.0
 40
7.0
 40
7.0
 40
7.0
 40
8.0
 40
8.0
 40
8.0
 40
9.0
 40
9.0
 40
9.0
 40
10.0
 40
10.0
 40
10.0
 40
11.0
 40
11.0
 40
11.0
 40
11.0
 10
188.7351399207646
 20
22.67520321593293
 10
189.5223642178916
 20
22.67520321593293
 10
190.2353604116906
 20
22.77377558718399
 10
190.874088658843
 20
22.96574069820417
 10
191.5128567493138
 20
23.16033546827748
 10
192.0581324917129
 20
23.45860255443586
 10
192.5138404529625
 20
23.85799198425775
 10
192.9682535063457
 20
24.25602674123183
 10
193.3176993357792
 20
24.75908848713334
 10
193.5621978629242
 20
25.36454756290914
 10
193.8054014822
 20
25.96745666626339
 10
193.9270232134977
 20
26.67531307190984
 10
193.9270232134977
 20
27.48564649406399
 10
193.9270232134977
 20
28.29462524337396
 10
193.802851509783
 20
29.00120666281328
 10
193.5532331161448
 20
29.59893613469649
 10
193.3023397362985
 20
30.19929526563828
 10
192.9490490265798
 20
30.69725706670397
 10
192.4882411204953
 20
31.097921482733
 10
192.0274132927507
 20
31.49603592634594
 10
191.4706029094968
 20
31.79294833965287
 10
190.8152201549956
 20
31.98754310973163
 10
190.1598374004943
 20
32.18213787980494
 10
189.4225168604362
 20
32.27935557820456
 10
188.6020233919307
 20
32.27935557820456
 10
188.6020233919307
 20
32.27935557820456
 10
186.3376279639297
 20
32.27935557820456
 10
186.3376279639297
 20
32.27935557820456
 10
186.3376279639297
 20
32.27935557820456
 10
186.3376279639297
 20
22.67520321593293
 10
186.3376279639297
 20
22.67520321593293
 10
186.3376279639297
 20
22.67520321593293
 10
188.7351399207646
 20
22.67520321593293
 10
188.7351399207646
 20
22.67520321593293
 97
        0
 97
        1
330
D1
 92
        1
 93
        1
 72
     4
 94
        3
 73
     0
 74
     0
 95
       38
 96
       34
 40
0.0
 40
0.0
 40
0.0
 40
0.0
 40
1.0
 40
1.0
 40
1.0
 40
2.0
 40
2.0
 40
2.0
 40
3.0
 40
3.0
 40
3.0
 40
4.0
 40
4.0
 40
4.0
 40
5.0
 40
5.0
 40
5.0
 40
6.0
 40
6.0
 40
6.0
 40
7.0
 40
7.0
 40
7.0
 40
8.0
 40
8.0
 40
8.0
 40
9.0
 40
9.0
 40
9.0
 40
10.0
 40
10.0
 40
10.0
 40
11.0
 40
11.0
 40
11.0
 40
11.0
 10
185.5401440121568
 20
33.02825060244141
 10
185.5401440121568
 20
33.02825060244141
 10
188.5674393910249
 20
33.02825060244141
 10
188.5674393910249
 20
33.02825060244141
 10
189.4775604056576
 20
33.02825060244141
 10
190.313433395303
 20
32.92067364109243
 10
191.0725083875441
 20
32.70304943263
 10
191.832858365994
 20
32.48677989700627
 10
192.4882411204953
 20
32.15392880994477
 10
193.0373816648398
 20
31.7046555447123
 10
193.5865222091834
 20
31.25538227948528
 10
194.0127660360213
 20
30.68060255935598
 10
194.319977947297
 20
29.98294604337753
 10
194.6246398861567
 20
29.28536921403429
 10
194.7756859085484
 20
28.45208604012805
 10
194.7756859085484
 20
27.48564649406399
 10
194.7756859085484
 20
26.52175692041965
 10
194.6246398861567
 20
25.68839405987456
 10
194.319977947297
 20
24.98826725811523
 10
194.0127660360213
 20
24.29061074213496
 10
193.5865222091834
 20
23.71328104958957
 10
193.0373816648398
 20
23.25890783952855
 10
192.4882411204953
 20
22.8031799566179
 10
191.832858365994
 20
22.46785858377553
 10
191.0725083875441
 20
22.25150936151476
 10
190.313433395303
 20
22.035160139254
 10
189.4775604056576
 20
21.92638787834039
 10
188.5674393910249
 20
21.92638787834039
 10
188.5674393910249
 20
21.92638787834039
 10
185.5401440121568
 20
21.92638787834039
 10
185.5401440121568
 20
21.92638787834039
 10
185.5401440121568
 20
21.92638787834039
 10
185.5401440121568
 20
33.02825060244141
 10
185.5401440121568
 20
33.02825060244141
 97
        0
 97
        1
330
D2
 75
     2
 76
     1
 98
        1
 10
0.0
 20
0.0
450
        0
451
        0
460
0.0
461
0.0
452
        0
462
0.0
453
        0
470

  0
LWPOLYLINE
  5
D4
330
A8
100
AcDbEntity
  8
图层 1
100
AcDbPolyline
 90
       13
 70
     1
 43
0.0
 10
197.2054510321259
 20
33.02817091580437
 10
198.1053123921119
 20
33.02817091580437
 10
200.7678023420658
 20
23.05913343797874
 10
203.5800832498617
 20
32.69531982873559
 10
204.5631374599543
 20
32.69531982873559
 10
207.2422819172571
 20
23.1244764811654
 10
209.8894321893886
 20
33.02817091580437
 10
210.7534744055793
 20
33.02817091580437
 10
207.6403764392089
 20
21.92630819170336
 10
206.7596996373304
 20
21.92630819170336
 10
204.0460110224403
 20
31.51388573326403
 10
201.2004609432652
 20
21.92630819170336
 10
200.2685854764504
 20
21.92630819170336
  0
HATCH
  5
D5
330
A8
100
AcDbEntity
  8
图层 1
 62
   250
420
  2236191
440
 33554687
100
AcDbHatch
 10
0.0
 20
0.0
 30
0.0
210
0.0
220
0.0
230
1.0
  2
SOLID
 70
     1
 71
     1
 91
        1
 92
        1
 93
       13
 72
     1
 10
197.2054510321259
 20
33.02817091580437
 11
198.1053123921119
 21
33.02817091580437
 72
     1
 10
198.1053123921119
 20
33.02817091580437
 11
200.7678023420658
 21
23.05913343797874
 72
     1
 10
200.7678023420658
 20
23.05913343797874
 11
203.5800832498617
 21
32.69531982873559
 72
     1
 10
203.5800832498617
 20
32.69531982873559
 11
204.5631374599543
 21
32.69531982873559
 72
     1
 10
204.5631374599543
 20
32.69531982873559
 11
207.2422819172571
 21
23.1244764811654
 72
     1
 10
207.2422819172571
 20
23.1244764811654
 11
209.8894321893886
 21
33.02817091580437
 72
     1
 10
209.8894321893886
 20
33.02817091580437
 11
210.7534744055793
 21
33.02817091580437
 72
     1
 10
210.7534744055793
 20
33.02817091580437
 11
207.6403764392089
 21
21.92630819170336
 72
     1
 10
207.6403764392089
 20
21.92630819170336
 11
206.7596996373304
 21
21.92630819170336
 72
     1
 10
206.7596996373304
 20
21.92630819170336
 11
204.0460110224403
 21
31.51388573326403
 72
     1
 10
204.0460110224403
 20
31.51388573326403
 11
201.2004609432652
 21
21.92630819170336
 72
     1
 10
201.2004609432652
 20
21.92630819170336
 11
200.2685854764504
 21
21.92630819170336
 72
     1
 10
200.2685854764504
 20
21.92630819170336
 11
197.2054510321259
 21
33.02817091580437
 97
        1
330
D4
 75
     2
 76
     1
 98
        1
 10
0.0
 20
0.0
450
        0
451
        0
460
0.0
461
0.0
452
        0
462
0.0
453
        0
470

  0
SPLINE
  5
D6
330
A8
100
AcDbEntity
  8
图层 1
100
AcDbSpline
210
0.0
220
0.0
230
1.0
 70
    11
 71
     3
 72
    14
 73
    10
 74
     0
 42
0.0000000001
 43
0.0000000001
 40
0.0
 40
0.0
 40
0.0
 40
0.0
 40
1.0
 40
1.0
 40
1.0
 40
2.0
 40
2.0
 40
2.0
 40
3.0
 40
3.0
 40
3.0
 40
3.0
 10
219.3084724915097
 20
26.25416918990777
 30
0.0
 10
219.3084724915097
 20
26.25416918990777
 30
0.0
 10
216.9954283709903
 20
32.01312252053867
 30
0.0
 10
216.9954283709903
 20
32.01312252053867
 30
0.0
 10
216.9954283709903
 20
32.01312252053867
 30
0.0
 10
214.6811092642611
 20
26.25416918990777
 30
0.0
 10
214.6811092642611
 20
26.25416918990777
 30
0.0
 10
214.6811092642611
 20
26.25416918990777
 30
0.0
 10
219.3084724915097
 20
26.25416918990777
 30
0.0
 10
219.3084724915097
 20
26.25416918990777
 30
0.0
  0
SPLINE
  5
D7
330
A8
100
AcDbEntity
  8
图层 1
100
AcDbSpline
210
0.0
220
0.0
230
1.0
 70
    11
 71
     3
 72
    29
 73
    25
 74
     0
 42
0.0000000001
 43
0.0000000001
 40
0.0
 40
0.0
 40
0.0
 40
0.0
 40
1.0
 40
1.0
 40
1.0
 40
2.0
 40
2.0
 40
2.0
 40
3.0
 40
3.0
 40
3.0
 40
4.0
 40
4.0
 40
4.0
 40
5.0
 40
5.0
 40
5.0
 40
6.0
 40
6.0
 40
6.0
 40
7.0
 40
7.0
 40
7.0
 40
8.0
 40
8.0
 40
8.0
 40
8.0
 10
216.6293479558671
 20
33.02817091580437
 30
0.0
 10
216.6293479558671
 20
33.02817091580437
 30
0.0
 10
217.4280869721897
 20
33.02817091580437
 30
0.0
 10
217.4280869721897
 20
33.02817091580437
 30
0.0
 10
217.4280869721897
 20
33.02817091580437
 30
0.0
 10
221.9735124138806
 20
21.92630819170336
 30
0.0
 10
221.9735124138806
 20
21.92630819170336
 30
0.0
 10
221.9735124138806
 20
21.92630819170336
 30
0.0
 10
221.0570164682058
 20
21.92630819170336
 30
0.0
 10
221.0570164682058
 20
21.92630819170336
 30
0.0
 10
221.0570164682058
 20
21.92630819170336
 30
0.0
 10
219.607994642216
 20
25.50535385230797
 30
0.0
 10
219.607994642216
 20
25.50535385230797
 30
0.0
 10
219.607994642216
 20
25.50535385230797
 30
0.0
 10
214.3828620997638
 20
25.50535385230797
 30
0.0
 10
214.3828620997638
 20
25.50535385230797
 30
0.0
 10
214.3828620997638
 20
25.50535385230797
 30
0.0
 10
212.9517697673318
 20
21.92630819170336
 30
0.0
 10
212.9517697673318
 20
21.92630819170336
 30
0.0
 10
212.9517697673318
 20
21.92630819170336
 30
0.0
 10
212.0864525649331
 20
21.92630819170336
 30
0.0
 10
212.0864525649331
 20
21.92630819170336
 30
0.0
 10
212.0864525649331
 20
21.92630819170336
 30
0.0
 10
216.6293479558671
 20
33.02817091580437
 30
0.0
 10
216.6293479558671
 20
33.02817091580437
 30
0.0
  0
HATCH
  5
D8
330
A8
100
AcDbEntity
  8
图层 1
 62
   250
420
  2236191
440
 33554687
100
AcDbHatch
 10
0.0
 20
0.0
 30
0.0
210
0.0
220
0.0
230
1.0
  2
SOLID
 70
     1
 71
     1
 91
        2
 92
        1
 93
        1
 72
     4
 94
        3
 73
     0
 74
     0
 95
       14
 96
       10
 40
0.0
 40
0.0
 40
0.0
 40
0.0
 40
1.0
 40
1.0
 40
1.0
 40
2.0
 40
2.0
 40
2.0
 40
3.0
 40
3.0
 40
3.0
 40
3.0
 10
219.3084724915097
 20
26.25416918990777
 10
219.3084724915097
 20
26.25416918990777
 10
216.9954283709903
 20
32.01312252053867
 10
216.9954283709903
 20
32.01312252053867
 10
216.9954283709903
 20
32.01312252053867
 10
214.6811092642611
 20
26.25416918990777
 10
214.6811092642611
 20
26.25416918990777
 10
214.6811092642611
 20
26.25416918990777
 10
219.3084724915097
 20
26.25416918990777
 10
219.3084724915097
 20
26.25416918990777
 97
        0
 97
        1
330
D6
 92
        1
 93
        1
 72
     4
 94
        3
 73
     0
 74
     0
 95
       29
 96
       25
 40
0.0
 40
0.0
 40
0.0
 40
0.0
 40
1.0
 40
1.0
 40
1.0
 40
2.0
 40
2.0
 40
2.0
 40
3.0
 40
3.0
 40
3.0
 40
4.0
 40
4.0
 40
4.0
 40
5.0
 40
5.0
 40
5.0
 40
6.0
 40
6.0
 40
6.0
 40
7.0
 40
7.0
 40
7.0
 40
8.0
 40
8.0
 40
8.0
 40
8.0
 10
216.6293479558671
 20
33.02817091580437
 10
216.6293479558671
 20
33.02817091580437
 10
217.4280869721897
 20
33.02817091580437
 10
217.4280869721897
 20
33.02817091580437
 10
217.4280869721897
 20
33.02817091580437
 10
221.9735124138806
 20
21.92630819170336
 10
221.9735124138806
 20
21.92630819170336
 10
221.9735124138806
 20
21.92630819170336
 10
221.0570164682058
 20
21.92630819170336
 10
221.0570164682058
 20
21.92630819170336
 10
221.0570164682058
 20
21.92630819170336
 10
219.607994642216
 20
25.50535385230797
 10
219.607994642216
 20
25.50535385230797
 10
219.607994642216
 20
25.50535385230797
 10
214.3828620997638
 20
25.50535385230797
 10
214.3828620997638
 20
25.50535385230797
 10
214.3828620997638
 20
25.50535385230797
 10
212.9517697673318
 20
21.92630819170336
 10
212.9517697673318
 20
21.92630819170336
 10
212.9517697673318
 20
21.92630819170336
 10
212.0864525649331
 20
21.92630819170336
 10
212.0864525649331
 20
21.92630819170336
 10
212.0864525649331
 20
21.92630819170336
 10
216.6293479558671
 20
33.02817091580437
 10
216.6293479558671
 20
33.02817091580437
 97
        0
 97
        1
330
D7
 75
     2
 76
     1
 98
        1
 10
0.0
 20
0.0
450
        0
451
        0
460
0.0
461
0.0
452
        0
462
0.0
453
        0
470

  0
SPLINE
  5
D9
330
A8
100
AcDbEntity
  8
图层 1
100
AcDbSpline
210
0.0
220
0.0
230
1.0
 70
     9
 71
     3
 72
    23
 73
    19
 74
     0
 42
0.0000000001
 43
0.0000000001
 40
0.0
 40
0.0
 40
0.0
 40
0.0
 40
1.0
 40
1.0
 40
1.0
 40
2.0
 40
2.0
 40
2.0
 40
3.0
 40
3.0
 40
3.0
 40
4.0
 40
4.0
 40
4.0
 40
5.0
 40
5.0
 40
5.0
 40
6.0
 40
6.0
 40
6.0
 40
6.0
 10
228.4137864996956
 20
27.48548712079173
 30
0.0
 10
230.2442483402892
 20
27.48548712079173
 30
0.0
 10
231.1607642076242
 20
28.28426598043188
 30
0.0
 10
231.1607642076242
 20
29.88174401307151
 30
0.0
 10
231.1607642076242
 20
30.68044318607827
 30
0.0
 10
230.9188156528971
 20
31.28080231702006
 30
0.0
 10
230.4362532946289
 20
31.67891676063118
 30
0.0
 10
229.9536710147022
 20
32.07958117666021
 30
0.0
 10
229.2458146090567
 20
32.27927589156934
 30
0.0
 10
228.313939142241
 20
32.27927589156934
 30
0.0
 10
228.313939142241
 20
32.27927589156934
 30
0.0
 10
225.5349473274828
 20
32.27927589156934
 30
0.0
 10
225.5349473274828
 20
32.27927589156934
 30
0.0
 10
225.5349473274828
 20
32.27927589156934
 30
0.0
 10
225.5349473274828
 20
27.48548712079173
 30
0.0
 10
225.5349473274828
 20
27.48548712079173
 30
0.0
 10
225.5349473274828
 20
27.48548712079173
 30
0.0
 10
228.4137864996956
 20
27.48548712079173
 30
0.0
 10
228.4137864996956
 20
27.48548712079173
 30
0.0
  0
SPLINE
  5
DA
330
A8
100
AcDbEntity
  8
图层 1
100
AcDbSpline
210
0.0
220
0.0
230
1.0
 70
    11
 71
     3
 72
    47
 73
    43
 74
     0
 42
0.0000000001
 43
0.0000000001
 40
0.0
 40
0.0
 40
0.0
 40
0.0
 40
1.0
 40
1.0
 40
1.0
 40
2.0
 40
2.0
 40
2.0
 40
3.0
 40
3.0
 40
3.0
 40
4.0
 40
4.0
 40
4.0
 40
5.0
 40
5.0
 40
5.0
 40
6.0
 40
6.0
 40
6.0
 40
7.0
 40
7.0
 40
7.0
 40
8.0
 40
8.0
 40
8.0
 40
9.0
 40
9.0
 40
9.0
 40
10.0
 40
10.0
 40
10.0
 40
11.0
 40
11.0
 40
11.0
 40
12.0
 40
12.0
 40
12.0
 40
13.0
 40
13.0
 40
13.0
 40
14.0
 40
14.0
 40
14.0
 40
14.0
 10
224.7349333249522
 20
33.02809122916187
 30
0.0
 10
224.7349333249522
 20
33.02809122916187
 30
0.0
 10
228.0809752559517
 20
33.02809122916187
 30
0.0
 10
228.0809752559517
 20
33.02809122916187
 30
0.0
 10
228.8016412886618
 20
33.02809122916187
 30
0.0
 10
229.412220230929
 20
32.95127331009826
 30
0.0
 10
229.9114370965453
 20
32.79636248576208
 30
0.0
 10
230.4106539621616
 20
32.6389813756523
 30
0.0
 10
230.8164382446839
 20
32.42008218097363
 30
0.0
 10
231.1262001283776
 20
32.13846960216324
 30
0.0
 10
231.4359620120685
 20
31.85558203714936
 30
0.0
 10
231.6612560594494
 20
31.52145596387891
 30
0.0
 10
231.8007873626448
 20
31.13872104140682
 30
0.0
 10
231.9390436796311
 20
30.75726110514188
 30
0.0
 10
232.0081519164651
 20
30.33739220934695
 30
0.0
 10
232.0081519164651
 20
29.88174401307151
 30
0.0
 10
232.0081519164651
 20
29.16105805870393
 30
0.0
 10
231.8225418148277
 20
28.51973999581423
 30
0.0
 10
231.450046625343
 20
27.96041948346647
 30
0.0
 10
231.0788264220664
 20
27.40101928447621
 30
0.0
 10
230.488726945774
 20
27.02593427925422
 30
0.0
 10
229.678473210256
 20
26.83651914065194
 30
0.0
 10
229.678473210256
 20
26.83651914065194
 30
0.0
 10
232.3243285745202
 20
21.92622850506632
 30
0.0
 10
232.3243285745202
 20
21.92622850506632
 30
0.0
 10
232.3243285745202
 20
21.92622850506632
 30
0.0
 10
231.4090876933942
 20
21.92622850506632
 30
0.0
 10
231.4090876933942
 20
21.92622850506632
 30
0.0
 10
231.4090876933942
 20
21.92622850506632
 30
0.0
 10
228.8298105152062
 20
26.73667178319192
 30
0.0
 10
228.8298105152062
 20
26.73667178319192
 30
0.0
 10
228.8298105152062
 20
26.73667178319192
 30
0.0
 10
225.5349473274828
 20
26.73667178319192
 30
0.0
 10
225.5349473274828
 20
26.73667178319192
 30
0.0
 10
225.5349473274828
 20
26.73667178319192
 30
0.0
 10
225.5349473274828
 20
21.92622850506632
 30
0.0
 10
225.5349473274828
 20
21.92622850506632
 30
0.0
 10
225.5349473274828
 20
21.92622850506632
 30
0.0
 10
224.7349333249522
 20
21.92622850506632
 30
0.0
 10
224.7349333249522
 20
21.92622850506632
 30
0.0
 10
224.7349333249522
 20
21.92622850506632
 30
0.0
 10
224.7349333249522
 20
33.02809122916187
 30
0.0
 10
224.7349333249522
 20
33.02809122916187
 30
0.0
  0
HATCH
  5
DB
330
A8
100
AcDbEntity
  8
图层 1
 62
   250
420
  2236191
440
 33554687
100
AcDbHatch
 10
0.0
 20
0.0
 30
0.0
210
0.0
220
0.0
230
1.0
  2
SOLID
 70
     1
 71
     1
 91
        2
 92
        1
 93
        1
 72
     4
 94
        3
 73
     0
 74
     0
 95
       23
 96
       19
 40
0.0
 40
0.0
 40
0.0
 40
0.0
 40
1.0
 40
1.0
 40
1.0
 40
2.0
 40
2.0
 40
2.0
 40
3.0
 40
3.0
 40
3.0
 40
4.0
 40
4.0
 40
4.0
 40
5.0
 40
5.0
 40
5.0
 40
6.0
 40
6.0
 40
6.0
 40
6.0
 10
228.4137864996956
 20
27.48548712079173
 10
230.2442483402892
 20
27.48548712079173
 10
231.1607642076242
 20
28.28426598043188
 10
231.1607642076242
 20
29.88174401307151
 10
231.1607642076242
 20
30.68044318607827
 10
230.9188156528971
 20
31.28080231702006
 10
230.4362532946289
 20
31.67891676063118
 10
229.9536710147022
 20
32.07958117666021
 10
229.2458146090567
 20
32.27927589156934
 10
228.313939142241
 20
32.27927589156934
 10
228.313939142241
 20
32.27927589156934
 10
225.5349473274828
 20
32.27927589156934
 10
225.5349473274828
 20
32.27927589156934
 10
225.5349473274828
 20
32.27927589156934
 10
225.5349473274828
 20
27.48548712079173
 10
225.5349473274828
 20
27.48548712079173
 10
225.5349473274828
 20
27.48548712079173
 10
228.4137864996956
 20
27.48548712079173
 10
228.4137864996956
 20
27.48548712079173
 97
        0
 97
        1
330
D9
 92
        1
 93
        1
 72
     4
 94
        3
 73
     0
 74
     0
 95
       47
 96
       43
 40
0.0
 40
0.0
 40
0.0
 40
0.0
 40
1.0
 40
1.0
 40
1.0
 40
2.0
 40
2.0
 40
2.0
 40
3.0
 40
3.0
 40
3.0
 40
4.0
 40
4.0
 40
4.0
 40
5.0
 40
5.0
 40
5.0
 40
6.0
 40
6.0
 40
6.0
 40
7.0
 40
7.0
 40
7.0
 40
8.0
 40
8.0
 40
8.0
 40
9.0
 40
9.0
 40
9.0
 40
10.0
 40
10.0
 40
10.0
 40
11.0
 40
11.0
 40
11.0
 40
12.0
 40
12.0
 40
12.0
 40
13.0
 40
13.0
 40
13.0
 40
14.0
 40
14.0
 40
14.0
 40
14.0
 10
224.7349333249522
 20
33.02809122916187
 10
224.7349333249522
 20
33.02809122916187
 10
228.0809752559517
 20
33.02809122916187
 10
228.0809752559517
 20
33.02809122916187
 10
228.8016412886618
 20
33.02809122916187
 10
229.412220230929
 20
32.95127331009826
 10
229.9114370965453
 20
32.79636248576208
 10
230.4106539621616
 20
32.6389813756523
 10
230.8164382446839
 20
32.42008218097363
 10
231.1262001283776
 20
32.13846960216324
 10
231.4359620120685
 20
31.85558203714936
 10
231.6612560594494
 20
31.52145596387891
 10
231.8007873626448
 20
31.13872104140682
 10
231.9390436796311
 20
30.75726110514188
 10
232.0081519164651
 20
30.33739220934695
 10
232.0081519164651
 20
29.88174401307151
 10
232.0081519164651
 20
29.16105805870393
 10
231.8225418148277
 20
28.51973999581423
 10
231.450046625343
 20
27.96041948346647
 10
231.0788264220664
 20
27.40101928447621
 10
230.488726945774
 20
27.02593427925422
 10
229.678473210256
 20
26.83651914065194
 10
229.678473210256
 20
26.83651914065194
 10
232.3243285745202
 20
21.92622850506632
 10
232.3243285745202
 20
21.92622850506632
 10
232.3243285745202
 20
21.92622850506632
 10
231.4090876933942
 20
21.92622850506632
 10
231.4090876933942
 20
21.92622850506632
 10
231.4090876933942
 20
21.92622850506632
 10
228.8298105152062
 20
26.73667178319192
 10
228.8298105152062
 20
26.73667178319192
 10
228.8298105152062
 20
26.73667178319192
 10
225.5349473274828
 20
26.73667178319192
 10
225.5349473274828
 20
26.73667178319192
 10
225.5349473274828
 20
26.73667178319192
 10
225.5349473274828
 20
21.92622850506632
 10
225.5349473274828
 20
21.92622850506632
 10
225.5349473274828
 20
21.92622850506632
 10
224.7349333249522
 20
21.92622850506632
 10
224.7349333249522
 20
21.92622850506632
 10
224.7349333249522
 20
21.92622850506632
 10
224.7349333249522
 20
33.02809122916187
 10
224.7349333249522
 20
33.02809122916187
 97
        0
 97
        1
330
DA
 75
     2
 76
     1
 98
        1
 10
0.0
 20
0.0
450
        0
451
        0
460
0.0
461
0.0
452
        0
462
0.0
453
        0
470

  0
LWPOLYLINE
  5
DC
330
A8
100
AcDbEntity
  8
图层 1
100
AcDbPolyline
 90
       12
 70
     1
 43
0.0
 10
235.6535964682134
 20
33.02817091580437
 10
242.3111162509649
 20
33.02817091580437
 10
242.3111162509649
 20
32.27935557820456
 10
236.452335484536
 20
32.27935557820456
 10
236.452335484536
 20
28.08465095215615
 10
241.0297949547167
 20
28.08465095215615
 10
241.0297949547167
 20
27.33583561456362
 10
236.452335484536
 20
27.33583561456362
 10
236.452335484536
 20
22.67512352929771
 10
242.7437549305059
 20
22.67512352929771
 10
242.7437549305059
 20
21.92630819170336
 10
235.6535964682134
 20
21.92630819170336
  0
HATCH
  5
DD
330
A8
100
AcDbEntity
  8
图层 1
 62
   250
420
  2236191
440
 33554687
100
AcDbHatch
 10
0.0
 20
0.0
 30
0.0
210
0.0
220
0.0
230
1.0
  2
SOLID
 70
     1
 71
     1
 91
        1
 92
        1
 93
       12
 72
     1
 10
235.6535964682134
 20
33.02817091580437
 11
242.3111162509649
 21
33.02817091580437
 72
     1
 10
242.3111162509649
 20
33.02817091580437
 11
242.3111162509649
 21
32.27935557820456
 72
     1
 10
242.3111162509649
 20
32.27935557820456
 11
236.452335484536
 21
32.27935557820456
 72
     1
 10
236.452335484536
 20
32.27935557820456
 11
236.452335484536
 21
28.08465095215615
 72
     1
 10
236.452335484536
 20
28.08465095215615
 11
241.0297949547167
 21
28.08465095215615
 72
     1
 10
241.0297949547167
 20
28.08465095215615
 11
241.0297949547167
 21
27.33583561456362
 72
     1
 10
241.0297949547167
 20
27.33583561456362
 11
236.452335484536
 21
27.33583561456362
 72
     1
 10
236.452335484536
 20
27.33583561456362
 11
236.452335484536
 21
22.67512352929771
 72
     1
 10
236.452335484536
 20
22.67512352929771
 11
242.7437549305059
 21
22.67512352929771
 72
     1
 10
242.7437549305059
 20
22.67512352929771
 11
242.7437549305059
 21
21.92630819170336
 72
     1
 10
242.7437549305059
 20
21.92630819170336
 11
235.6535964682134
 21
21.92630819170336
 72
     1
 10
235.6535964682134
 20
21.92630819170336
 11
235.6535964682134
 21
33.02817091580437
 97
        1
330
DC
 75
     2
 76
     1
 98
        1
 10
0.0
 20
0.0
450
        0
451
        0
460
0.0
461
0.0
452
        0
462
0.0
453
        0
470

  0
ENDBLK
  5
AB
330
A8
100
AcDbEntity
  8
0
100
AcDbBlockEnd
  0
ENDSEC
  0
SECTION
  2
ENTITIES
  0
LINE
  5
79
330
70
100
AcDbEntity
  8
图层 1
 62
    18
420
        0
370
    13
100
AcDbLine
 10
102.2368558881644
 20
525.7999877929687
 30
0.0
 11
524.1568845746878
 21
525.7999877929687
 31
0.0
  0
LINE
  5
7A
330
70
100
AcDbEntity
  8
图层 1
 62
    18
420
        0
370
    13
100
AcDbLine
 10
524.0368284223441
 20
170.5999755859375
 30
0.0
 11
102.1168302533988
 21
170.5999755859375
 31
0.0
  0
LINE
  5
7B
330
70
100
AcDbEntity
  8
图层 1
 62
    18
420
        0
370
    13
100
AcDbLine
 10
94.91684856394568
 20
518.3599853515625
 30
0.0
 11
94.91684856394568
 21
177.9199829101562
 31
0.0
  0
LINE
  5
7C
330
70
100
AcDbEntity
  8
图层 1
 62
    18
420
        0
370
    13
100
AcDbLine
 10
531.3568357465628
 20
178.0400390625
 30
0.0
 11
531.3568357465628
 21
518.4800415039062
 31
0.0
  0
LWPOLYLINE
  5
7D
330
70
100
AcDbEntity
  8
图层 1
 62
    18
420
        0
370
    13
100
AcDbPolyline
 90
       14
 70
     0
 43
0.0
 10
102.2368558881644
 20
525.7999877929687
 10
101.3968442914847
 20
525.6799926757812
 10
100.4368528364066
 20
525.5599975585937
 10
99.596856498516
 20
525.3200073242187
 10
98.87685527781286
 20
524.9600219726562
 10
98.03685893992224
 20
524.47998046875
 10
97.31684246043005
 20
523.8800048828125
 10
96.7168516157035
 20
523.2800292968749
 10
96.23685588816442
 20
522.5599975585937
 10
95.75684490183631
 20
521.8400268554687
 10
95.39684429148474
 20
521.0
 10
95.03685893992225
 20
520.1600341796875
 10
94.91684856394568
 20
519.3200073242187
 10
94.91684856394568
 20
518.239990234375
  0
LWPOLYLINE
  5
7E
330
70
100
AcDbEntity
  8
图层 1
 62
    18
420
        0
370
    13
100
AcDbPolyline
 90
       15
 70
     0
 43
0.0
 10
531.3568357465628
 20
518.3599853515625
 10
531.3568357465628
 20
519.3200073242187
 10
531.2368406293753
 20
520.1600341796875
 10
530.8768552778128
 20
521.0
 10
530.516808891094
 20
521.8400268554687
 10
530.036828422344
 20
522.5599975585937
 10
529.5567869184378
 20
523.2800292968749
 10
528.9568113325003
 20
523.8800048828125
 10
528.2368406293754
 20
524.47998046875
 10
527.3968137739066
 20
524.9600219726562
 10
526.6767820356253
 20
525.3200073242187
 10
525.7168210981253
 20
525.5599975585937
 10
524.8768552778129
 20
525.6799926757812
 10
524.0368284223441
 20
525.7999877929687
 10
524.1568235395316
 20
525.7999877929687
  0
LWPOLYLINE
  5
7F
330
70
100
AcDbEntity
  8
图层 1
 62
    18
420
        0
370
    13
100
AcDbPolyline
 90
       14
 70
     0
 43
0.0
 10
524.0368284223441
 20
170.5999755859375
 10
524.8768552778129
 20
170.7200317382812
 10
525.7168210981253
 20
170.8399963378906
 10
526.6767820356253
 20
171.0800170898437
 10
527.3968137739066
 20
171.4400329589843
 10
528.2368406293754
 20
171.9199829101562
 10
528.9568113325003
 20
172.52001953125
 10
529.5567869184378
 20
173.1200256347656
 10
530.036828422344
 20
173.8399963378906
 10
530.516808891094
 20
174.5599975585937
 10
530.8768552778128
 20
175.4000244140625
 10
531.2368406293753
 20
176.239990234375
 10
531.3567747114066
 20
177.0800170898437
 10
531.3567747114066
 20
178.1600036621093
  0
LWPOLYLINE
  5
80
330
70
100
AcDbEntity
  8
图层 1
 62
    18
420
        0
370
    13
100
AcDbPolyline
 90
       15
 70
     0
 43
0.0
 10
94.91684856394568
 20
178.0400390625
 10
94.91684856394568
 20
177.0800476074219
 10
95.03684368113317
 20
176.2400512695312
 10
95.39684429148474
 20
175.4000549316406
 10
95.75684490183631
 20
174.56005859375
 10
96.23684062937536
 20
173.8400268554687
 10
96.7168516157035
 20
173.1200256347656
 10
97.31684246043005
 20
172.52001953125
 10
98.03684368113318
 20
171.9200439453125
 10
98.87685527781286
 20
171.4400329589843
 10
99.59684123972692
 20
171.0800476074219
 10
100.4368375776175
 20
170.8400268554687
 10
101.3968442914847
 20
170.7200622558594
 10
102.2368406293753
 20
170.6000366210937
 10
102.3568510053519
 20
170.6000366210937
  0
LINE
  5
81
330
70
100
AcDbEntity
  8
图层 1
 62
    18
420
        0
370
    13
100
AcDbLine
 10
120.7168516157026
 20
87.44000244140625
 30
0.0
 11
508.0275252416267
 21
87.44000244140625
 31
0.0
  0
LINE
  5
82
330
70
100
AcDbEntity
  8
图层 1
 62
    18
420
        0
370
    13
100
AcDbLine
 10
94.91684856394568
 20
76.280029296875
 30
0.0
 11
94.91684856394568
 21
123.56005859375
 31
0.0
  0
LINE
  5
83
330
70
100
AcDbEntity
  8
图层 1
 62
    18
420
        0
370
    13
100
AcDbLine
 10
531.3568357465628
 20
76.280029296875
 30
0.0
 11
531.3568357465628
 21
123.56005859375
 31
0.0
  0
MTEXT
  5
84
330
70
100
AcDbEntity
  8
图层 1
100
AcDbMText
 10
264.0780754089355
 20
130.8954429626465
 30
0.0
 40
0.2
 41
0.0
 46
0.0
 71
     7
 72
     1
  1
\C18;\c0;\FEffra|b0|i0|c1;\H21.240000;\W1.000000;23-1/4"
 73
     1
 44
1.0
  0
MTEXT
  5
85
330
70
100
AcDbEntity
  8
图层 1
100
AcDbMText
 10
256.0678215026856
 20
94.89544296264648
 30
0.0
 40
0.2
 41
0.0
 46
0.0
 71
     7
 72
     1
  1
\C18;\c0;\FEffra|b0|i0|c1;\H21.240000;\W1.000000;(590mm)
 73
     1
 44
1.0
  0
MTEXT
  5
86
330
70
100
AcDbEntity
  8
图层 1
100
AcDbMText
 10
649.8101501464843
 20
356.0411376953125
 30
0.0
 40
0.2
 41
0.0
 46
0.0
 71
     7
 72
     1
  1
\C18;\c0;\FEffra|b0|i0|c1;\H21.240000;\W1.000000;19"
 73
     1
 44
1.0
  0
MTEXT
  5
87
330
70
100
AcDbEntity
  8
图层 1
100
AcDbMText
 10
649.8101501464843
 20
320.0411376953125
 30
0.0
 40
0.2
 41
0.0
 46
0.0
 71
     7
 72
     1
  1
\C18;\c0;\FEffra|b0|i0|c1;\H21.240000;\W1.000000;(480mm)
 73
     1
 44
1.0
  0
LWPOLYLINE
  5
88
330
70
100
AcDbEntity
  8
图层 1
100
AcDbPolyline
 90
        3
 70
     1
 43
0.0
 10
120.7168516157026
 20
92.48001098632812
 10
94.91684856394568
 20
87.44003295898437
 10
120.7168516157026
 20
82.40005493164062
  0
HATCH
  5
89
330
70
100
AcDbEntity
  8
图层 1
 62
    18
420
        0
440
 33554687
100
AcDbHatch
 10
0.0
 20
0.0
 30
0.0
210
0.0
220
0.0
230
1.0
  2
SOLID
 70
     1
 71
     1
 91
        1
 92
        1
 93
        3
 72
     1
 10
120.7168516157026
 20
92.48001098632812
 11
94.91684856394568
 21
87.44003295898437
 72
     1
 10
94.91684856394568
 20
87.44003295898437
 11
120.7168516157026
 21
82.40005493164062
 72
     1
 10
120.7168516157026
 20
82.40005493164062
 11
120.7168516157026
 21
92.48001098632812
 97
        1
330
88
 75
     2
 76
     1
 98
        1
 10
0.0
 20
0.0
450
        0
451
        0
460
0.0
461
0.0
452
        0
462
0.0
453
        0
470

  0
LWPOLYLINE
  5
8A
330
70
100
AcDbEntity
  8
图层 1
 62
    18
420
        0
370
    13
100
AcDbPolyline
 90
        3
 70
     1
 43
0.0
 10
120.7168516157026
 20
92.48001098632812
 10
94.91684856394568
 20
87.44003295898437
 10
120.7168516157026
 20
82.40005493164062
  0
LWPOLYLINE
  5
8B
330
70
100
AcDbEntity
  8
图层 1
 62
    18
420
        0
370
    13
100
AcDbPolyline
 90
        4
 70
     0
 43
0.0
 10
120.7168516157026
 20
92.48001098632812
 10
94.91684856394568
 20
87.44003295898437
 10
120.7168516157026
 20
82.40005493164062
 10
120.7168516157026
 20
92.60003662109374
  0
LWPOLYLINE
  5
8C
330
70
100
AcDbEntity
  8
图层 1
100
AcDbPolyline
 90
        3
 70
     1
 43
0.0
 10
505.5568479535941
 20
92.48001098632812
 10
531.3568357465628
 20
87.44003295898437
 10
505.5568479535941
 20
82.40005493164062
  0
HATCH
  5
8D
330
70
100
AcDbEntity
  8
图层 1
 62
    18
420
        0
440
 33554687
100
AcDbHatch
 10
0.0
 20
0.0
 30
0.0
210
0.0
220
0.0
230
1.0
  2
SOLID
 70
     1
 71
     1
 91
        1
 92
        1
 93
        3
 72
     1
 10
505.5568479535941
 20
92.48001098632812
 11
531.3568357465628
 21
87.44003295898437
 72
     1
 10
531.3568357465628
 20
87.44003295898437
 11
505.5568479535941
 21
82.40005493164062
 72
     1
 10
505.5568479535941
 20
82.40005493164062
 11
505.5568479535941
 21
92.48001098632812
 97
        1
330
8C
 75
     2
 76
     1
 98
        1
 10
0.0
 20
0.0
450
        0
451
        0
460
0.0
461
0.0
452
        0
462
0.0
453
        0
470

  0
LWPOLYLINE
  5
8E
330
70
100
AcDbEntity
  8
图层 1
 62
    18
420
        0
370
    13
100
AcDbPolyline
 90
        3
 70
     1
 43
0.0
 10
505.5568479535941
 20
92.48001098632812
 10
531.3568357465628
 20
87.44003295898437
 10
505.5568479535941
 20
82.40005493164062
  0
LINE
  5
8F
330
70
100
AcDbEntity
  8
图层 1
 62
    18
420
        0
370
    13
100
AcDbLine
 10
639.9568723676566
 20
194.3067484662588
 30
0.0
 11
639.9568723676566
 21
500.0
 31
0.0
  0
LINE
  5
90
330
70
100
AcDbEntity
  8
图层 1
 62
    18
420
        0
370
    13
100
AcDbLine
 10
651.1168455121878
 20
170.5999755859375
 30
0.0
 11
578.5168088910941
 21
170.5999755859375
 31
0.0
  0
LINE
  5
91
330
70
100
AcDbEntity
  8
图层 1
 62
    18
420
        0
370
    13
100
AcDbLine
 10
651.1168455121878
 20
525.7999877929687
 30
0.0
 11
578.5168088910941
 21
525.7999877929687
 31
0.0
  0
LWPOLYLINE
  5
92
330
70
100
AcDbEntity
  8
图层 1
100
AcDbPolyline
 90
        3
 70
     1
 43
0.0
 10
634.9168333051566
 20
196.52001953125
 10
639.9568113325003
 20
170.6000366210937
 10
644.9967893598441
 20
196.52001953125
  0
HATCH
  5
93
330
70
100
AcDbEntity
  8
图层 1
 62
    18
420
        0
440
 33554687
100
AcDbHatch
 10
0.0
 20
0.0
 30
0.0
210
0.0
220
0.0
230
1.0
  2
SOLID
 70
     1
 71
     1
 91
        1
 92
        1
 93
        3
 72
     1
 10
634.9168333051566
 20
196.52001953125
 11
639.9568113325003
 21
170.6000366210937
 72
     1
 10
639.9568113325003
 20
170.6000366210937
 11
644.9967893598441
 21
196.52001953125
 72
     1
 10
644.9967893598441
 20
196.52001953125
 11
634.9168333051566
 21
196.52001953125
 97
        1
330
92
 75
     2
 76
     1
 98
        1
 10
0.0
 20
0.0
450
        0
451
        0
460
0.0
461
0.0
452
        0
462
0.0
453
        0
470

  0
LWPOLYLINE
  5
94
330
70
100
AcDbEntity
  8
图层 1
 62
    18
420
        0
370
    13
100
AcDbPolyline
 90
        3
 70
     1
 43
0.0
 10
634.9168333051566
 20
196.52001953125
 10
639.9568113325003
 20
170.6000366210937
 10
644.9967893598441
 20
196.52001953125
  0
LWPOLYLINE
  5
95
330
70
100
AcDbEntity
  8
图层 1
 62
    18
420
        0
370
    13
100
AcDbPolyline
 90
        4
 70
     0
 43
0.0
 10
634.9168333051566
 20
196.52001953125
 10
639.9568113325003
 20
170.6000366210937
 10
644.9967893598441
 20
196.52001953125
 10
634.7968381879691
 20
196.52001953125
  0
LWPOLYLINE
  5
96
330
70
100
AcDbEntity
  8
图层 1
100
AcDbPolyline
 90
        3
 70
     1
 43
0.0
 10
634.9168333051566
 20
499.8800048828134
 10
639.9568113325003
 20
525.7999877929687
 10
644.9967893598441
 20
499.8800048828134
  0
HATCH
  5
97
330
70
100
AcDbEntity
  8
图层 1
 62
    18
420
        0
440
 33554687
100
AcDbHatch
 10
0.0
 20
0.0
 30
0.0
210
0.0
220
0.0
230
1.0
  2
SOLID
 70
     1
 71
     1
 91
        1
 92
        1
 93
        3
 72
     1
 10
634.9168333051566
 20
499.8800048828134
 11
639.9568113325003
 21
525.7999877929687
 72
     1
 10
639.9568113325003
 20
525.7999877929687
 11
644.9967893598441
 21
499.8800048828134
 72
     1
 10
644.9967893598441
 20
499.8800048828134
 11
634.9168333051566
 21
499.8800048828134
 97
        1
330
96
 75
     2
 76
     1
 98
        1
 10
0.0
 20
0.0
450
        0
451
        0
460
0.0
461
0.0
452
        0
462
0.0
453
        0
470

  0
LWPOLYLINE
  5
98
330
70
100
AcDbEntity
  8
图层 1
 62
    18
420
        0
370
    13
100
AcDbPolyline
 90
        3
 70
     1
 43
0.0
 10
634.9168333051566
 20
499.8800048828134
 10
639.9568113325003
 20
525.7999877929687
 10
644.9967893598441
 20
499.8800048828134
  0
LWPOLYLINE
  5
99
330
70
100
AcDbEntity
  8
图层 1
 62
    18
420
        0
370
    13
100
AcDbPolyline
 90
        4
 70
     0
 43
0.0
 10
634.9168333051566
 20
499.8800048828134
 10
639.9568113325003
 20
525.7999877929687
 10
644.9967893598441
 20
499.8800048828134
 10
634.7968381879691
 20
499.8800048828134
  0
LWPOLYLINE
  5
9A
330
70
100
AcDbEntity
  8
图层 1
 62
    18
420
        0
370
    13
100
AcDbPolyline
 90
        3
 70
     0
 43
0.0
 10
114.2368558881644
 20
504.2000122070312
 10
102.2368558881644
 20
518.3599853515625
 10
102.3568510053519
 20
518.3599853515625
  0
LWPOLYLINE
  5
9B
330
70
100
AcDbEntity
  8
图层 1
 62
    18
420
        0
370
    13
100
AcDbPolyline
 90
        3
 70
     0
 43
0.0
 10
102.2368558881644
 20
518.3599853515625
 10
122.5168546674613
 20
494.3600158691406
 10
122.6368497846488
 20
494.3600158691406
  0
SPLINE
  5
9C
330
70
100
AcDbEntity
  8
图层 1
100
AcDbSpline
210
0.0
220
0.0
230
1.0
 70
    11
 71
     3
 72
    62
 73
    58
 74
     0
 42
0.0000000001
 43
0.0000000001
 40
0.0
 40
0.0
 40
0.0
 40
0.0
 40
1.0
 40
1.0
 40
1.0
 40
2.0
 40
2.0
 40
2.0
 40
3.0
 40
3.0
 40
3.0
 40
4.0
 40
4.0
 40
4.0
 40
5.0
 40
5.0
 40
5.0
 40
6.0
 40
6.0
 40
6.0
 40
7.0
 40
7.0
 40
7.0
 40
8.0
 40
8.0
 40
8.0
 40
9.0
 40
9.0
 40
9.0
 40
10.0
 40
10.0
 40
10.0
 40
11.0
 40
11.0
 40
11.0
 40
12.0
 40
12.0
 40
12.0
 40
13.0
 40
13.0
 40
13.0
 40
14.0
 40
14.0
 40
14.0
 40
15.0
 40
15.0
 40
15.0
 40
16.0
 40
16.0
 40
16.0
 40
17.0
 40
17.0
 40
17.0
 40
18.0
 40
18.0
 40
18.0
 40
19.0
 40
19.0
 40
19.0
 40
19.0
 10
114.4168485639456
 20
478.3775024414062
 30
0.0
 10
114.4168485639456
 20
478.3775024414062
 30
0.0
 10
139.7593473432425
 20
499.7149963378906
 30
0.0
 10
139.7593473432425
 20
499.7149963378906
 30
0.0
 10
139.7593473432425
 20
499.7149963378906
 30
0.0
 10
149.2168516157044
 20
488.4800109863281
 30
0.0
 10
149.2168516157044
 20
488.4800109863281
 30
0.0
 10
151.1218503950003
 20
486.2149963378906
 30
0.0
 10
152.3443540571097
 20
484.3024902343749
 30
0.0
 10
152.8768552778128
 20
482.7424926757812
 30
0.0
 10
153.409356498516
 20
481.1824951171884
 30
0.0
 10
153.3943418500794
 20
479.5700073242187
 30
0.0
 10
152.8318418500794
 20
477.8974914550781
 30
0.0
 10
152.2768491742972
 20
476.2250061035156
 30
0.0
 10
151.2943510053519
 20
474.7999877929687
 30
0.0
 10
149.899346732891
 20
473.6300048828134
 30
0.0
 10
148.1068510053519
 20
472.114990234375
 30
0.0
 10
146.1043485639456
 20
471.4175109863281
 30
0.0
 10
143.8843473432425
 20
471.5450134277343
 30
0.0
 10
141.6718534467582
 20
471.6725158691406
 30
0.0
 10
139.3768552778128
 20
472.8124880557516
 30
0.0
 10
136.9918455121878
 20
474.9649963378906
 30
0.0
 10
137.3143552778128
 20
473.7200012207031
 30
0.0
 10
137.4643491742972
 20
472.6849975585937
 30
0.0
 10
137.4343503950003
 20
471.875
 30
0.0
 10
137.3593534467582
 20
470.1350097656249
 30
0.0
 10
137.0218442914847
 20
468.2675170898437
 30
0.0
 10
136.4068540571097
 20
466.2575073242187
 30
0.0
 10
136.4068540571097
 20
466.2575073242187
 30
0.0
 10
133.2193540571097
 20
456.0425109863281
 30
0.0
 10
133.2193540571097
 20
456.0425109863281
 30
0.0
 10
133.2193540571097
 20
456.0425109863281
 30
0.0
 10
129.6718534467582
 20
460.2575073242187
 30
0.0
 10
129.6718534467582
 20
460.2575073242187
 30
0.0
 10
129.6718534467582
 20
460.2575073242187
 30
0.0
 10
132.1168455121878
 20
468.0499877929687
 30
0.0
 10
132.1168455121878
 20
468.0499877929687
 30
0.0
 10
132.8218473432425
 20
470.3150024414062
 30
0.0
 10
133.3093503950003
 20
472.1000061035156
 30
0.0
 10
133.5793394086722
 20
473.4125061035156
 30
0.0
 10
133.8493436811331
 20
474.7250061035156
 30
0.0
 10
133.9393552778128
 20
475.7675170898437
 30
0.0
 10
133.8343442914847
 20
476.5400085449218
 30
0.0
 10
133.7368406293753
 20
477.312487942072
 30
0.0
 10
133.534356498516
 20
478.010009765625
 30
0.0
 10
133.2193540571097
 20
478.6400146484384
 30
0.0
 10
132.9793485639457
 20
479.0824890136718
 30
0.0
 10
132.4993528364066
 20
479.7350158691406
 30
0.0
 10
131.764352226055
 20
480.6050109863281
 30
0.0
 10
131.764352226055
 20
480.6050109863281
 30
0.0
 10
128.4943479535941
 20
484.4974975585937
 30
0.0
 10
128.4943479535941
 20
484.4974975585937
 30
0.0
 10
128.4943479535941
 20
484.4974975585937
 30
0.0
 10
117.2443479535941
 20
475.0175170898437
 30
0.0
 10
117.2443479535941
 20
475.0175170898437
 30
0.0
 10
117.2443479535941
 20
475.0175170898437
 30
0.0
 10
114.4168485639456
 20
478.3775024414062
 30
0.0
 10
114.4168485639456
 20
478.3775024414062
 30
0.0
  0
SPLINE
  5
9D
330
70
100
AcDbEntity
  8
图层 1
100
AcDbSpline
210
0.0
220
0.0
230
1.0
 70
    11
 71
     3
 72
    29
 73
    25
 74
     0
 42
0.0000000001
 43
0.0000000001
 40
0.0
 40
0.0
 40
0.0
 40
0.0
 40
1.0
 40
1.0
 40
1.0
 40
2.0
 40
2.0
 40
2.0
 40
3.0
 40
3.0
 40
3.0
 40
4.0
 40
4.0
 40
4.0
 40
5.0
 40
5.0
 40
5.0
 40
6.0
 40
6.0
 40
6.0
 40
7.0
 40
7.0
 40
7.0
 40
8.0
 40
8.0
 40
8.0
 40
8.0
 10
131.3968442914847
 20
486.9425048828134
 30
0.0
 10
131.3968442914847
 20
486.9425048828134
 30
0.0
 10
137.4643491742972
 20
479.7350158691406
 30
0.0
 10
137.4643491742972
 20
479.7350158691406
 30
0.0
 10
138.7543577192191
 20
478.197509765625
 30
0.0
 10
139.9243406293753
 20
477.1325073242187
 30
0.0
 10
140.9668516157044
 20
476.5325012207031
 30
0.0
 10
142.0168394086722
 20
475.9324951171883
 30
0.0
 10
143.0743497846488
 20
475.7074890136719
 30
0.0
 10
144.1543516157044
 20
475.8424987792968
 30
0.0
 10
145.2343534467582
 20
475.9775085449218
 30
0.0
 10
146.1793455121878
 20
476.3974914550781
 30
0.0
 10
146.9893430707816
 20
477.0874938964843
 30
0.0
 10
148.1893552778128
 20
478.0924987792968
 30
0.0
 10
148.8118528364066
 20
479.3600158691406
 30
0.0
 10
148.8493436811332
 20
480.8825073242187
 30
0.0
 10
148.8943418500794
 20
482.3974914550781
 30
0.0
 10
148.1218503950003
 20
484.0924987792968
 30
0.0
 10
146.5318540571097
 20
485.9825134277343
 30
0.0
 10
146.5318540571097
 20
485.9825134277343
 30
0.0
 10
139.7818540571097
 20
494.0
 30
0.0
 10
139.7818540571097
 20
494.0
 30
0.0
 10
139.7818540571097
 20
494.0
 30
0.0
 10
131.3968442914847
 20
486.9425048828134
 30
0.0
 10
131.3968442914847
 20
486.9425048828134
 30
0.0
  0
HATCH
  5
9E
330
70
100
AcDbEntity
  8
图层 1
 62
    18
420
        0
440
 33554687
100
AcDbHatch
 10
0.0
 20
0.0
 30
0.0
210
0.0
220
0.0
230
1.0
  2
SOLID
 70
     1
 71
     1
 91
        2
 92
        1
 93
        1
 72
     4
 94
        3
 73
     0
 74
     0
 95
       62
 96
       58
 40
0.0
 40
0.0
 40
0.0
 40
0.0
 40
1.0
 40
1.0
 40
1.0
 40
2.0
 40
2.0
 40
2.0
 40
3.0
 40
3.0
 40
3.0
 40
4.0
 40
4.0
 40
4.0
 40
5.0
 40
5.0
 40
5.0
 40
6.0
 40
6.0
 40
6.0
 40
7.0
 40
7.0
 40
7.0
 40
8.0
 40
8.0
 40
8.0
 40
9.0
 40
9.0
 40
9.0
 40
10.0
 40
10.0
 40
10.0
 40
11.0
 40
11.0
 40
11.0
 40
12.0
 40
12.0
 40
12.0
 40
13.0
 40
13.0
 40
13.0
 40
14.0
 40
14.0
 40
14.0
 40
15.0
 40
15.0
 40
15.0
 40
16.0
 40
16.0
 40
16.0
 40
17.0
 40
17.0
 40
17.0
 40
18.0
 40
18.0
 40
18.0
 40
19.0
 40
19.0
 40
19.0
 40
19.0
 10
114.4168485639456
 20
478.3775024414062
 10
114.4168485639456
 20
478.3775024414062
 10
139.7593473432425
 20
499.7149963378906
 10
139.7593473432425
 20
499.7149963378906
 10
139.7593473432425
 20
499.7149963378906
 10
149.2168516157044
 20
488.4800109863281
 10
149.2168516157044
 20
488.4800109863281
 10
151.1218503950003
 20
486.2149963378906
 10
152.3443540571097
 20
484.3024902343749
 10
152.8768552778128
 20
482.7424926757812
 10
153.409356498516
 20
481.1824951171884
 10
153.3943418500794
 20
479.5700073242187
 10
152.8318418500794
 20
477.8974914550781
 10
152.2768491742972
 20
476.2250061035156
 10
151.2943510053519
 20
474.7999877929687
 10
149.899346732891
 20
473.6300048828134
 10
148.1068510053519
 20
472.114990234375
 10
146.1043485639456
 20
471.4175109863281
 10
143.8843473432425
 20
471.5450134277343
 10
141.6718534467582
 20
471.6725158691406
 10
139.3768552778128
 20
472.8124880557516
 10
136.9918455121878
 20
474.9649963378906
 10
137.3143552778128
 20
473.7200012207031
 10
137.4643491742972
 20
472.6849975585937
 10
137.4343503950003
 20
471.875
 10
137.3593534467582
 20
470.1350097656249
 10
137.0218442914847
 20
468.2675170898437
 10
136.4068540571097
 20
466.2575073242187
 10
136.4068540571097
 20
466.2575073242187
 10
133.2193540571097
 20
456.0425109863281
 10
133.2193540571097
 20
456.0425109863281
 10
133.2193540571097
 20
456.0425109863281
 10
129.6718534467582
 20
460.2575073242187
 10
129.6718534467582
 20
460.2575073242187
 10
129.6718534467582
 20
460.2575073242187
 10
132.1168455121878
 20
468.0499877929687
 10
132.1168455121878
 20
468.0499877929687
 10
132.8218473432425
 20
470.3150024414062
 10
133.3093503950003
 20
472.1000061035156
 10
133.5793394086722
 20
473.4125061035156
 10
133.8493436811331
 20
474.7250061035156
 10
133.9393552778128
 20
475.7675170898437
 10
133.8343442914847
 20
476.5400085449218
 10
133.7368406293753
 20
477.312487942072
 10
133.534356498516
 20
478.010009765625
 10
133.2193540571097
 20
478.6400146484384
 10
132.9793485639457
 20
479.0824890136718
 10
132.4993528364066
 20
479.7350158691406
 10
131.764352226055
 20
480.6050109863281
 10
131.764352226055
 20
480.6050109863281
 10
128.4943479535941
 20
484.4974975585937
 10
128.4943479535941
 20
484.4974975585937
 10
128.4943479535941
 20
484.4974975585937
 10
117.2443479535941
 20
475.0175170898437
 10
117.2443479535941
 20
475.0175170898437
 10
117.2443479535941
 20
475.0175170898437
 10
114.4168485639456
 20
478.3775024414062
 10
114.4168485639456
 20
478.3775024414062
 97
        0
 97
        1
330
9C
 92
        1
 93
        1
 72
     4
 94
        3
 73
     0
 74
     0
 95
       29
 96
       25
 40
0.0
 40
0.0
 40
0.0
 40
0.0
 40
1.0
 40
1.0
 40
1.0
 40
2.0
 40
2.0
 40
2.0
 40
3.0
 40
3.0
 40
3.0
 40
4.0
 40
4.0
 40
4.0
 40
5.0
 40
5.0
 40
5.0
 40
6.0
 40
6.0
 40
6.0
 40
7.0
 40
7.0
 40
7.0
 40
8.0
 40
8.0
 40
8.0
 40
8.0
 10
131.3968442914847
 20
486.9425048828134
 10
131.3968442914847
 20
486.9425048828134
 10
137.4643491742972
 20
479.7350158691406
 10
137.4643491742972
 20
479.7350158691406
 10
138.7543577192191
 20
478.197509765625
 10
139.9243406293753
 20
477.1325073242187
 10
140.9668516157044
 20
476.5325012207031
 10
142.0168394086722
 20
475.9324951171883
 10
143.0743497846488
 20
475.7074890136719
 10
144.1543516157044
 20
475.8424987792968
 10
145.2343534467582
 20
475.9775085449218
 10
146.1793455121878
 20
476.3974914550781
 10
146.9893430707816
 20
477.0874938964843
 10
148.1893552778128
 20
478.0924987792968
 10
148.8118528364066
 20
479.3600158691406
 10
148.8493436811332
 20
480.8825073242187
 10
148.8943418500794
 20
482.3974914550781
 10
148.1218503950003
 20
484.0924987792968
 10
146.5318540571097
 20
485.9825134277343
 10
146.5318540571097
 20
485.9825134277343
 10
139.7818540571097
 20
494.0
 10
139.7818540571097
 20
494.0
 10
139.7818540571097
 20
494.0
 10
131.3968442914847
 20
486.9425048828134
 10
131.3968442914847
 20
486.9425048828134
 97
        0
 97
        1
330
9D
 75
     2
 76
     1
 98
        1
 10
0.0
 20
0.0
450
        0
451
        0
460
0.0
461
0.0
452
        0
462
0.0
453
        0
470

  0
SPLINE
  5
9F
330
70
100
AcDbEntity
  8
图层 1
100
AcDbSpline
210
0.0
220
0.0
230
1.0
 70
    11
 71
     3
 72
    32
 73
    28
 74
     0
 42
0.0000000001
 43
0.0000000001
 40
0.0
 40
0.0
 40
0.0
 40
0.0
 40
1.0
 40
1.0
 40
1.0
 40
2.0
 40
2.0
 40
2.0
 40
3.0
 40
3.0
 40
3.0
 40
4.0
 40
4.0
 40
4.0
 40
5.0
 40
5.0
 40
5.0
 40
6.0
 40
6.0
 40
6.0
 40
7.0
 40
7.0
 40
7.0
 40
8.0
 40
8.0
 40
8.0
 40
9.0
 40
9.0
 40
9.0
 40
9.0
 10
144.6568540571097
 20
442.5275268554687
 30
0.0
 10
144.6568540571097
 20
442.5275268554687
 30
0.0
 10
142.0393613813294
 20
445.6400146484384
 30
0.0
 10
142.0393613813294
 20
445.6400146484384
 30
0.0
 10
142.0393613813294
 20
445.6400146484384
 30
0.0
 10
161.8693479535941
 20
462.3350219726562
 30
0.0
 10
161.8693479535941
 20
462.3350219726562
 30
0.0
 10
160.5193571088675
 20
462.4700317382812
 30
0.0
 10
158.9818510053519
 20
462.8525390624999
 30
0.0
 10
157.2418607709769
 20
463.467529296875
 30
0.0
 10
155.5018552778128
 20
464.0825195312499
 30
0.0
 10
154.0468534467582
 20
464.7200317382812
 30
0.0
 10
152.8768552778128
 20
465.39501953125
 30
0.0
 10
152.8768552778128
 20
465.39501953125
 30
0.0
 10
155.8843473432425
 20
467.9300231933593
 30
0.0
 10
155.8843473432425
 20
467.9300231933593
 30
0.0
 10
158.1643613813294
 20
466.8725280761718
 30
0.0
 10
160.4368528364066
 20
466.1825256347656
 30
0.0
 10
162.6943601606253
 20
465.8675231933593
 30
0.0
 10
164.9593595502738
 20
465.5375366210937
 30
0.0
 10
166.8643583295706
 20
465.5675354003906
 30
0.0
 10
168.4168485639457
 20
465.9575195312499
 30
0.0
 10
168.4168485639457
 20
465.9575195312499
 30
0.0
 10
170.1043485639456
 20
463.9550170898437
 30
0.0
 10
170.1043485639456
 20
463.9550170898437
 30
0.0
 10
170.1043485639456
 20
463.9550170898437
 30
0.0
 10
144.6568540571097
 20
442.5275268554687
 30
0.0
 10
144.6568540571097
 20
442.5275268554687
 30
0.0
  0
HATCH
  5
A0
330
70
100
AcDbEntity
  8
图层 1
 62
    18
420
        0
440
 33554687
100
AcDbHatch
 10
0.0
 20
0.0
 30
0.0
210
0.0
220
0.0
230
1.0
  2
SOLID
 70
     1
 71
     1
 91
        1
 92
        1
 93
        1
 72
     4
 94
        3
 73
     0
 74
     0
 95
       32
 96
       28
 40
0.0
 40
0.0
 40
0.0
 40
0.0
 40
1.0
 40
1.0
 40
1.0
 40
2.0
 40
2.0
 40
2.0
 40
3.0
 40
3.0
 40
3.0
 40
4.0
 40
4.0
 40
4.0
 40
5.0
 40
5.0
 40
5.0
 40
6.0
 40
6.0
 40
6.0
 40
7.0
 40
7.0
 40
7.0
 40
8.0
 40
8.0
 40
8.0
 40
9.0
 40
9.0
 40
9.0
 40
9.0
 10
144.6568540571097
 20
442.5275268554687
 10
144.6568540571097
 20
442.5275268554687
 10
142.0393613813294
 20
445.6400146484384
 10
142.0393613813294
 20
445.6400146484384
 10
142.0393613813294
 20
445.6400146484384
 10
161.8693479535941
 20
462.3350219726562
 10
161.8693479535941
 20
462.3350219726562
 10
160.5193571088675
 20
462.4700317382812
 10
158.9818510053519
 20
462.8525390624999
 10
157.2418607709769
 20
463.467529296875
 10
155.5018552778128
 20
464.0825195312499
 10
154.0468534467582
 20
464.7200317382812
 10
152.8768552778128
 20
465.39501953125
 10
152.8768552778128
 20
465.39501953125
 10
155.8843473432425
 20
467.9300231933593
 10
155.8843473432425
 20
467.9300231933593
 10
158.1643613813294
 20
466.8725280761718
 10
160.4368528364066
 20
466.1825256347656
 10
162.6943601606253
 20
465.8675231933593
 10
164.9593595502738
 20
465.5375366210937
 10
166.8643583295706
 20
465.5675354003906
 10
168.4168485639457
 20
465.9575195312499
 10
168.4168485639457
 20
465.9575195312499
 10
170.1043485639456
 20
463.9550170898437
 10
170.1043485639456
 20
463.9550170898437
 10
170.1043485639456
 20
463.9550170898437
 10
144.6568540571097
 20
442.5275268554687
 10
144.6568540571097
 20
442.5275268554687
 97
        0
 97
        1
330
9F
 75
     2
 76
     1
 98
        1
 10
0.0
 20
0.0
450
        0
451
        0
460
0.0
461
0.0
452
        0
462
0.0
453
        0
470

  0
SPLINE
  5
A1
330
70
100
AcDbEntity
  8
图层 1
100
AcDbSpline
210
0.0
220
0.0
230
1.0
 70
     9
 71
     3
 72
    41
 73
    37
 74
     0
 42
0.0000000001
 43
0.0000000001
 40
0.0
 40
0.0
 40
0.0
 40
0.0
 40
1.0
 40
1.0
 40
1.0
 40
2.0
 40
2.0
 40
2.0
 40
3.0
 40
3.0
 40
3.0
 40
4.0
 40
4.0
 40
4.0
 40
5.0
 40
5.0
 40
5.0
 40
6.0
 40
6.0
 40
6.0
 40
7.0
 40
7.0
 40
7.0
 40
8.0
 40
8.0
 40
8.0
 40
9.0
 40
9.0
 40
9.0
 40
10.0
 40
10.0
 40
10.0
 40
11.0
 40
11.0
 40
11.0
 40
12.0
 40
12.0
 40
12.0
 40
12.0
 10
163.6093534467581
 20
445.4525146484384
 30
0.0
 10
166.6093534467582
 20
447.9650268554687
 30
0.0
 10
169.2793516157044
 20
449.6825256347656
 30
0.0
 10
171.6193479535941
 20
450.6125183105468
 30
0.0
 10
173.9668516157044
 20
451.5275268554687
 30
0.0
 10
176.149346732891
 20
451.7975158691406
 30
0.0
 10
178.159356498516
 20
451.4225158691406
 30
0.0
 10
180.1768583295707
 20
451.0400085449218
 30
0.0
 10
181.961846732891
 20
449.9300231933593
 30
0.0
 10
183.514352226055
 20
448.0925292968749
 30
0.0
 10
184.6618589399222
 20
446.7275085449219
 30
0.0
 10
185.389352226055
 20
445.3025207519531
 30
0.0
 10
185.7043546674613
 20
443.8175048828134
 30
0.0
 10
186.0193571088675
 20
442.3250122070312
 30
0.0
 10
185.9443601606253
 20
440.8100280761718
 30
0.0
 10
185.4793485639456
 20
439.2800292968749
 30
0.0
 10
185.014352226055
 20
437.7425231933593
 30
0.0
 10
184.1968626020316
 20
436.1675109863281
 30
0.0
 10
183.034356498516
 20
434.5400085449218
 30
0.0
 10
181.8793577192191
 20
432.9125061035155
 30
0.0
 10
180.0418485639456
 20
431.0375061035156
 30
0.0
 10
177.5218595502738
 20
428.9225158691406
 30
0.0
 10
174.5518583295706
 20
426.417510986328
 30
0.0
 10
171.8968595502738
 20
424.70751953125
 30
0.0
 10
169.5568479535941
 20
423.7775268554687
 30
0.0
 10
167.2168516157044
 20
422.8475036621094
 30
0.0
 10
165.034356498516
 20
422.5775146484384
 30
0.0
 10
163.0093473432425
 20
422.9525146484384
 30
0.0
 10
160.9918607709769
 20
423.3275146484384
 30
0.0
 10
159.1993497846488
 20
424.4450073242187
 30
0.0
 10
157.639352226055
 20
426.3050231933593
 30
0.0
 10
155.5843595502738
 20
428.7425231933593
 30
0.0
 10
154.8418516157044
 20
431.3975219726562
 30
0.0
 10
155.4193510053519
 20
434.27001953125
 30
0.0
 10
156.1243528364066
 20
437.7050170898437
 30
0.0
 10
158.8543485639457
 20
441.4325256347656
 30
0.0
 10
163.6093534467581
 20
445.4525146484384
 30
0.0
  0
SPLINE
  5
A2
330
70
100
AcDbEntity
  8
图层 1
100
AcDbSpline
210
0.0
220
0.0
230
1.0
 70
     9
 71
     3
 72
    29
 73
    25
 74
     0
 42
0.0000000001
 43
0.0000000001
 40
0.0
 40
0.0
 40
0.0
 40
0.0
 40
1.0
 40
1.0
 40
1.0
 40
2.0
 40
2.0
 40
2.0
 40
3.0
 40
3.0
 40
3.0
 40
4.0
 40
4.0
 40
4.0
 40
5.0
 40
5.0
 40
5.0
 40
6.0
 40
6.0
 40
6.0
 40
7.0
 40
7.0
 40
7.0
 40
8.0
 40
8.0
 40
8.0
 40
8.0
 10
166.3018583295706
 20
442.25
 30
0.0
 10
162.1468595502738
 20
438.7400207519531
 30
0.0
 10
159.784356498516
 20
435.9275207519531
 30
0.0
 10
159.2293485639457
 20
433.7975158691405
 30
0.0
 10
158.6743558881644
 20
431.6675109863281
 30
0.0
 10
158.9968503950004
 20
429.8825073242187
 30
0.0
 10
160.1968473432425
 20
428.4575195312499
 30
0.0
 10
161.3968595502738
 20
427.0250244140633
 30
0.0
 10
163.0993589399222
 20
426.4025268554687
 30
0.0
 10
165.3043607709769
 20
426.5975036621093
 30
0.0
 10
167.5093473432425
 20
426.7850036621093
 30
0.0
 10
170.6818479535941
 20
428.6300048828134
 30
0.0
 10
174.8293546674613
 20
432.125
 30
0.0
 10
178.9993528364066
 20
435.635009765625
 30
0.0
 10
181.3618558881644
 20
438.447509765625
 30
0.0
 10
181.9168485639456
 20
440.5775146484383
 30
0.0
 10
182.471856498516
 20
442.7075195312499
 30
0.0
 10
182.1343626020316
 20
444.5
 30
0.0
 10
180.9043516157044
 20
445.9550170898437
 30
0.0
 10
179.7043546674613
 20
447.3800048828134
 30
0.0
 10
178.1443571088675
 20
448.010009765625
 30
0.0
 10
176.2093595502738
 20
447.8525085449218
 30
0.0
 10
173.764352226055
 20
447.6125183105469
 30
0.0
 10
170.4643491742972
 20
445.7450256347656
 30
0.0
 10
166.3018583295706
 20
442.25
 30
0.0
  0
HATCH
  5
A3
330
70
100
AcDbEntity
  8
图层 1
 62
    18
420
        0
440
 33554687
100
AcDbHatch
 10
0.0
 20
0.0
 30
0.0
210
0.0
220
0.0
230
1.0
  2
SOLID
 70
     1
 71
     1
 91
        2
 92
        1
 93
        1
 72
     4
 94
        3
 73
     0
 74
     0
 95
       41
 96
       37
 40
0.0
 40
0.0
 40
0.0
 40
0.0
 40
1.0
 40
1.0
 40
1.0
 40
2.0
 40
2.0
 40
2.0
 40
3.0
 40
3.0
 40
3.0
 40
4.0
 40
4.0
 40
4.0
 40
5.0
 40
5.0
 40
5.0
 40
6.0
 40
6.0
 40
6.0
 40
7.0
 40
7.0
 40
7.0
 40
8.0
 40
8.0
 40
8.0
 40
9.0
 40
9.0
 40
9.0
 40
10.0
 40
10.0
 40
10.0
 40
11.0
 40
11.0
 40
11.0
 40
12.0
 40
12.0
 40
12.0
 40
12.0
 10
163.6093534467581
 20
445.4525146484384
 10
166.6093534467582
 20
447.9650268554687
 10
169.2793516157044
 20
449.6825256347656
 10
171.6193479535941
 20
450.6125183105468
 10
173.9668516157044
 20
451.5275268554687
 10
176.149346732891
 20
451.7975158691406
 10
178.159356498516
 20
451.4225158691406
 10
180.1768583295707
 20
451.0400085449218
 10
181.961846732891
 20
449.9300231933593
 10
183.514352226055
 20
448.0925292968749
 10
184.6618589399222
 20
446.7275085449219
 10
185.389352226055
 20
445.3025207519531
 10
185.7043546674613
 20
443.8175048828134
 10
186.0193571088675
 20
442.3250122070312
 10
185.9443601606253
 20
440.8100280761718
 10
185.4793485639456
 20
439.2800292968749
 10
185.014352226055
 20
437.7425231933593
 10
184.1968626020316
 20
436.1675109863281
 10
183.034356498516
 20
434.5400085449218
 10
181.8793577192191
 20
432.9125061035155
 10
180.0418485639456
 20
431.0375061035156
 10
177.5218595502738
 20
428.9225158691406
 10
174.5518583295706
 20
426.417510986328
 10
171.8968595502738
 20
424.70751953125
 10
169.5568479535941
 20
423.7775268554687
 10
167.2168516157044
 20
422.8475036621094
 10
165.034356498516
 20
422.5775146484384
 10
163.0093473432425
 20
422.9525146484384
 10
160.9918607709769
 20
423.3275146484384
 10
159.1993497846488
 20
424.4450073242187
 10
157.639352226055
 20
426.3050231933593
 10
155.5843595502738
 20
428.7425231933593
 10
154.8418516157044
 20
431.3975219726562
 10
155.4193510053519
 20
434.27001953125
 10
156.1243528364066
 20
437.7050170898437
 10
158.8543485639457
 20
441.4325256347656
 10
163.6093534467581
 20
445.4525146484384
 97
        0
 97
        1
330
A1
 92
        1
 93
        1
 72
     4
 94
        3
 73
     0
 74
     0
 95
       29
 96
       25
 40
0.0
 40
0.0
 40
0.0
 40
0.0
 40
1.0
 40
1.0
 40
1.0
 40
2.0
 40
2.0
 40
2.0
 40
3.0
 40
3.0
 40
3.0
 40
4.0
 40
4.0
 40
4.0
 40
5.0
 40
5.0
 40
5.0
 40
6.0
 40
6.0
 40
6.0
 40
7.0
 40
7.0
 40
7.0
 40
8.0
 40
8.0
 40
8.0
 40
8.0
 10
166.3018583295706
 20
442.25
 10
162.1468595502738
 20
438.7400207519531
 10
159.784356498516
 20
435.9275207519531
 10
159.2293485639457
 20
433.7975158691405
 10
158.6743558881644
 20
431.6675109863281
 10
158.9968503950004
 20
429.8825073242187
 10
160.1968473432425
 20
428.4575195312499
 10
161.3968595502738
 20
427.0250244140633
 10
163.0993589399222
 20
426.4025268554687
 10
165.3043607709769
 20
426.5975036621093
 10
167.5093473432425
 20
426.7850036621093
 10
170.6818479535941
 20
428.6300048828134
 10
174.8293546674613
 20
432.125
 10
178.9993528364066
 20
435.635009765625
 10
181.3618558881644
 20
438.447509765625
 10
181.9168485639456
 20
440.5775146484383
 10
182.471856498516
 20
442.7075195312499
 10
182.1343626020316
 20
444.5
 10
180.9043516157044
 20
445.9550170898437
 10
179.7043546674613
 20
447.3800048828134
 10
178.1443571088675
 20
448.010009765625
 10
176.2093595502738
 20
447.8525085449218
 10
173.764352226055
 20
447.6125183105469
 10
170.4643491742972
 20
445.7450256347656
 10
166.3018583295706
 20
442.25
 97
        0
 97
        1
330
A2
 75
     2
 76
     1
 98
        1
 10
0.0
 20
0.0
450
        0
451
        0
460
0.0
461
0.0
452
        0
462
0.0
453
        0
470

  0
LWPOLYLINE
  5
A4
330
70
100
AcDbEntity
  8
图层 1
 62
    18
420
        0
370
    13
100
AcDbPolyline
 90
        5
 70
     0
 43
0.0
 10
118.076852226055
 20
507.4400024414062
 10
97.43685283640662
 20
524.0
 10
110.3968442914847
 20
500.9600219726562
 10
118.076852226055
 20
507.4400024414062
 10
118.1968473432425
 20
507.4400024414062
  0
LWPOLYLINE
  5
A5
330
70
100
AcDbEntity
  8
图层 1
100
AcDbPolyline
 90
        3
 70
     1
 43
0.0
 10
118.076852226055
 20
507.4400024414062
 10
97.43685283640662
 20
524.0
 10
110.3968442914847
 20
500.9600219726562
  0
HATCH
  5
A6
330
70
100
AcDbEntity
  8
图层 1
 62
    18
420
        0
440
 33554687
100
AcDbHatch
 10
0.0
 20
0.0
 30
0.0
210
0.0
220
0.0
230
1.0
  2
SOLID
 70
     1
 71
     1
 91
        1
 92
        1
 93
        3
 72
     1
 10
118.076852226055
 20
507.4400024414062
 11
97.43685283640662
 21
524.0
 72
     1
 10
97.43685283640662
 20
524.0
 11
110.3968442914847
 21
500.9600219726562
 72
     1
 10
110.3968442914847
 20
500.9600219726562
 11
118.076852226055
 21
507.4400024414062
 97
        1
330
A5
 75
     2
 76
     1
 98
        1
 10
0.0
 20
0.0
450
        0
451
        0
460
0.0
461
0.0
452
        0
462
0.0
453
        0
470

  0
LWPOLYLINE
  5
A7
330
70
100
AcDbEntity
  8
图层 1
 62
    18
420
        0
370
    13
100
AcDbPolyline
 90
        3
 70
     1
 43
0.0
 10
118.076852226055
 20
507.4400024414062
 10
97.43685283640662
 20
524.0
 10
110.3968442914847
 20
500.9600219726562
  0
INSERT
  5
A9
330
70
100
AcDbEntity
  8
图层 1
100
AcDbBlockReference
  2
Block_0
 10
0.0
 20
0.0
 30
0.0
  0
MTEXT
  5
DE
330
70
100
AcDbEntity
  8
图层 1
100
AcDbMText
 10
253.6904296875
 20
22.67478179931641
 30
0.0
 40
0.2
 41
0.0
 46
0.0
 71
     7
 72
     1
  1
\C18;\c0;\FEffra Italic|b0|i1|c1;\H10.167899;\W1.000000;SH229094WH SH229094BLK
 73
     1
 44
1.0
  0
MTEXT
  5
DF
330
70
100
AcDbEntity
  8
图层 1
100
AcDbMText
 10
612.3154296875
 20
24.443359375
 30
0.0
 40
0.2
 41
0.0
 46
0.0
 71
     7
 72
     1
  1
\C250;\c1382435;\FHelvetica Neue LT Pro 77 Bold Condensed|b1|i0|c1;\H4.373875;\W1.000000;NOTE\FHelvetica Neue LT Pro 65 Medium|b0|i0|c1;: Due to the slight variations in the manufacture process it is
 73
     1
 44
1.0
  0
MTEXT
  5
E0
330
70
100
AcDbEntity
  8
图层 1
100
AcDbMText
 10
612.3154296875
 20
17.0302734375
 30
0.0
 40
0.2
 41
0.0
 46
0.0
 71
     7
 72
     1
  1
\C250;\c1382435;\FHelvetica Neue LT Pro 65 Medium|b0|i0|c1;\H4.373875;\W1.000000;recommended the installer use the template for cutting out the countertop.
 73
     1
 44
1.0
  0
ENDSEC
  0
SECTION
  2
OBJECTS
  0
DICTIONARY
  5
C
330
0
100
AcDbDictionary
281
     1
  3
ACAD_COLOR
350
63
  3
ACAD_DETAILVIEWSTYLE
350
6A
  3
ACAD_GROUP
350
D
  3
ACAD_LAYOUT
350
62
  3
ACAD_MATERIAL
350
10
  3
ACAD_MLEADERSTYLE
350
66
  3
ACAD_MLINESTYLE
350
5F
  3
ACAD_PLOTSETTINGS
350
61
  3
ACAD_PLOTSTYLENAME
350
E
  3
ACAD_SCALELIST
350
42
  3
ACAD_SECTIONVIEWSTYLE
350
68
  3
ACAD_TABLESTYLE
350
64
  3
ACAD_VISUALSTYLE
350
29
  3
ACDB_RECOMPOSE_DATA
350
E9
  3
AcDbVariableDictionary
350
E1
  0
DICTIONARY
  5
63
102
{ACAD_REACTORS
330
C
102
}
330
C
100
AcDbDictionary
281
     1
  0
DICTIONARY
  5
6A
102
{ACAD_REACTORS
330
C
102
}
330
C
100
AcDbDictionary
281
     1
  3
Imperial24
350
6B
  0
DICTIONARY
  5
D
102
{ACAD_REACTORS
330
C
102
}
330
C
100
AcDbDictionary
281
     1
  0
DICTIONARY
  5
62
102
{ACAD_REACTORS
330
C
102
}
330
C
100
AcDbDictionary
281
     1
  3
Layout1
350
6F
  3
Layout2
350
77
  3
Model
350
73
  0
DICTIONARY
  5
10
102
{ACAD_REACTORS
330
C
102
}
330
C
100
AcDbDictionary
281
     1
  3
ByBlock
350
19
  3
ByLayer
350
11
  3
Global
350
21
  0
DICTIONARY
  5
66
102
{ACAD_REACTORS
330
C
102
}
330
C
100
AcDbDictionary
281
     1
  3
Standard
350
67
  0
DICTIONARY
  5
5F
102
{ACAD_REACTORS
330
C
102
}
330
C
100
AcDbDictionary
281
     1
  3
Standard
350
60
  0
DICTIONARY
  5
61
102
{ACAD_REACTORS
330
C
102
}
330
C
100
AcDbDictionary
281
     1
  0
ACDBDICTIONARYWDFLT
  5
E
102
{ACAD_REACTORS
330
C
102
}
330
C
100
AcDbDictionary
281
     1
  3
Normal
350
F
100
AcDbDictionaryWithDefault
340
F
  0
DICTIONARY
  5
42
102
{ACAD_REACTORS
330
C
102
}
330
C
100
AcDbDictionary
281
     1
  3
A0
350
43
  3
A1
350
44
  3
A2
350
45
  3
A3
350
46
  3
A4
350
47
  3
A5
350
48
  3
A6
350
49
  3
A7
350
4A
  3
A8
350
4B
  3
A9
350
4C
  3
B0
350
4D
  3
B1
350
4E
  3
B2
350
4F
  3
B3
350
50
  3
B4
350
51
  3
B5
350
52
  3
B6
350
53
  0
DICTIONARY
  5
68
102
{ACAD_REACTORS
330
C
102
}
330
C
100
AcDbDictionary
281
     1
  3
Imperial24
350
69
  0
DICTIONARY
  5
64
102
{ACAD_REACTORS
330
C
102
}
330
C
100
AcDbDictionary
281
     1
  3
Standard
350
65
  0
DICTIONARY
  5
29
102
{ACAD_REACTORS
330
C
102
}
330
C
100
AcDbDictionary
281
     1
  3
2dWireframe
350
2F
  3
Basic
350
2E
  3
Brighten
350
35
  3
ColorChange
350
39
  3
Conceptual
350
32
  3
Dim
350
34
  3
EdgeColorOff
350
41
  3
Facepattern
350
38
  3
Flat
350
2A
  3
FlatWithEdges
350
2B
  3
Gouraud
350
2C
  3
GouraudWithEdges
350
2D
  3
Hidden
350
31
  3
JitterOff
350
3F
  3
Linepattern
350
37
  3
OverhangOff
350
40
  3
Realistic
350
33
  3
Shaded
350
3E
  3
Shaded with edges
350
3D
  3
Shades of Gray
350
3A
  3
Sketchy
350
3B
  3
Thicken
350
36
  3
Wireframe
350
30
  3
X-Ray
350
3C
  0
XRECORD
  5
E9
102
{ACAD_REACTORS
330
C
102
}
330
C
100
AcDbXrecord
280
     1
 90
        1
330
65
  0
DICTIONARY
  5
E1
102
{ACAD_REACTORS
330
C
102
}
330
C
100
AcDbDictionary
281
     1
  3
CANNOSCALE
350
E6
  3
CMLEADERSTYLE
350
E3
  3
CTABLESTYLE
350
E2
  3
CVIEWDETAILSTYLE
350
E4
  3
CVIEWSECTIONSTYLE
350
E5
  0
ACDBDETAILVIEWSTYLE
  5
6B
102
{ACAD_REACTORS
330
6A
102
}
330
6A
100
AcDbModelDocViewStyle
 70
     0
  3
Imperial24
290
     1
300
Imperial24
 90
        0
100
AcDbDetailViewStyle
 70
     0
 71
     0
 90
        3
 71
     1
340
55
 62
   256
 40
0.24
340
0
 62
   256
 40
0.24
300

 40
0.36
280
     3
 71
     2
340
5D
 90
       25
 62
   256
 71
     3
340
55
 62
   256
 40
0.24
 90
        1
 40
0.75
 90
        1
300
%<\AcVar ViewType \f "%tc1">% %<\AcVar ViewDetailId>%\PSCALE %<\AcVar ViewScale \f "%sn">%
 71
     4
340
5D
 90
       25
 62
   256
340
5D
 90
       25
 62
   256
280
     0
  0
LAYOUT
  5
6F
102
{ACAD_REACTORS
330
62
102
}
330
62
100
AcDbPlotSettings
  1

  2

  4

  6

 40
0.0
 41
0.0
 42
0.0
 43
0.0
 44
0.0
 45
0.0
 46
0.0
 47
0.0
 48
0.0
 49
0.0
140
0.0
141
0.0
142
1.0
143
1.0
 70
   688
 72
     0
 73
     0
 74
     5
  7

 75
    16
147
1.0
 76
     0
 77
     2
 78
   300
148
0.0
149
0.0
100
AcDbLayout
  1
Layout1
 70
     1
 71
     1
 10
0.0
 20
0.0
 11
12.0
 21
9.0
 12
0.0
 22
0.0
 32
0.0
 14
0.0
 24
0.0
 34
0.0
 15
0.0
 25
0.0
 35
0.0
146
0.0
 13
0.0
 23
0.0
 33
0.0
 16
1.0
 26
0.0
 36
0.0
 17
0.0
 27
1.0
 37
0.0
 76
     0
330
6C
  0
LAYOUT
  5
77
102
{ACAD_REACTORS
330
62
102
}
330
62
100
AcDbPlotSettings
  1

  2

  4

  6

 40
0.0
 41
0.0
 42
0.0
 43
0.0
 44
0.0
 45
0.0
 46
0.0
 47
0.0
 48
0.0
 49
0.0
140
0.0
141
0.0
142
1.0
143
1.0
 70
   688
 72
     0
 73
     0
 74
     5
  7

 75
    16
147
1.0
 76
     0
 77
     2
 78
   300
148
0.0
149
0.0
100
AcDbLayout
  1
Layout2
 70
     1
 71
     2
 10
0.0
 20
0.0
 11
12.0
 21
9.0
 12
0.0
 22
0.0
 32
0.0
 14
0.0
 24
0.0
 34
0.0
 15
0.0
 25
0.0
 35
0.0
146
0.0
 13
0.0
 23
0.0
 33
0.0
 16
1.0
 26
0.0
 36
0.0
 17
0.0
 27
1.0
 37
0.0
 76
     0
330
74
  0
LAYOUT
  5
73
102
{ACAD_REACTORS
330
62
102
}
330
62
100
AcDbPlotSettings
  1

  2

  4

  6

 40
0.0
 41
0.0
 42
0.0
 43
0.0
 44
0.0
 45
0.0
 46
0.0
 47
0.0
 48
0.0
 49
0.0
140
0.0
141
0.0
142
1.0
143
1.0
 70
  1712
 72
     0
 73
     0
 74
     0
  7

 75
     0
147
1.0
 76
     0
 77
     2
 78
   300
148
0.0
149
0.0
100
AcDbLayout
  1
Model
 70
     1
 71
     0
 10
0.0
 20
0.0
 11
12.0
 21
9.0
 12
0.0
 22
0.0
 32
0.0
 14
0.0
 24
0.0
 34
0.0
 15
0.0
 25
0.0
 35
0.0
146
0.0
 13
0.0
 23
0.0
 33
0.0
 16
1.0
 26
0.0
 36
0.0
 17
0.0
 27
1.0
 37
0.0
 76
     0
330
70
  0
MATERIAL
  5
19
102
{ACAD_XDICTIONARY
360
1A
102
}
102
{ACAD_REACTORS
330
10
102
}
330
10
100
AcDbMaterial
  1
ByBlock
 72
     0
 43
0.0208333333333333
 43
0.0
 43
0.0
 43
0.0
 43
0.0
 43
0.0208333333333333
 43
0.0
 43
0.0
 43
0.0
 43
0.0
 43
1.0
 43
0.0
 43
0.0
 43
0.0
 43
0.0
 43
1.0
 77
     0
 47
0.0208333333333333
 47
0.0
 47
0.0
 47
0.0
 47
0.0
 47
0.0208333333333333
 47
0.0
 47
0.0
 47
0.0
 47
0.0
 47
1.0
 47
0.0
 47
0.0
 47
0.0
 47
0.0
 47
1.0
171
     0
 49
0.0208333333333333
 49
0.0
 49
0.0
 49
0.0
 49
0.0
 49
0.0208333333333333
 49
0.0
 49
0.0
 49
0.0
 49
0.0
 49
1.0
 49
0.0
 49
0.0
 49
0.0
 49
0.0
 49
1.0
175
     0
142
0.0208333333333333
142
0.0
142
0.0
142
0.0
142
0.0
142
0.0208333333333333
142
0.0
142
0.0
142
0.0
142
0.0
142
1.0
142
0.0
142
0.0
142
0.0
142
0.0
142
1.0
179
     0
144
0.0208333333333333
144
0.0
144
0.0
144
0.0
144
0.0
144
0.0208333333333333
144
0.0
144
0.0
144
0.0
144
0.0
144
1.0
144
0.0
144
0.0
144
0.0
144
0.0
144
1.0
147
0.0208333333333333
147
0.0
147
0.0
147
0.0
147
0.0
147
0.0208333333333333
147
0.0
147
0.0
147
0.0
147
0.0
147
1.0
147
0.0
147
0.0
147
0.0
147
0.0
147
1.0
  0
MATERIAL
  5
11
102
{ACAD_XDICTIONARY
360
12
102
}
102
{ACAD_REACTORS
330
10
102
}
330
10
100
AcDbMaterial
  1
ByLayer
 72
     0
 43
0.0208333333333333
 43
0.0
 43
0.0
 43
0.0
 43
0.0
 43
0.0208333333333333
 43
0.0
 43
0.0
 43
0.0
 43
0.0
 43
1.0
 43
0.0
 43
0.0
 43
0.0
 43
0.0
 43
1.0
 77
     0
 47
0.0208333333333333
 47
0.0
 47
0.0
 47
0.0
 47
0.0
 47
0.0208333333333333
 47
0.0
 47
0.0
 47
0.0
 47
0.0
 47
1.0
 47
0.0
 47
0.0
 47
0.0
 47
0.0
 47
1.0
171
     0
 49
0.0208333333333333
 49
0.0
 49
0.0
 49
0.0
 49
0.0
 49
0.0208333333333333
 49
0.0
 49
0.0
 49
0.0
 49
0.0
 49
1.0
 49
0.0
 49
0.0
 49
0.0
 49
0.0
 49
1.0
175
     0
142
0.0208333333333333
142
0.0
142
0.0
142
0.0
142
0.0
142
0.0208333333333333
142
0.0
142
0.0
142
0.0
142
0.0
142
1.0
142
0.0
142
0.0
142
0.0
142
0.0
142
1.0
179
     0
144
0.0208333333333333
144
0.0
144
0.0
144
0.0
144
0.0
144
0.0208333333333333
144
0.0
144
0.0
144
0.0
144
0.0
144
1.0
144
0.0
144
0.0
144
0.0
144
0.0
144
1.0
147
0.0208333333333333
147
0.0
147
0.0
147
0.0
147
0.0
147
0.0208333333333333
147
0.0
147
0.0
147
0.0
147
0.0
147
1.0
147
0.0
147
0.0
147
0.0
147
0.0
147
1.0
  0
MATERIAL
  5
21
102
{ACAD_XDICTIONARY
360
22
102
}
102
{ACAD_REACTORS
330
10
102
}
330
10
100
AcDbMaterial
  1
Global
 72
     0
 43
0.0208333333333333
 43
0.0
 43
0.0
 43
0.0
 43
0.0
 43
0.0208333333333333
 43
0.0
 43
0.0
 43
0.0
 43
0.0
 43
1.0
 43
0.0
 43
0.0
 43
0.0
 43
0.0
 43
1.0
 77
     0
 47
0.0208333333333333
 47
0.0
 47
0.0
 47
0.0
 47
0.0
 47
0.0208333333333333
 47
0.0
 47
0.0
 47
0.0
 47
0.0
 47
1.0
 47
0.0
 47
0.0
 47
0.0
 47
0.0
 47
1.0
171
     0
 49
0.0208333333333333
 49
0.0
 49
0.0
 49
0.0
 49
0.0
 49
0.0208333333333333
 49
0.0
 49
0.0
 49
0.0
 49
0.0
 49
1.0
 49
0.0
 49
0.0
 49
0.0
 49
0.0
 49
1.0
175
     0
142
0.0208333333333333
142
0.0
142
0.0
142
0.0
142
0.0
142
0.0208333333333333
142
0.0
142
0.0
142
0.0
142
0.0
142
1.0
142
0.0
142
0.0
142
0.0
142
0.0
142
1.0
179
     0
144
0.0208333333333333
144
0.0
144
0.0
144
0.0
144
0.0
144
0.0208333333333333
144
0.0
144
0.0
144
0.0
144
0.0
144
1.0
144
0.0
144
0.0
144
0.0
144
0.0
144
1.0
147
0.0208333333333333
147
0.0
147
0.0
147
0.0
147
0.0
147
0.0208333333333333
147
0.0
147
0.0
147
0.0
147
0.0
147
1.0
147
0.0
147
0.0
147
0.0
147
0.0
147
1.0
  0
MLEADERSTYLE
  5
67
102
{ACAD_REACTORS
330
66
102
}
330
66
100
AcDbMLeaderStyle
179
     2
170
     2
171
     1
172
     0
 90
        2
 40
0.0
 41
0.0
173
     1
 91
-1056964608
340
5B
 92
       -2
290
     1
 42
0.09
291
     1
 43
0.36
  3
Standard
 44
0.18
300

342
55
174
     1
178
     6
175
     1
176
     0
 93
-1056964608
 45
0.18
292
     0
297
     0
 46
0.18
 94
-1056964608
 47
1.0
 49
1.0
140
1.0
293
     1
141
0.0
294
     1
177
     0
142
1.0
295
     1
296
     0
143
0.125
271
     0
272
     9
273
     9
298
     1
  0
MLINESTYLE
  5
60
102
{ACAD_REACTORS
330
5F
102
}
330
5F
100
AcDbMlineStyle
  2
STANDARD
 70
     0
  3

 62
   256
 51
90.0
 52
90.0
 71
     2
 49
0.5
 62
   256
  6
BYLAYER
 49
-0.5
 62
   256
  6
BYLAYER
  0
ACDBPLACEHOLDER
  5
F
102
{ACAD_REACTORS
330
E
102
}
330
E
  0
SCALE
  5
43
102
{ACAD_REACTORS
330
42
102
}
330
42
100
AcDbScale
 70
     0
300
1:1
140
1.0
141
1.0
290
     1
  0
SCALE
  5
44
102
{ACAD_REACTORS
330
42
102
}
330
42
100
AcDbScale
 70
     0
300
1/128" = 1'-0"
140
0.0078125
141
12.0
290
     0
  0
SCALE
  5
45
102
{ACAD_REACTORS
330
42
102
}
330
42
100
AcDbScale
 70
     0
300
1/64" = 1'-0"
140
0.015625
141
12.0
290
     0
  0
SCALE
  5
46
102
{ACAD_REACTORS
330
42
102
}
330
42
100
AcDbScale
 70
     0
300
1/32" = 1'-0"
140
0.03125
141
12.0
290
     0
  0
SCALE
  5
47
102
{ACAD_REACTORS
330
42
102
}
330
42
100
AcDbScale
 70
     0
300
1/16" = 1'-0"
140
0.0625
141
12.0
290
     0
  0
SCALE
  5
48
102
{ACAD_REACTORS
330
42
102
}
330
42
100
AcDbScale
 70
     0
300
3/32" = 1'-0"
140
0.09375
141
12.0
290
     0
  0
SCALE
  5
49
102
{ACAD_REACTORS
330
42
102
}
330
42
100
AcDbScale
 70
     0
300
1/8" = 1'-0"
140
0.125
141
12.0
290
     0
  0
SCALE
  5
4A
102
{ACAD_REACTORS
330
42
102
}
330
42
100
AcDbScale
 70
     0
300
3/16" = 1'-0"
140
0.1875
141
12.0
290
     0
  0
SCALE
  5
4B
102
{ACAD_REACTORS
330
42
102
}
330
42
100
AcDbScale
 70
     0
300
1/4" = 1'-0"
140
0.25
141
12.0
290
     0
  0
SCALE
  5
4C
102
{ACAD_REACTORS
330
42
102
}
330
42
100
AcDbScale
 70
     0
300
3/8" = 1'-0"
140
0.375
141
12.0
290
     0
  0
SCALE
  5
4D
102
{ACAD_REACTORS
330
42
102
}
330
42
100
AcDbScale
 70
     0
300
1/2" = 1'-0"
140
0.5
141
12.0
290
     0
  0
SCALE
  5
4E
102
{ACAD_REACTORS
330
42
102
}
330
42
100
AcDbScale
 70
     0
300
3/4" = 1'-0"
140
0.75
141
12.0
290
     0
  0
SCALE
  5
4F
102
{ACAD_REACTORS
330
42
102
}
330
42
100
AcDbScale
 70
     0
300
1" = 1'-0"
140
1.0
141
12.0
290
     0
  0
SCALE
  5
50
102
{ACAD_REACTORS
330
42
102
}
330
42
100
AcDbScale
 70
     0
300
1-1/2" = 1'-0"
140
1.5
141
12.0
290
     0
  0
SCALE
  5
51
102
{ACAD_REACTORS
330
42
102
}
330
42
100
AcDbScale
 70
     0
300
3" = 1'-0"
140
3.0
141
12.0
290
     0
  0
SCALE
  5
52
102
{ACAD_REACTORS
330
42
102
}
330
42
100
AcDbScale
 70
     0
300
6" = 1'-0"
140
6.0
141
12.0
290
     0
  0
SCALE
  5
53
102
{ACAD_REACTORS
330
42
102
}
330
42
100
AcDbScale
 70
     0
300
1'-0" = 1'-0"
140
12.0
141
12.0
290
     0
  0
ACDBSECTIONVIEWSTYLE
  5
69
102
{ACAD_REACTORS
330
68
102
}
330
68
100
AcDbModelDocViewStyle
 70
     0
  3
Imperial24
290
     1
300
Imperial24
 90
        0
100
AcDbSectionViewStyle
 70
     0
 71
     0
 90
       78
 71
     1
340
55
 62
   256
 40
0.24
340
0
340
0
 62
   256
 40
0.24
300
I, O, Q, S, X, Z
 40
0.48
 90
        3
 40
0.18
 90
        1
 71
     2
340
5D
 90
       25
 62
   256
340
5D
 90
       50
 62
   256
 40
0.24
 40
0.0
 40
0.24
 71
     3
340
55
 62
   256
 40
0.24
 90
        1
 40
0.75
 90
        1
300
%<\AcVar ViewType \f "%tc1">% %<\AcVar ViewSectionStartId>%-%<\AcVar ViewSectionEndId>%\PSCALE %<\AcVar ViewScale \f "%sn">%
 71
     4
 62
   256
 62
   257
300
ANSI31
 40
1.0
 90
        0
290
     0
290
     0
 90
        6
 40
0.0
 40
1.570796326794896
 40
0.2617993877991494
 40
1.308996938995747
 40
-0.2617993877991494
 40
1.832595714594046
  0
TABLESTYLE
  5
65
102
{ACAD_XDICTIONARY
360
E7
102
}
102
{ACAD_REACTORS
330
64
102
}
330
64
100
AcDbTableStyle
280
     0
  3
Standard
 70
     0
 71
     0
 40
0.06
 41
0.06
280
     0
281
     0
  7
Standard
140
0.18
170
     2
 62
     0
 63
     7
283
     0
 90
      512
 91
        0
  1

274
    -2
284
     1
 64
     0
275
    -2
285
     1
 65
     0
276
    -2
286
     1
 66
     0
277
    -2
287
     1
 67
     0
278
    -2
288
     1
 68
     0
279
    -2
289
     1
 69
     0
  7
Standard
140
0.25
170
     5
 62
     0
 63
     7
283
     0
 90
      512
 91
        0
  1

274
    -2
284
     1
 64
     0
275
    -2
285
     1
 65
     0
276
    -2
286
     1
 66
     0
277
    -2
287
     1
 67
     0
278
    -2
288
     1
 68
     0
279
    -2
289
     1
 69
     0
  7
Standard
140
0.18
170
     5
 62
     0
 63
     7
283
     0
 90
      512
 91
        0
  1

274
    -2
284
     1
 64
     0
275
    -2
285
     1
 65
     0
276
    -2
286
     1
 66
     0
277
    -2
287
     1
 67
     0
278
    -2
288
     1
 68
     0
279
    -2
289
     1
 69
     0
  0
VISUALSTYLE
  5
2F
102
{ACAD_REACTORS
330
29
102
}
330
29
100
AcDbVisualStyle
  2
2dWireframe
 70
     4
177
     3
291
     0
 70
    58
 90
        0
176
     1
 90
        2
176
     1
 90
        0
176
     1
 90
        0
176
     1
 40
0.6
176
     1
 40
30.0
176
     1
 62
     7
420
 16777215
176
     1
 90
        1
176
     1
 90
        4
176
     1
 62
     7
176
     1
 62
   257
176
     1
 90
        1
176
     1
 90
        1
176
     1
 40
1.0
176
     1
 90
        0
176
     1
 62
   257
176
     1
 40
1.0
176
     1
 90
        1
176
     1
 90
        6
176
     1
 90
        2
176
     1
 62
     7
176
     1
 90
        5
176
     1
 90
        0
176
     1
 90
        0
176
     1
290
     0
176
     1
 90
        1
176
     1
 40
0.0
176
     1
 90
        0
176
     1
290
     1
176
     1
290
     1
176
     1
290
     0
176
     1
290
     0
176
     1
290
     0
176
     1
290
     0
176
     1
290
     0
176
     1
290
     0
176
     1
290
     0
176
     1
 90
       50
176
     1
 40
0.0
176
     1
 40
1.0
176
     1
 90
        0
176
     1
 62
    18
420
        0
176
     1
 90
       50
176
     1
 90
        3
176
     1
 62
     5
420
      255
176
     1
290
     0
176
     1
 90
       50
176
     1
 90
       50
176
     1
 90
       50
176
     1
290
     0
176
     1
 90
       50
176
     1
 62
   256
176
     0
 40
1.0
176
     0
 90
        2
176
     1
  1
strokes_ogs.tif
176
     1
290
     0
176
     1
 40
1.0
176
     1
 40
1.0
176
     1
  0
VISUALSTYLE
  5
2E
102
{ACAD_REACTORS
330
29
102
}
330
29
100
AcDbVisualStyle
  2
Basic
 70
     7
177
     3
291
     1
 70
    58
 90
        1
176
     1
 90
        0
176
     1
 90
        1
176
     1
 90
        0
176
     1
 40
0.6
176
     1
 40
30.0
176
     1
 62
     7
420
 16777215
176
     1
 90
        0
176
     1
 90
        4
176
     1
 62
     7
176
     1
 62
   257
176
     1
 90
        1
176
     1
 90
        1
176
     1
 40
1.0
176
     1
 90
        8
176
     1
 62
     7
176
     1
 40
1.0
176
     1
 90
        1
176
     1
 90
        6
176
     1
 90
        2
176
     1
 62
     7
176
     1
 90
        5
176
     1
 90
        0
176
     1
 90
        0
176
     1
290
     0
176
     1
 90
        1
176
     1
 40
0.0
176
     1
 90
        0
176
     1
290
     0
176
     1
290
     1
176
     1
290
     1
176
     1
290
     0
176
     1
290
     0
176
     1
290
     0
176
     1
290
     0
176
     1
290
     0
176
     1
290
     0
176
     1
 90
       50
176
     1
 40
0.0
176
     1
 40
1.0
176
     1
 90
        0
176
     1
 62
    18
420
        0
176
     1
 90
       50
176
     1
 90
        3
176
     1
 62
     5
420
      255
176
     1
290
     0
176
     1
 90
       50
176
     1
 90
       50
176
     1
 90
       50
176
     1
290
     0
176
     1
 90
       50
176
     1
 62
   256
176
     0
 40
1.0
176
     0
 90
        2
176
     1
  1
strokes_ogs.tif
176
     1
290
     0
176
     1
 40
1.0
176
     1
 40
1.0
176
     1
  0
VISUALSTYLE
  5
35
102
{ACAD_REACTORS
330
29
102
}
330
29
100
AcDbVisualStyle
  2
Brighten
 70
    12
177
     3
291
     1
 70
    58
 90
        2
176
     1
 90
        2
176
     1
 90
        0
176
     1
 90
        0
176
     1
 40
0.6
176
     1
 40
30.0
176
     1
 62
     7
420
 16777215
176
     1
 90
        1
176
     1
 90
        4
176
     1
 62
     7
176
     1
 62
   257
176
     1
 90
        1
176
     1
 90
        1
176
     1
 40
1.0
176
     1
 90
        8
176
     1
 62
     7
176
     1
 40
1.0
176
     1
 90
        1
176
     1
 90
        6
176
     1
 90
        2
176
     1
 62
     7
176
     1
 90
        5
176
     1
 90
        0
176
     1
 90
        0
176
     1
290
     0
176
     1
 90
        1
176
     1
 40
50.0
176
     1
 90
        0
176
     1
290
     0
176
     1
290
     1
176
     1
290
     1
176
     1
290
     0
176
     1
290
     0
176
     1
290
     0
176
     1
290
     0
176
     1
290
     0
176
     1
290
     0
176
     1
 90
       50
176
     1
 40
0.0
176
     1
 40
1.0
176
     1
 90
        0
176
     1
 62
    18
420
        0
176
     1
 90
       50
176
     1
 90
        3
176
     1
 62
     5
420
      255
176
     1
290
     0
176
     1
 90
       50
176
     1
 90
       50
176
     1
 90
       50
176
     1
290
     0
176
     1
 90
       50
176
     1
 62
   256
176
     0
 40
1.0
176
     0
 90
        2
176
     1
  1
strokes_ogs.tif
176
     1
290
     0
176
     1
 40
1.0
176
     1
 40
1.0
176
     1
  0
VISUALSTYLE
  5
39
102
{ACAD_REACTORS
330
29
102
}
330
29
100
AcDbVisualStyle
  2
ColorChange
 70
    16
177
     3
291
     1
 70
    58
 90
        2
176
     1
 90
        2
176
     1
 90
        3
176
     1
 90
        0
176
     1
 40
0.6
176
     1
 40
30.0
176
     1
 62
     8
420
  8421504
176
     1
 90
        1
176
     1
 90
        4
176
     1
 62
     7
176
     1
 62
   257
176
     1
 90
        1
176
     1
 90
        1
176
     1
 40
1.0
176
     1
 90
        8
176
     1
 62
     8
420
  8421504
176
     1
 40
1.0
176
     1
 90
        1
176
     1
 90
        6
176
     1
 90
        2
176
     1
 62
     7
176
     1
 90
        5
176
     1
 90
        0
176
     1
 90
        0
176
     1
290
     0
176
     1
 90
        1
176
     1
 40
0.0
176
     1
 90
        0
176
     1
290
     0
176
     1
290
     1
176
     1
290
     1
176
     1
290
     0
176
     1
290
     0
176
     1
290
     0
176
     1
290
     0
176
     1
290
     0
176
     1
290
     0
176
     1
 90
       50
176
     1
 40
0.0
176
     1
 40
1.0
176
     1
 90
        0
176
     1
 62
    18
420
        0
176
     1
 90
       50
176
     1
 90
        3
176
     1
 62
     5
420
      255
176
     1
290
     0
176
     1
 90
       50
176
     1
 90
       50
176
     1
 90
       50
176
     1
290
     0
176
     1
 90
       50
176
     1
 62
   256
176
     0
 40
1.0
176
     0
 90
        2
176
     1
  1
strokes_ogs.tif
176
     1
290
     0
176
     1
 40
1.0
176
     1
 40
1.0
176
     1
  0
VISUALSTYLE
  5
32
102
{ACAD_REACTORS
330
29
102
}
330
29
100
AcDbVisualStyle
  2
Conceptual
 70
     9
177
     3
291
     0
 70
    58
 90
        3
176
     1
 90
        2
176
     1
 90
        0
176
     1
 90
        0
176
     1
 40
0.6
176
     1
 40
30.0
176
     1
 62
     7
420
 16777215
176
     1
 90
        2
176
     1
 90
        2
176
     1
 62
     7
176
     1
 62
   257
176
     1
 90
        1
176
     1
 90
        1
176
     1
 40
179.0
176
     1
 90
        8
176
     1
 62
     7
176
     1
 40
1.0
176
     1
 90
        1
176
     1
 90
        6
176
     1
 90
        2
176
     1
 62
     7
176
     1
 90
        3
176
     1
 90
        0
176
     1
 90
        0
176
     1
290
     0
176
     1
 90
        1
176
     1
 40
0.0
176
     1
 90
        0
176
     1
290
     0
176
     1
290
     1
176
     1
290
     1
176
     1
290
     0
176
     1
290
     0
176
     1
290
     0
176
     1
290
     0
176
     1
290
     0
176
     1
290
     0
176
     1
 90
       50
176
     1
 40
0.0
176
     1
 40
1.0
176
     1
 90
        0
176
     1
 62
    18
420
        0
176
     1
 90
       50
176
     1
 90
        3
176
     1
 62
     5
420
      255
176
     1
290
     0
176
     1
 90
       50
176
     1
 90
       50
176
     1
 90
       50
176
     1
290
     0
176
     1
 90
       50
176
     1
 62
   256
176
     0
 40
1.0
176
     0
 90
        2
176
     1
  1
strokes_ogs.tif
176
     1
290
     0
176
     1
 40
1.0
176
     1
 40
1.0
176
     1
  0
VISUALSTYLE
  5
34
102
{ACAD_REACTORS
330
29
102
}
330
29
100
AcDbVisualStyle
  2
Dim
 70
    11
177
     3
291
     1
 70
    58
 90
        2
176
     1
 90
        2
176
     1
 90
        0
176
     1
 90
        0
176
     1
 40
0.6
176
     1
 40
30.0
176
     1
 62
     7
420
 16777215
176
     1
 90
        1
176
     1
 90
        4
176
     1
 62
     7
176
     1
 62
   257
176
     1
 90
        1
176
     1
 90
        1
176
     1
 40
1.0
176
     1
 90
        8
176
     1
 62
     7
176
     1
 40
1.0
176
     1
 90
        1
176
     1
 90
        6
176
     1
 90
        2
176
     1
 62
     7
176
     1
 90
        5
176
     1
 90
        0
176
     1
 90
        0
176
     1
290
     0
176
     1
 90
        1
176
     1
 40
-50.0
176
     1
 90
        0
176
     1
290
     0
176
     1
290
     1
176
     1
290
     1
176
     1
290
     0
176
     1
290
     0
176
     1
290
     0
176
     1
290
     0
176
     1
290
     0
176
     1
290
     0
176
     1
 90
       50
176
     1
 40
0.0
176
     1
 40
1.0
176
     1
 90
        0
176
     1
 62
    18
420
        0
176
     1
 90
       50
176
     1
 90
        3
176
     1
 62
     5
420
      255
176
     1
290
     0
176
     1
 90
       50
176
     1
 90
       50
176
     1
 90
       50
176
     1
290
     0
176
     1
 90
       50
176
     1
 62
   256
176
     0
 40
1.0
176
     0
 90
        2
176
     1
  1
strokes_ogs.tif
176
     1
290
     0
176
     1
 40
1.0
176
     1
 40
1.0
176
     1
  0
VISUALSTYLE
  5
41
102
{ACAD_REACTORS
330
29
102
}
330
29
100
AcDbVisualStyle
  2
EdgeColorOff
 70
    22
177
     3
291
     1
 70
    58
 90
        2
176
     0
 90
        2
176
     0
 90
        0
176
     0
 90
        0
176
     0
 40
0.6
176
     0
 40
30.0
176
     0
 62
     7
420
 16777215
176
     0
 90
        1
176
     0
 90
        4
176
     0
 62
     7
176
     0
 62
   257
176
     0
 90
        1
176
     0
 90
        1
176
     0
 40
1.0
176
     0
 90
        8
176
     2
 62
     7
176
     0
 40
1.0
176
     0
 90
        1
176
     0
 90
        6
176
     0
 90
        2
176
     0
 62
     7
176
     0
 90
        5
176
     0
 90
        0
176
     0
 90
        0
176
     0
290
     0
176
     0
 90
        1
176
     0
 40
0.0
176
     0
 90
        0
176
     0
290
     0
176
     0
290
     1
176
     0
290
     1
176
     0
290
     0
176
     0
290
     0
176
     0
290
     0
176
     0
290
     0
176
     0
290
     0
176
     0
290
     0
176
     0
 90
       50
176
     0
 40
0.0
176
     0
 40
1.0
176
     0
 90
        0
176
     0
 62
    18
420
        0
176
     0
 90
       50
176
     0
 90
        3
176
     0
 62
     5
420
      255
176
     0
290
     0
176
     0
 90
       50
176
     0
 90
       50
176
     0
 90
       50
176
     0
290
     0
176
     0
 90
       50
176
     0
 62
   256
176
     0
 40
1.0
176
     0
 90
        2
176
     0
  1
strokes_ogs.tif
176
     0
290
     0
176
     0
 40
1.0
176
     0
 40
1.0
176
     0
  0
VISUALSTYLE
  5
38
102
{ACAD_REACTORS
330
29
102
}
330
29
100
AcDbVisualStyle
  2
Facepattern
 70
    15
177
     3
291
     1
 70
    58
 90
        2
176
     1
 90
        2
176
     1
 90
        0
176
     1
 90
        0
176
     1
 40
0.6
176
     1
 40
30.0
176
     1
 62
     7
420
 16777215
176
     1
 90
        1
176
     1
 90
        4
176
     1
 62
     7
176
     1
 62
   257
176
     1
 90
        1
176
     1
 90
        1
176
     1
 40
1.0
176
     1
 90
        8
176
     1
 62
     7
176
     1
 40
1.0
176
     1
 90
        1
176
     1
 90
        6
176
     1
 90
        2
176
     1
 62
     7
176
     1
 90
        5
176
     1
 90
        0
176
     1
 90
        0
176
     1
290
     0
176
     1
 90
        1
176
     1
 40
0.0
176
     1
 90
        0
176
     1
290
     0
176
     1
290
     1
176
     1
290
     1
176
     1
290
     0
176
     1
290
     0
176
     1
290
     0
176
     1
290
     0
176
     1
290
     0
176
     1
290
     0
176
     1
 90
       50
176
     1
 40
0.0
176
     1
 40
1.0
176
     1
 90
        0
176
     1
 62
    18
420
        0
176
     1
 90
       50
176
     1
 90
        3
176
     1
 62
     5
420
      255
176
     1
290
     0
176
     1
 90
       50
176
     1
 90
       50
176
     1
 90
       50
176
     1
290
     0
176
     1
 90
       50
176
     1
 62
   256
176
     0
 40
1.0
176
     0
 90
        2
176
     1
  1
strokes_ogs.tif
176
     1
290
     0
176
     1
 40
1.0
176
     1
 40
1.0
176
     1
  0
VISUALSTYLE
  5
2A
102
{ACAD_REACTORS
330
29
102
}
330
29
100
AcDbVisualStyle
  2
Flat
 70
     0
177
     3
291
     1
 70
    58
 90
        2
176
     1
 90
        1
176
     1
 90
        1
176
     1
 90
        2
176
     1
 40
0.6
176
     1
 40
30.0
176
     1
 62
     7
420
 16777215
176
     1
 90
        0
176
     1
 90
        0
176
     1
 62
     7
176
     1
 62
   257
176
     1
 90
        1
176
     1
 90
        1
176
     1
 40
1.0
176
     1
 90
        8
176
     1
 62
     7
176
     1
 40
1.0
176
     1
 90
        1
176
     1
 90
        6
176
     1
 90
        2
176
     1
 62
     7
176
     1
 90
        5
176
     1
 90
        0
176
     1
 90
        0
176
     1
290
     0
176
     1
 90
       13
176
     1
 40
0.0
176
     1
 90
        0
176
     1
290
     0
176
     1
290
     1
176
     1
290
     1
176
     1
290
     0
176
     1
290
     0
176
     1
290
     0
176
     1
290
     0
176
     1
290
     0
176
     1
290
     0
176
     1
 90
       50
176
     1
 40
0.0
176
     1
 40
1.0
176
     1
 90
        0
176
     1
 62
    18
420
        0
176
     1
 90
       50
176
     1
 90
        3
176
     1
 62
     5
420
      255
176
     1
290
     0
176
     1
 90
       50
176
     1
 90
       50
176
     1
 90
       50
176
     1
290
     0
176
     1
 90
       50
176
     1
 62
   256
176
     0
 40
1.0
176
     0
 90
        2
176
     1
  1
strokes_ogs.tif
176
     1
290
     0
176
     1
 40
1.0
176
     1
 40
1.0
176
     1
  0
VISUALSTYLE
  5
2B
102
{ACAD_REACTORS
330
29
102
}
330
29
100
AcDbVisualStyle
  2
FlatWithEdges
 70
     1
177
     3
291
     1
 70
    58
 90
        2
176
     1
 90
        1
176
     1
 90
        1
176
     1
 90
        2
176
     1
 40
0.6
176
     1
 40
30.0
176
     1
 62
     7
420
 16777215
176
     1
 90
        1
176
     1
 90
        0
176
     1
 62
     7
176
     1
 62
   257
176
     1
 90
        1
176
     1
 90
        1
176
     1
 40
1.0
176
     1
 90
        0
176
     1
 62
   257
176
     1
 40
1.0
176
     1
 90
        1
176
     1
 90
        6
176
     1
 90
        2
176
     1
 62
     7
176
     1
 90
        5
176
     1
 90
        0
176
     1
 90
        0
176
     1
290
     0
176
     1
 90
       13
176
     1
 40
0.0
176
     1
 90
        0
176
     1
290
     0
176
     1
290
     1
176
     1
290
     1
176
     1
290
     0
176
     1
290
     0
176
     1
290
     0
176
     1
290
     0
176
     1
290
     0
176
     1
290
     0
176
     1
 90
       50
176
     1
 40
0.0
176
     1
 40
1.0
176
     1
 90
        0
176
     1
 62
    18
420
        0
176
     1
 90
       50
176
     1
 90
        3
176
     1
 62
     5
420
      255
176
     1
290
     0
176
     1
 90
       50
176
     1
 90
       50
176
     1
 90
       50
176
     1
290
     0
176
     1
 90
       50
176
     1
 62
   256
176
     0
 40
1.0
176
     0
 90
        2
176
     1
  1
strokes_ogs.tif
176
     1
290
     0
176
     1
 40
1.0
176
     1
 40
1.0
176
     1
  0
VISUALSTYLE
  5
2C
102
{ACAD_REACTORS
330
29
102
}
330
29
100
AcDbVisualStyle
  2
Gouraud
 70
     2
177
     3
291
     1
 70
    58
 90
        2
176
     1
 90
        2
176
     1
 90
        1
176
     1
 90
        2
176
     1
 40
0.6
176
     1
 40
30.0
176
     1
 62
     7
420
 16777215
176
     1
 90
        0
176
     1
 90
        0
176
     1
 62
     7
176
     1
 62
   257
176
     1
 90
        1
176
     1
 90
        1
176
     1
 40
1.0
176
     1
 90
        0
176
     1
 62
     7
176
     1
 40
1.0
176
     1
 90
        1
176
     1
 90
        6
176
     1
 90
        2
176
     1
 62
     7
176
     1
 90
        5
176
     1
 90
        0
176
     1
 90
        0
176
     1
290
     0
176
     1
 90
       13
176
     1
 40
0.0
176
     1
 90
        0
176
     1
290
     0
176
     1
290
     1
176
     1
290
     1
176
     1
290
     0
176
     1
290
     0
176
     1
290
     0
176
     1
290
     0
176
     1
290
     0
176
     1
290
     0
176
     1
 90
       50
176
     1
 40
0.0
176
     1
 40
1.0
176
     1
 90
        0
176
     1
 62
    18
420
        0
176
     1
 90
       50
176
     1
 90
        3
176
     1
 62
     5
420
      255
176
     1
290
     0
176
     1
 90
       50
176
     1
 90
       50
176
     1
 90
       50
176
     1
290
     0
176
     1
 90
       50
176
     1
 62
   256
176
     0
 40
1.0
176
     0
 90
        2
176
     1
  1
strokes_ogs.tif
176
     1
290
     0
176
     1
 40
1.0
176
     1
 40
1.0
176
     1
  0
VISUALSTYLE
  5
2D
102
{ACAD_REACTORS
330
29
102
}
330
29
100
AcDbVisualStyle
  2
GouraudWithEdges
 70
     3
177
     3
291
     1
 70
    58
 90
        2
176
     1
 90
        2
176
     1
 90
        1
176
     1
 90
        2
176
     1
 40
0.6
176
     1
 40
30.0
176
     1
 62
     7
420
 16777215
176
     1
 90
        1
176
     1
 90
        0
176
     1
 62
     7
176
     1
 62
   257
176
     1
 90
        1
176
     1
 90
        1
176
     1
 40
1.0
176
     1
 90
        0
176
     1
 62
   257
176
     1
 40
1.0
176
     1
 90
        1
176
     1
 90
        6
176
     1
 90
        2
176
     1
 62
     7
176
     1
 90
        5
176
     1
 90
        0
176
     1
 90
        0
176
     1
290
     0
176
     1
 90
       13
176
     1
 40
0.0
176
     1
 90
        0
176
     1
290
     0
176
     1
290
     1
176
     1
290
     1
176
     1
290
     0
176
     1
290
     0
176
     1
290
     0
176
     1
290
     0
176
     1
290
     0
176
     1
290
     0
176
     1
 90
       50
176
     1
 40
0.0
176
     1
 40
1.0
176
     1
 90
        0
176
     1
 62
    18
420
        0
176
     1
 90
       50
176
     1
 90
        3
176
     1
 62
     5
420
      255
176
     1
290
     0
176
     1
 90
       50
176
     1
 90
       50
176
     1
 90
       50
176
     1
290
     0
176
     1
 90
       50
176
     1
 62
   256
176
     0
 40
1.0
176
     0
 90
        2
176
     1
  1
strokes_ogs.tif
176
     1
290
     0
176
     1
 40
1.0
176
     1
 40
1.0
176
     1
  0
VISUALSTYLE
  5
31
102
{ACAD_REACTORS
330
29
102
}
330
29
100
AcDbVisualStyle
  2
Hidden
 70
     6
177
     3
291
     0
 70
    58
 90
        1
176
     1
 90
        2
176
     1
 90
        2
176
     1
 90
        0
176
     1
 40
0.6
176
     1
 40
30.0
176
     1
 62
     7
420
 16777215
176
     1
 90
        2
176
     1
 90
        2
176
     1
 62
     7
176
     1
 62
   257
176
     1
 90
        2
176
     1
 90
        1
176
     1
 40
40.0
176
     1
 90
        0
176
     1
 62
   257
176
     1
 40
1.0
176
     1
 90
        1
176
     1
 90
        6
176
     1
 90
        2
176
     1
 62
     7
176
     1
 90
        3
176
     1
 90
        0
176
     1
 90
        0
176
     1
290
     0
176
     1
 90
        1
176
     1
 40
0.0
176
     1
 90
        0
176
     1
290
     0
176
     1
290
     1
176
     1
290
     1
176
     1
290
     0
176
     1
290
     0
176
     1
290
     0
176
     1
290
     0
176
     1
290
     0
176
     1
290
     0
176
     1
 90
       50
176
     1
 40
0.0
176
     1
 40
1.0
176
     1
 90
        0
176
     1
 62
    18
420
        0
176
     1
 90
       50
176
     1
 90
        3
176
     1
 62
     5
420
      255
176
     1
290
     0
176
     1
 90
       50
176
     1
 90
       50
176
     1
 90
       50
176
     1
290
     0
176
     1
 90
       50
176
     1
 62
   256
176
     0
 40
1.0
176
     0
 90
        2
176
     1
  1
strokes_ogs.tif
176
     1
290
     0
176
     1
 40
1.0
176
     1
 40
1.0
176
     1
  0
VISUALSTYLE
  5
3F
102
{ACAD_REACTORS
330
29
102
}
330
29
100
AcDbVisualStyle
  2
JitterOff
 70
    20
177
     3
291
     1
 70
    58
 90
        2
176
     0
 90
        2
176
     0
 90
        0
176
     0
 90
        0
176
     0
 40
0.6
176
     0
 40
30.0
176
     0
 62
     7
420
 16777215
176
     0
 90
        1
176
     0
 90
        4
176
     0
 62
     7
176
     0
 62
   257
176
     0
 90
        1
176
     0
 90
        1
176
     0
 40
1.0
176
     0
 90
       10
176
     2
 62
     7
176
     0
 40
1.0
176
     0
 90
        1
176
     0
 90
        6
176
     0
 90
        2
176
     0
 62
     7
176
     0
 90
        5
176
     0
 90
        0
176
     0
 90
        0
176
     0
290
     0
176
     0
 90
        1
176
     0
 40
0.0
176
     0
 90
        0
176
     0
290
     0
176
     0
290
     1
176
     0
290
     1
176
     0
290
     0
176
     0
290
     0
176
     0
290
     0
176
     0
290
     0
176
     0
290
     0
176
     0
290
     0
176
     0
 90
       50
176
     0
 40
0.0
176
     0
 40
1.0
176
     0
 90
        0
176
     0
 62
    18
420
        0
176
     0
 90
       50
176
     0
 90
        3
176
     0
 62
     5
420
      255
176
     0
290
     0
176
     0
 90
       50
176
     0
 90
       50
176
     0
 90
       50
176
     0
290
     0
176
     0
 90
       50
176
     0
 62
   256
176
     0
 40
1.0
176
     0
 90
        2
176
     0
  1
strokes_ogs.tif
176
     0
290
     0
176
     0
 40
1.0
176
     0
 40
1.0
176
     0
  0
VISUALSTYLE
  5
37
102
{ACAD_REACTORS
330
29
102
}
330
29
100
AcDbVisualStyle
  2
Linepattern
 70
    14
177
     3
291
     1
 70
    58
 90
        2
176
     1
 90
        2
176
     1
 90
        0
176
     1
 90
        0
176
     1
 40
0.6
176
     1
 40
30.0
176
     1
 62
     7
420
 16777215
176
     1
 90
        1
176
     1
 90
        4
176
     1
 62
     7
176
     1
 62
   257
176
     1
 90
        7
176
     1
 90
        7
176
     1
 40
1.0
176
     1
 90
        8
176
     1
 62
     7
176
     1
 40
1.0
176
     1
 90
        1
176
     1
 90
        6
176
     1
 90
        2
176
     1
 62
     7
176
     1
 90
        5
176
     1
 90
        0
176
     1
 90
        0
176
     1
290
     0
176
     1
 90
        1
176
     1
 40
0.0
176
     1
 90
        0
176
     1
290
     0
176
     1
290
     1
176
     1
290
     1
176
     1
290
     0
176
     1
290
     0
176
     1
290
     0
176
     1
290
     0
176
     1
290
     0
176
     1
290
     0
176
     1
 90
       50
176
     1
 40
0.0
176
     1
 40
1.0
176
     1
 90
        0
176
     1
 62
    18
420
        0
176
     1
 90
       50
176
     1
 90
        3
176
     1
 62
     5
420
      255
176
     1
290
     0
176
     1
 90
       50
176
     1
 90
       50
176
     1
 90
       50
176
     1
290
     0
176
     1
 90
       50
176
     1
 62
   256
176
     0
 40
1.0
176
     0
 90
        2
176
     1
  1
strokes_ogs.tif
176
     1
290
     0
176
     1
 40
1.0
176
     1
 40
1.0
176
     1
  0
VISUALSTYLE
  5
40
102
{ACAD_REACTORS
330
29
102
}
330
29
100
AcDbVisualStyle
  2
OverhangOff
 70
    21
177
     3
291
     1
 70
    58
 90
        2
176
     0
 90
        2
176
     0
 90
        0
176
     0
 90
        0
176
     0
 40
0.6
176
     0
 40
30.0
176
     0
 62
     7
420
 16777215
176
     0
 90
        1
176
     0
 90
        4
176
     0
 62
     7
176
     0
 62
   257
176
     0
 90
        1
176
     0
 90
        1
176
     0
 40
1.0
176
     0
 90
        9
176
     2
 62
     7
176
     0
 40
1.0
176
     0
 90
        1
176
     0
 90
        6
176
     0
 90
        2
176
     0
 62
     7
176
     0
 90
        5
176
     0
 90
        0
176
     0
 90
        0
176
     0
290
     0
176
     0
 90
        1
176
     0
 40
0.0
176
     0
 90
        0
176
     0
290
     0
176
     0
290
     1
176
     0
290
     1
176
     0
290
     0
176
     0
290
     0
176
     0
290
     0
176
     0
290
     0
176
     0
290
     0
176
     0
290
     0
176
     0
 90
       50
176
     0
 40
0.0
176
     0
 40
1.0
176
     0
 90
        0
176
     0
 62
    18
420
        0
176
     0
 90
       50
176
     0
 90
        3
176
     0
 62
     5
420
      255
176
     0
290
     0
176
     0
 90
       50
176
     0
 90
       50
176
     0
 90
       50
176
     0
290
     0
176
     0
 90
       50
176
     0
 62
   256
176
     0
 40
1.0
176
     0
 90
        2
176
     0
  1
strokes_ogs.tif
176
     0
290
     0
176
     0
 40
1.0
176
     0
 40
1.0
176
     0
  0
VISUALSTYLE
  5
33
102
{ACAD_REACTORS
330
29
102
}
330
29
100
AcDbVisualStyle
  2
Realistic
 70
     8
177
     3
291
     0
 70
    58
 90
        2
176
     1
 90
        3
176
     1
 90
        0
176
     1
 90
        2
176
     1
 40
0.6
176
     1
 40
30.0
176
     1
 62
     7
420
 16777215
176
     1
 90
        0
176
     1
 90
        0
176
     1
 62
     7
176
     1
 62
   257
176
     1
 90
        1
176
     1
 90
        1
176
     1
 40
1.0
176
     1
 90
        8
176
     1
 62
   257
176
     1
 40
1.0
176
     1
 90
        1
176
     1
 90
        6
176
     1
 90
        2
176
     1
 62
     7
176
     1
 90
        3
176
     1
 90
        0
176
     1
 90
        0
176
     1
290
     0
176
     1
 90
       13
176
     1
 40
0.0
176
     1
 90
        0
176
     1
290
     0
176
     1
290
     1
176
     1
290
     1
176
     1
290
     0
176
     1
290
     0
176
     1
290
     0
176
     1
290
     0
176
     1
290
     0
176
     1
290
     0
176
     1
 90
       50
176
     1
 40
0.0
176
     1
 40
1.0
176
     1
 90
        0
176
     1
 62
    18
420
        0
176
     1
 90
       50
176
     1
 90
        3
176
     1
 62
     5
420
      255
176
     1
290
     0
176
     1
 90
       50
176
     1
 90
       50
176
     1
 90
       50
176
     1
290
     0
176
     1
 90
       50
176
     1
 62
   256
176
     0
 40
1.0
176
     0
 90
        2
176
     1
  1
strokes_ogs.tif
176
     1
290
     0
176
     1
 40
1.0
176
     1
 40
1.0
176
     1
  0
VISUALSTYLE
  5
3E
102
{ACAD_REACTORS
330
29
102
}
330
29
100
AcDbVisualStyle
  2
Shaded
 70
    27
177
     3
291
     0
 70
    58
 90
        2
176
     1
 90
        2
176
     1
 90
        1
176
     1
 90
        2
176
     1
 40
0.6
176
     1
 40
30.0
176
     1
 62
     7
420
 16777215
176
     1
 90
        0
176
     1
 90
        4
176
     1
 62
     7
176
     1
 62
   257
176
     1
 90
        1
176
     1
 90
        1
176
     1
 40
1.0
176
     1
 90
        8
176
     1
 62
   257
176
     1
 40
1.0
176
     1
 90
        1
176
     1
 90
        6
176
     1
 90
        2
176
     1
 62
     8
420
  7895160
176
     1
 90
        3
176
     1
 90
        0
176
     1
 90
        0
176
     1
290
     0
176
     1
 90
        5
176
     1
 40
0.0
176
     1
 90
        0
176
     1
290
     0
176
     1
290
     1
176
     1
290
     1
176
     1
290
     0
176
     1
290
     0
176
     1
290
     0
176
     1
290
     0
176
     1
290
     0
176
     1
290
     0
176
     1
 90
       50
176
     1
 40
0.0
176
     1
 40
1.0
176
     1
 90
        0
176
     1
 62
    18
420
        0
176
     1
 90
       50
176
     1
 90
        3
176
     1
 62
     5
420
      255
176
     1
290
     0
176
     1
 90
       50
176
     1
 90
       50
176
     1
 90
       50
176
     1
290
     0
176
     1
 90
       50
176
     1
 62
   256
176
     0
 40
1.0
176
     0
 90
        2
176
     1
  1
strokes_ogs.tif
176
     1
290
     0
176
     1
 40
1.0
176
     1
 40
1.0
176
     1
  0
VISUALSTYLE
  5
3D
102
{ACAD_REACTORS
330
29
102
}
330
29
100
AcDbVisualStyle
  2
Shaded with edges
 70
    26
177
     3
291
     0
 70
    58
 90
        2
176
     1
 90
        2
176
     1
 90
        1
176
     1
 90
        2
176
     1
 40
0.6
176
     1
 40
30.0
176
     1
 62
     7
420
 16777215
176
     1
 90
        1
176
     1
 90
        2
176
     1
 62
     7
176
     1
 62
   257
176
     1
 90
        2
176
     1
 90
        1
176
     1
 40
1.0
176
     1
 90
        8
176
     1
 62
   257
176
     1
 40
1.0
176
     1
 90
        1
176
     1
 90
        6
176
     1
 90
        2
176
     1
 62
     7
176
     1
 90
        3
176
     1
 90
        0
176
     1
 90
        0
176
     1
290
     0
176
     1
 90
        5
176
     1
 40
0.0
176
     1
 90
        0
176
     1
290
     0
176
     1
290
     1
176
     1
290
     1
176
     1
290
     0
176
     1
290
     0
176
     1
290
     0
176
     1
290
     0
176
     1
290
     0
176
     1
290
     0
176
     1
 90
       50
176
     1
 40
0.0
176
     1
 40
1.0
176
     1
 90
        0
176
     1
 62
    18
420
        0
176
     1
 90
       50
176
     1
 90
        3
176
     1
 62
     5
420
      255
176
     1
290
     0
176
     1
 90
       50
176
     1
 90
       50
176
     1
 90
       50
176
     1
290
     0
176
     1
 90
       50
176
     1
 62
   256
176
     0
 40
1.0
176
     0
 90
        2
176
     1
  1
strokes_ogs.tif
176
     1
290
     0
176
     1
 40
1.0
176
     1
 40
1.0
176
     1
  0
VISUALSTYLE
  5
3A
102
{ACAD_REACTORS
330
29
102
}
330
29
100
AcDbVisualStyle
  2
Shades of Gray
 70
    23
177
     3
291
     0
 70
    58
 90
        2
176
     1
 90
        2
176
     1
 90
        3
176
     1
 90
        0
176
     1
 40
0.6
176
     1
 40
30.0
176
     1
 62
     7
420
 16777215
176
     1
 90
        2
176
     1
 90
        2
176
     1
 62
     7
176
     1
 62
     7
176
     1
 90
        1
176
     1
 90
        1
176
     1
 40
40.0
176
     1
 90
        8
176
     1
 62
     7
176
     1
 40
1.0
176
     1
 90
        1
176
     1
 90
        6
176
     1
 90
        2
176
     1
 62
     7
176
     1
 90
        3
176
     1
 90
        0
176
     1
 90
        0
176
     1
290
     0
176
     1
 90
        1
176
     1
 40
0.0
176
     1
 90
        0
176
     1
290
     0
176
     1
290
     1
176
     1
290
     1
176
     1
290
     0
176
     1
290
     0
176
     1
290
     0
176
     1
290
     0
176
     1
290
     0
176
     1
290
     0
176
     1
 90
       50
176
     1
 40
0.0
176
     1
 40
1.0
176
     1
 90
        0
176
     1
 62
    18
420
        0
176
     1
 90
       50
176
     1
 90
        3
176
     1
 62
     5
420
      255
176
     1
290
     0
176
     1
 90
       50
176
     1
 90
       50
176
     1
 90
       50
176
     1
290
     0
176
     1
 90
       50
176
     1
 62
   256
176
     0
 40
1.0
176
     0
 90
        2
176
     1
  1
strokes_ogs.tif
176
     1
290
     0
176
     1
 40
1.0
176
     1
 40
1.0
176
     1
  0
VISUALSTYLE
  5
3B
102
{ACAD_REACTORS
330
29
102
}
330
29
100
AcDbVisualStyle
  2
Sketchy
 70
    24
177
     3
291
     0
 70
    58
 90
        1
176
     1
 90
        2
176
     1
 90
        2
176
     1
 90
        0
176
     1
 40
0.6
176
     1
 40
30.0
176
     1
 62
     7
420
 16777215
176
     1
 90
        2
176
     1
 90
        2
176
     1
 62
     7
176
     1
 62
     7
176
     1
 90
        1
176
     1
 90
        1
176
     1
 40
40.0
176
     1
 90
       11
176
     1
 62
     7
176
     1
 40
1.0
176
     1
 90
        1
176
     1
 90
        6
176
     1
 90
        2
176
     1
 62
     7
176
     1
 90
        6
176
     1
 90
        0
176
     1
 90
        0
176
     1
290
     0
176
     1
 90
        1
176
     1
 40
0.0
176
     1
 90
        0
176
     1
290
     0
176
     1
290
     1
176
     1
290
     1
176
     1
290
     0
176
     1
290
     0
176
     1
290
     0
176
     1
290
     0
176
     1
290
     0
176
     1
290
     0
176
     1
 90
       50
176
     1
 40
0.0
176
     1
 40
1.0
176
     1
 90
        0
176
     1
 62
    18
420
        0
176
     1
 90
       50
176
     1
 90
        3
176
     1
 62
     5
420
      255
176
     1
290
     0
176
     1
 90
       50
176
     1
 90
       50
176
     1
 90
       50
176
     1
290
     0
176
     1
 90
       50
176
     1
 62
   256
176
     0
 40
1.0
176
     0
 90
        2
176
     1
  1
strokes_ogs.tif
176
     1
290
     0
176
     1
 40
1.0
176
     1
 40
1.0
176
     1
  0
VISUALSTYLE
  5
36
102
{ACAD_REACTORS
330
29
102
}
330
29
100
AcDbVisualStyle
  2
Thicken
 70
    13
177
     3
291
     1
 70
    58
 90
        2
176
     1
 90
        2
176
     1
 90
        0
176
     1
 90
        0
176
     1
 40
0.6
176
     1
 40
30.0
176
     1
 62
     7
420
 16777215
176
     1
 90
        1
176
     1
 90
        4
176
     1
 62
     7
176
     1
 62
   257
176
     1
 90
        1
176
     1
 90
        1
176
     1
 40
1.0
176
     1
 90
       12
176
     1
 62
     7
176
     1
 40
1.0
176
     1
 90
        1
176
     1
 90
        6
176
     1
 90
        2
176
     1
 62
     7
176
     1
 90
        5
176
     1
 90
        0
176
     1
 90
        0
176
     1
290
     0
176
     1
 90
        1
176
     1
 40
0.0
176
     1
 90
        0
176
     1
290
     0
176
     1
290
     1
176
     1
290
     1
176
     1
290
     0
176
     1
290
     0
176
     1
290
     0
176
     1
290
     0
176
     1
290
     0
176
     1
290
     0
176
     1
 90
       50
176
     1
 40
0.0
176
     1
 40
1.0
176
     1
 90
        0
176
     1
 62
    18
420
        0
176
     1
 90
       50
176
     1
 90
        3
176
     1
 62
     5
420
      255
176
     1
290
     0
176
     1
 90
       50
176
     1
 90
       50
176
     1
 90
       50
176
     1
290
     0
176
     1
 90
       50
176
     1
 62
   256
176
     0
 40
1.0
176
     0
 90
        2
176
     1
  1
strokes_ogs.tif
176
     1
290
     0
176
     1
 40
1.0
176
     1
 40
1.0
176
     1
  0
VISUALSTYLE
  5
30
102
{ACAD_REACTORS
330
29
102
}
330
29
100
AcDbVisualStyle
  2
Wireframe
 70
     5
177
     3
291
     0
 70
    58
 90
        0
176
     1
 90
        2
176
     1
 90
        0
176
     1
 90
        0
176
     1
 40
0.6
176
     1
 40
30.0
176
     1
 62
     7
420
 16777215
176
     1
 90
        1
176
     1
 90
        4
176
     1
 62
     7
176
     1
 62
   257
176
     1
 90
        1
176
     1
 90
        1
176
     1
 40
1.0
176
     1
 90
        0
176
     1
 62
   257
176
     1
 40
1.0
176
     1
 90
        1
176
     1
 90
        6
176
     1
 90
        2
176
     1
 62
     7
176
     1
 90
        3
176
     1
 90
        0
176
     1
 90
        0
176
     1
290
     0
176
     1
 90
        1
176
     1
 40
0.0
176
     1
 90
        0
176
     1
290
     0
176
     1
290
     1
176
     1
290
     1
176
     1
290
     0
176
     1
290
     0
176
     1
290
     0
176
     1
290
     0
176
     1
290
     0
176
     1
290
     0
176
     1
 90
       50
176
     1
 40
0.0
176
     1
 40
1.0
176
     1
 90
        0
176
     1
 62
    18
420
        0
176
     1
 90
       50
176
     1
 90
        3
176
     1
 62
     5
420
      255
176
     1
290
     0
176
     1
 90
       50
176
     1
 90
       50
176
     1
 90
       50
176
     1
290
     0
176
     1
 90
       50
176
     1
 62
   256
176
     0
 40
1.0
176
     0
 90
        2
176
     1
  1
strokes_ogs.tif
176
     1
290
     0
176
     1
 40
1.0
176
     1
 40
1.0
176
     1
  0
VISUALSTYLE
  5
3C
102
{ACAD_REACTORS
330
29
102
}
330
29
100
AcDbVisualStyle
  2
X-Ray
 70
    25
177
     3
291
     0
 70
    58
 90
        2
176
     1
 90
        2
176
     1
 90
        1
176
     1
 90
        1
176
     1
 40
0.5
176
     1
 40
30.0
176
     1
 62
     7
420
 16777215
176
     1
 90
        1
176
     1
 90
        0
176
     1
 62
     7
176
     1
 62
   257
176
     1
 90
        1
176
     1
 90
        1
176
     1
 40
1.0
176
     1
 90
        8
176
     1
 62
     7
176
     1
 40
1.0
176
     1
 90
        1
176
     1
 90
        6
176
     1
 90
        2
176
     1
 62
     7
176
     1
 90
        3
176
     1
 90
        0
176
     1
 90
        0
176
     1
290
     0
176
     1
 90
       13
176
     1
 40
0.0
176
     1
 90
        0
176
     1
290
     0
176
     1
290
     1
176
     1
290
     1
176
     1
290
     0
176
     1
290
     0
176
     1
290
     0
176
     1
290
     0
176
     1
290
     0
176
     1
290
     0
176
     1
 90
       50
176
     1
 40
0.0
176
     1
 40
1.0
176
     1
 90
        0
176
     1
 62
    18
420
        0
176
     1
 90
       50
176
     1
 90
        3
176
     1
 62
     5
420
      255
176
     1
290
     0
176
     1
 90
       50
176
     1
 90
       50
176
     1
 90
       50
176
     1
290
     0
176
     1
 90
       50
176
     1
 62
   256
176
     0
 40
1.0
176
     0
 90
        2
176
     1
  1
strokes_ogs.tif
176
     1
290
     0
176
     1
 40
1.0
176
     1
 40
1.0
176
     1
  0
DICTIONARYVAR
  5
E6
102
{ACAD_REACTORS
330
E1
102
}
330
E1
100
DictionaryVariables
280
     0
  1
1:1
  0
DICTIONARYVAR
  5
E3
102
{ACAD_REACTORS
330
E1
102
}
330
E1
100
DictionaryVariables
280
     0
  1
STANDARD
  0
DICTIONARYVAR
  5
E2
102
{ACAD_REACTORS
330
E1
102
}
330
E1
100
DictionaryVariables
280
     0
  1
STANDARD
  0
DICTIONARYVAR
  5
E4
102
{ACAD_REACTORS
330
E1
102
}
330
E1
100
DictionaryVariables
280
     0
  1
Imperial24
  0
DICTIONARYVAR
  5
E5
102
{ACAD_REACTORS
330
E1
102
}
330
E1
100
DictionaryVariables
280
     0
  1
Imperial24
  0
DICTIONARY
  5
1A
330
19
100
AcDbDictionary
280
     1
281
     1
  3
BUMPTILE
360
1C
  3
DIFFUSETILE
360
1B
  3
OPACITYTILE
360
1F
  3
REFLECTIONTILE
360
1E
  3
REFRACTIONTILE
360
20
  3
SPECULARTILE
360
1D
  0
DICTIONARY
  5
12
330
11
100
AcDbDictionary
280
     1
281
     1
  3
BUMPTILE
360
14
  3
DIFFUSETILE
360
13
  3
OPACITYTILE
360
17
  3
REFLECTIONTILE
360
16
  3
REFRACTIONTILE
360
18
  3
SPECULARTILE
360
15
  0
DICTIONARY
  5
22
330
21
100
AcDbDictionary
280
     1
281
     1
  3
BUMPTILE
360
24
  3
DIFFUSETILE
360
23
  3
OPACITYTILE
360
27
  3
REFLECTIONTILE
360
26
  3
REFRACTIONTILE
360
28
  3
SPECULARTILE
360
25
  0
DICTIONARY
  5
E7
330
65
100
AcDbDictionary
280
     1
281
     1
  3
ACAD_ROUNDTRIP_2008_TABLESTYLE_CELLSTYLEMAP
360
E8
  0
XRECORD
  5
1C
102
{ACAD_REACTORS
330
1A
102
}
330
1A
100
AcDbXrecord
280
     1
270
     1
271
     1
  0
XRECORD
  5
1B
102
{ACAD_REACTORS
330
1A
102
}
330
1A
100
AcDbXrecord
280
     1
270
     1
271
     1
  0
XRECORD
  5
1F
102
{ACAD_REACTORS
330
1A
102
}
330
1A
100
AcDbXrecord
280
     1
270
     1
271
     1
  0
XRECORD
  5
1E
102
{ACAD_REACTORS
330
1A
102
}
330
1A
100
AcDbXrecord
280
     1
270
     1
271
     1
  0
XRECORD
  5
20
102
{ACAD_REACTORS
330
1A
102
}
330
1A
100
AcDbXrecord
280
     1
270
     1
271
     1
  0
XRECORD
  5
1D
102
{ACAD_REACTORS
330
1A
102
}
330
1A
100
AcDbXrecord
280
     1
270
     1
271
     1
  0
XRECORD
  5
14
102
{ACAD_REACTORS
330
12
102
}
330
12
100
AcDbXrecord
280
     1
270
     1
271
     1
  0
XRECORD
  5
13
102
{ACAD_REACTORS
330
12
102
}
330
12
100
AcDbXrecord
280
     1
270
     1
271
     1
  0
XRECORD
  5
17
102
{ACAD_REACTORS
330
12
102
}
330
12
100
AcDbXrecord
280
     1
270
     1
271
     1
  0
XRECORD
  5
16
102
{ACAD_REACTORS
330
12
102
}
330
12
100
AcDbXrecord
280
     1
270
     1
271
     1
  0
XRECORD
  5
18
102
{ACAD_REACTORS
330
12
102
}
330
12
100
AcDbXrecord
280
     1
270
     1
271
     1
  0
XRECORD
  5
15
102
{ACAD_REACTORS
330
12
102
}
330
12
100
AcDbXrecord
280
     1
270
     1
271
     1
  0
XRECORD
  5
24
102
{ACAD_REACTORS
330
22
102
}
330
22
100
AcDbXrecord
280
     1
270
     1
271
     1
  0
XRECORD
  5
23
102
{ACAD_REACTORS
330
22
102
}
330
22
100
AcDbXrecord
280
     1
270
     1
271
     1
  0
XRECORD
  5
27
102
{ACAD_REACTORS
330
22
102
}
330
22
100
AcDbXrecord
280
     1
270
     1
271
     1
  0
XRECORD
  5
26
102
{ACAD_REACTORS
330
22
102
}
330
22
100
AcDbXrecord
280
     1
270
     1
271
     1
  0
XRECORD
  5
28
102
{ACAD_REACTORS
330
22
102
}
330
22
100
AcDbXrecord
280
     1
270
     1
271
     1
  0
XRECORD
  5
25
102
{ACAD_REACTORS
330
22
102
}
330
22
100
AcDbXrecord
280
     1
270
     1
271
     1
  0
CELLSTYLEMAP
  5
E8
102
{ACAD_REACTORS
330
E7
102
}
330
E7
100
AcDbCellStyleMap
 90
        3
300
CELLSTYLE
  1
TABLEFORMAT_BEGIN
 90
        5
170
     1
 91
        0
 92
    32768
 62
   257
 93
        1
300
CONTENTFORMAT
  1
CONTENTFORMAT_BEGIN
 90
        0
 91
        0
 92
      512
 93
        0
300

 40
0.0
140
1.0
 94
        5
 62
     0
340
55
144
0.25
309
CONTENTFORMAT_END
171
     0
 94
        0
309
TABLEFORMAT_END
  1
CELLSTYLE_BEGIN
 90
        1
 91
        1
300
_TITLE
309
CELLSTYLE_END
300
CELLSTYLE
  1
TABLEFORMAT_BEGIN
 90
        5
170
     1
 91
        0
 92
        0
 62
   257
 93
        1
300
CONTENTFORMAT
  1
CONTENTFORMAT_BEGIN
 90
        0
 91
        0
 92
      512
 93
        0
300

 40
0.0
140
1.0
 94
        5
 62
     0
340
55
144
0.18
309
CONTENTFORMAT_END
171
     0
 94
        0
309
TABLEFORMAT_END
  1
CELLSTYLE_BEGIN
 90
        2
 91
        1
300
_HEADER
309
CELLSTYLE_END
300
CELLSTYLE
  1
TABLEFORMAT_BEGIN
 90
        5
170
     1
 91
        0
 92
        0
 62
   257
 93
        1
300
CONTENTFORMAT
  1
CONTENTFORMAT_BEGIN
 90
        0
 91
        0
 92
      512
 93
        0
300

 40
0.0
140
1.0
 94
        2
 62
     0
340
55
144
0.18
309
CONTENTFORMAT_END
171
     0
 94
        0
309
TABLEFORMAT_END
  1
CELLSTYLE_BEGIN
 90
        3
 91
        2
300
_DATA
309
CELLSTYLE_END
  0
ENDSEC
  0
EOF
