  0
SECTION
  2
HEADER
  9
$ACADVER
  1
AC1032
  9
$ACADMAINTVER
 90
      329
  9
$DWGCODEPAGE
  3
ANSI_936
  9
$REQUIREDVERSIONS
160
                 0
  9
$INSBASE
 10
0.0
 20
0.0
 30
0.0
  9
$EXTMIN
 10
1.000000000000000E+20
 20
1.000000000000000E+20
 30
1.000000000000000E+20
  9
$EXTMAX
 10
-1.000000000000000E+20
 20
-1.000000000000000E+20
 30
-1.000000000000000E+20
  9
$LIMMIN
 10
0.0
 20
0.0
  9
$LIMMAX
 10
12.0
 20
9.0
  9
$ORTHOMODE
 70
     0
  9
$REGENMODE
 70
     1
  9
$FILLMODE
 70
     1
  9
$QTEXTMODE
 70
     0
  9
$MIRRTEXT
 70
     0
  9
$LTSCALE
 40
1.0
  9
$ATTMODE
 70
     1
  9
$TEXTSIZE
 40
0.2
  9
$TRACEWID
 40
0.05
  9
$TEXTSTYLE
  7
Standard
  9
$CLAYER
  8
0
  9
$CELTYPE
  6
ByLayer
  9
$CECOLOR
 62
   256
  9
$CELTSCALE
 40
1.0
  9
$DISPSILH
 70
     0
  9
$DIMSCALE
 40
1.0
  9
$DIMASZ
 40
0.18
  9
$DIMEXO
 40
0.0625
  9
$DIMDLI
 40
0.38
  9
$DIMRND
 40
0.0
  9
$DIMDLE
 40
0.0
  9
$DIMEXE
 40
0.18
  9
$DIMTP
 40
0.0
  9
$DIMTM
 40
0.0
  9
$DIMTXT
 40
0.18
  9
$DIMCEN
 40
0.09
  9
$DIMTSZ
 40
0.0
  9
$DIMTOL
 70
     0
  9
$DIMLIM
 70
     0
  9
$DIMTIH
 70
     1
  9
$DIMTOH
 70
     1
  9
$DIMSE1
 70
     0
  9
$DIMSE2
 70
     0
  9
$DIMTAD
 70
     0
  9
$DIMZIN
 70
     0
  9
$DIMBLK
  1

  9
$DIMASO
 70
     1
  9
$DIMSHO
 70
     1
  9
$DIMPOST
  1

  9
$DIMAPOST
  1

  9
$DIMALT
 70
     0
  9
$DIMALTD
 70
     2
  9
$DIMALTF
 40
25.4
  9
$DIMLFAC
 40
1.0
  9
$DIMTOFL
 70
     0
  9
$DIMTVP
 40
0.0
  9
$DIMTIX
 70
     0
  9
$DIMSOXD
 70
     0
  9
$DIMSAH
 70
     0
  9
$DIMBLK1
  1

  9
$DIMBLK2
  1

  9
$DIMSTYLE
  2
Standard
  9
$DIMCLRD
 70
     0
  9
$DIMCLRE
 70
     0
  9
$DIMCLRT
 70
     0
  9
$DIMTFAC
 40
1.0
  9
$DIMGAP
 40
0.09
  9
$DIMJUST
 70
     0
  9
$DIMSD1
 70
     0
  9
$DIMSD2
 70
     0
  9
$DIMTOLJ
 70
     1
  9
$DIMTZIN
 70
     0
  9
$DIMALTZ
 70
     0
  9
$DIMALTTZ
 70
     0
  9
$DIMUPT
 70
     0
  9
$DIMDEC
 70
     4
  9
$DIMTDEC
 70
     4
  9
$DIMALTU
 70
     2
  9
$DIMALTTD
 70
     2
  9
$DIMTXSTY
  7
Standard
  9
$DIMAUNIT
 70
     0
  9
$DIMADEC
 70
     0
  9
$DIMALTRND
 40
0.0
  9
$DIMAZIN
 70
     0
  9
$DIMDSEP
 70
    46
  9
$DIMATFIT
 70
     3
  9
$DIMFRAC
 70
     0
  9
$DIMLDRBLK
  1

  9
$DIMLUNIT
 70
     2
  9
$DIMLWD
 70
    -2
  9
$DIMLWE
 70
    -2
  9
$DIMTMOVE
 70
     0
  9
$DIMFXL
 40
1.0
  9
$DIMFXLON
 70
     0
  9
$DIMJOGANG
 40
0.7853981633974483
  9
$DIMTFILL
 70
     0
  9
$DIMTFILLCLR
 70
     0
  9
$DIMARCSYM
 70
     0
  9
$DIMLTYPE
  6

  9
$DIMLTEX1
  6

  9
$DIMLTEX2
  6

  9
$DIMTXTDIRECTION
 70
     0
  9
$LUNITS
 70
     2
  9
$LUPREC
 70
     4
  9
$SKETCHINC
 40
0.1
  9
$FILLETRAD
 40
0.0
  9
$AUNITS
 70
     0
  9
$AUPREC
 70
     0
  9
$MENU
  1
.
  9
$ELEVATION
 40
0.0
  9
$PELEVATION
 40
0.0
  9
$THICKNESS
 40
0.0
  9
$LIMCHECK
 70
     0
  9
$CHAMFERA
 40
0.0
  9
$CHAMFERB
 40
0.0
  9
$CHAMFERC
 40
0.0
  9
$CHAMFERD
 40
0.0
  9
$SKPOLY
 70
     0
  9
$TDCREATE
 40
2460931.821412037
  9
$TDUCREATE
 40
2460931.488078704
  9
$TDUPDATE
 40
2460931.821412037
  9
$TDUUPDATE
 40
2460931.488078704
  9
$TDINDWG
 40
0.0000115741
  9
$TDUSRTIMER
 40
0.0000115741
  9
$USRTIMER
 70
     1
  9
$ANGBASE
 50
0.0
  9
$ANGDIR
 70
     0
  9
$PDMODE
 70
     0
  9
$PDSIZE
 40
0.0
  9
$PLINEWID
 40
0.0
  9
$SPLFRAME
 70
     0
  9
$SPLINETYPE
 70
     6
  9
$SPLINESEGS
 70
     8
  9
$HANDSEED
  5
CE
  9
$SURFTAB1
 70
     6
  9
$SURFTAB2
 70
     6
  9
$SURFTYPE
 70
     6
  9
$SURFU
 70
     6
  9
$SURFV
 70
     6
  9
$UCSBASE
  2

  9
$UCSNAME
  2

  9
$UCSORG
 10
0.0
 20
0.0
 30
0.0
  9
$UCSXDIR
 10
1.0
 20
0.0
 30
0.0
  9
$UCSYDIR
 10
0.0
 20
1.0
 30
0.0
  9
$UCSORTHOREF
  2

  9
$UCSORTHOVIEW
 70
     0
  9
$UCSORGTOP
 10
0.0
 20
0.0
 30
0.0
  9
$UCSORGBOTTOM
 10
0.0
 20
0.0
 30
0.0
  9
$UCSORGLEFT
 10
0.0
 20
0.0
 30
0.0
  9
$UCSORGRIGHT
 10
0.0
 20
0.0
 30
0.0
  9
$UCSORGFRONT
 10
0.0
 20
0.0
 30
0.0
  9
$UCSORGBACK
 10
0.0
 20
0.0
 30
0.0
  9
$PUCSBASE
  2

  9
$PUCSNAME
  2

  9
$PUCSORG
 10
0.0
 20
0.0
 30
0.0
  9
$PUCSXDIR
 10
1.0
 20
0.0
 30
0.0
  9
$PUCSYDIR
 10
0.0
 20
1.0
 30
0.0
  9
$PUCSORTHOREF
  2

  9
$PUCSORTHOVIEW
 70
     0
  9
$PUCSORGTOP
 10
0.0
 20
0.0
 30
0.0
  9
$PUCSORGBOTTOM
 10
0.0
 20
0.0
 30
0.0
  9
$PUCSORGLEFT
 10
0.0
 20
0.0
 30
0.0
  9
$PUCSORGRIGHT
 10
0.0
 20
0.0
 30
0.0
  9
$PUCSORGFRONT
 10
0.0
 20
0.0
 30
0.0
  9
$PUCSORGBACK
 10
0.0
 20
0.0
 30
0.0
  9
$USERI1
 70
     0
  9
$USERI2
 70
     0
  9
$USERI3
 70
     0
  9
$USERI4
 70
     0
  9
$USERI5
 70
     0
  9
$USERR1
 40
0.0
  9
$USERR2
 40
0.0
  9
$USERR3
 40
0.0
  9
$USERR4
 40
0.0
  9
$USERR5
 40
0.0
  9
$WORLDVIEW
 70
     1
  9
$SHADEDGE
 70
     3
  9
$SHADEDIF
 70
    70
  9
$TILEMODE
 70
     1
  9
$MAXACTVP
 70
    64
  9
$PINSBASE
 10
0.0
 20
0.0
 30
0.0
  9
$PLIMCHECK
 70
     0
  9
$PEXTMIN
 10
1.000000000000000E+20
 20
1.000000000000000E+20
 30
1.000000000000000E+20
  9
$PEXTMAX
 10
-1.000000000000000E+20
 20
-1.000000000000000E+20
 30
-1.000000000000000E+20
  9
$PLIMMIN
 10
0.0
 20
0.0
  9
$PLIMMAX
 10
12.0
 20
9.0
  9
$UNITMODE
 70
     0
  9
$VISRETAIN
 70
     1
  9
$PLINEGEN
 70
     0
  9
$PSLTSCALE
 70
     1
  9
$TREEDEPTH
 70
  3020
  9
$CMLSTYLE
  2
Standard
  9
$CMLJUST
 70
     0
  9
$CMLSCALE
 40
1.0
  9
$PROXYGRAPHICS
 70
     1
  9
$MEASUREMENT
 70
     0
  9
$CELWEIGHT
370
    -1
  9
$ENDCAPS
280
     0
  9
$JOINSTYLE
280
     0
  9
$LWDISPLAY
290
     1
  9
$INSUNITS
 70
     4
  9
$HYPERLINKBASE
  1

  9
$STYLESHEET
  1

  9
$XEDIT
290
     1
  9
$CEPSNTYPE
380
     0
  9
$PSTYLEMODE
290
     1
  9
$FINGERPRINTGUID
  2
{820A3366-0CE6-A240-9DA8-8C2E89D6908F}
  9
$VERSIONGUID
  2
{67830E0F-BBFD-5947-9C8A-2BB64F3460D8}
  9
$EXTNAMES
290
     1
  9
$PSVPSCALE
 40
0.0
  9
$OLESTARTUP
290
     0
  9
$SORTENTS
280
   127
  9
$INDEXCTL
280
     0
  9
$HIDETEXT
280
     1
  9
$XCLIPFRAME
280
     2
  9
$HALOGAP
280
     0
  9
$OBSCOLOR
 70
   257
  9
$OBSLTYPE
280
     0
  9
$INTERSECTIONDISPLAY
280
     0
  9
$INTERSECTIONCOLOR
 70
   257
  9
$DIMASSOC
280
     2
  9
$PROJECTNAME
  1

  9
$CAMERADISPLAY
290
     0
  9
$LENSLENGTH
 40
50.0
  9
$CAMERAHEIGHT
 40
0.0
  9
$STEPSPERSEC
 40
2.0
  9
$STEPSIZE
 40
6.0
  9
$3DDWFPREC
 40
2.0
  9
$PSOLWIDTH
 40
0.25
  9
$PSOLHEIGHT
 40
4.0
  9
$LOFTANG1
 40
1.570796326794896
  9
$LOFTANG2
 40
1.570796326794896
  9
$LOFTMAG1
 40
0.0
  9
$LOFTMAG2
 40
0.0
  9
$LOFTPARAM
 70
     7
  9
$LOFTNORMALS
280
     1
  9
$LATITUDE
 40
37.795
  9
$LONGITUDE
 40
-122.394
  9
$NORTHDIRECTION
 40
0.0
  9
$TIMEZONE
 70
 -8000
  9
$LIGHTGLYPHDISPLAY
280
     1
  9
$TILEMODELIGHTSYNCH
280
     1
  9
$CMATERIAL
347
11
  9
$SOLIDHIST
280
     0
  9
$SHOWHIST
280
     1
  9
$DWFFRAME
280
     2
  9
$DGNFRAME
280
     0
  9
$REALWORLDSCALE
290
     1
  9
$INTERFERECOLOR
 62
     1
  9
$INTERFEREOBJVS
345
33
  9
$INTERFEREVPVS
346
30
  9
$CSHADOW
280
     0
  9
$SHADOWPLANELOCATION
 40
0.0
  0
ENDSEC
  0
SECTION
  2
CLASSES
  0
CLASS
  1
ACDBDICTIONARYWDFLT
  2
AcDbDictionaryWithDefault
  3
ObjectDBX Classes
 90
        0
 91
        1
280
     0
281
     0
  0
CLASS
  1
MATERIAL
  2
AcDbMaterial
  3
ObjectDBX Classes
 90
     1153
 91
        3
280
     0
281
     0
  0
CLASS
  1
VISUALSTYLE
  2
AcDbVisualStyle
  3
ObjectDBX Classes
 90
     4095
 91
       24
280
     0
281
     0
  0
CLASS
  1
SCALE
  2
AcDbScale
  3
ObjectDBX Classes
 90
     1153
 91
       17
280
     0
281
     0
  0
CLASS
  1
TABLESTYLE
  2
AcDbTableStyle
  3
ObjectDBX Classes
 90
     4095
 91
        1
280
     0
281
     0
  0
CLASS
  1
MLEADERSTYLE
  2
AcDbMLeaderStyle
  3
ACDB_MLEADERSTYLE_CLASS
 90
     4095
 91
        1
280
     0
281
     0
  0
CLASS
  1
ACDBSECTIONVIEWSTYLE
  2
AcDbSectionViewStyle
  3
ObjectDBX Classes
 90
     1025
 91
        1
280
     0
281
     0
  0
CLASS
  1
ACDBDETAILVIEWSTYLE
  2
AcDbDetailViewStyle
  3
ObjectDBX Classes
 90
     1025
 91
        1
280
     0
281
     0
  0
CLASS
  1
DICTIONARYVAR
  2
AcDbDictionaryVar
  3
ObjectDBX Classes
 90
        0
 91
        5
280
     0
281
     0
  0
CLASS
  1
CELLSTYLEMAP
  2
AcDbCellStyleMap
  3
ObjectDBX Classes
 90
     1152
 91
        1
280
     0
281
     0
  0
ENDSEC
  0
SECTION
  2
TABLES
  0
TABLE
  2
VPORT
  5
8
330
0
100
AcDbSymbolTable
 70
     1
  0
VPORT
  5
57
330
8
100
AcDbSymbolTableRecord
100
AcDbViewportTableRecord
  2
*Active
 70
     0
 10
0.0
 20
0.0
 11
1.0
 21
1.0
 12
0.0
 22
0.0
 13
0.0
 23
0.0
 14
1.0
 24
1.0
 15
0.0
 25
0.0
 16
0.0
 26
0.0
 36
1.0
 17
500.0000144556216
 27
500.0000144556216
 37
0.0
 40
1020.000029489468
 41
1.0
 42
50.0
 43
0.0
 44
0.0
 50
0.0
 51
0.0
 71
     0
 72
   100
 73
     1
 74
     1
 75
     0
 76
     0
 77
     0
 78
     0
281
     0
 65
     1
110
0.0
120
0.0
130
0.0
111
1.0
121
0.0
131
0.0
112
0.0
122
1.0
132
0.0
 79
     0
146
0.0
 60
     3
 61
     5
292
     1
282
     1
141
0.0
142
0.0
 63
   250
421
  3355443
  0
ENDTAB
  0
TABLE
  2
LTYPE
  5
5
330
0
100
AcDbSymbolTable
 70
     1
  0
LTYPE
  5
5B
330
5
100
AcDbSymbolTableRecord
100
AcDbLinetypeTableRecord
  2
ByBlock
 70
     0
  3

 72
    65
 73
     0
 40
0.0
  0
LTYPE
  5
5C
330
5
100
AcDbSymbolTableRecord
100
AcDbLinetypeTableRecord
  2
ByLayer
 70
     0
  3

 72
    65
 73
     0
 40
0.0
  0
LTYPE
  5
5D
330
5
100
AcDbSymbolTableRecord
100
AcDbLinetypeTableRecord
  2
Continuous
 70
     0
  3
Solid line
 72
    65
 73
     0
 40
0.0
  0
ENDTAB
  0
TABLE
  2
LAYER
  5
2
330
0
100
AcDbSymbolTable
 70
     2
  0
LAYER
  5
54
330
2
100
AcDbSymbolTableRecord
100
AcDbLayerTableRecord
  2
0
 70
     0
 62
     7
  6
Continuous
370
    -3
390
F
347
21
348
0
  0
LAYER
  5
78
330
2
100
AcDbSymbolTableRecord
100
AcDbLayerTableRecord
  2
图层 1
 70
     0
 62
     7
  6
Continuous
370
     0
390
F
347
21
348
0
  0
ENDTAB
  0
TABLE
  2
STYLE
  5
3
330
0
100
AcDbSymbolTable
 70
     2
  0
STYLE
  5
55
330
3
100
AcDbSymbolTableRecord
100
AcDbTextStyleTableRecord
  2
Standard
 70
     0
 40
0.0
 41
1.0
 50
0.0
 71
     0
 42
0.2
  3
txt
  4

  0
STYLE
  5
5A
330
3
100
AcDbSymbolTableRecord
100
AcDbTextStyleTableRecord
  2
Annotative
 70
     0
 40
0.0
 41
1.0
 50
0.0
 71
     0
 42
0.2
  3
txt
  4

1001
AcadAnnotative
1000
AnnotativeData
1002
{
1070
     1
1070
     1
1002
}
  0
ENDTAB
  0
TABLE
  2
VIEW
  5
6
330
0
100
AcDbSymbolTable
 70
     0
  0
ENDTAB
  0
TABLE
  2
UCS
  5
7
330
0
100
AcDbSymbolTable
 70
     0
  0
ENDTAB
  0
TABLE
  2
APPID
  5
9
330
0
100
AcDbSymbolTable
 70
     2
  0
APPID
  5
56
330
9
100
AcDbSymbolTableRecord
100
AcDbRegAppTableRecord
  2
ACAD
 70
     0
  0
APPID
  5
5E
330
9
100
AcDbSymbolTableRecord
100
AcDbRegAppTableRecord
  2
AcadAnnotative
 70
     0
  0
ENDTAB
  0
TABLE
  2
DIMSTYLE
  5
A
330
0
100
AcDbSymbolTable
 70
     2
100
AcDbDimStyleTable
 71
     0
  0
DIMSTYLE
105
58
330
A
100
AcDbSymbolTableRecord
100
AcDbDimStyleTableRecord
  2
Standard
 70
     0
340
55
  0
DIMSTYLE
105
59
330
A
100
AcDbSymbolTableRecord
100
AcDbDimStyleTableRecord
  2
Annotative
 70
     0
340
55
1001
AcadAnnotative
1000
AnnotativeData
1002
{
1070
     1
1070
     1
1002
}
  0
ENDTAB
  0
TABLE
  2
BLOCK_RECORD
  5
1
330
0
100
AcDbSymbolTable
 70
     2
  0
BLOCK_RECORD
  5
70
330
1
100
AcDbSymbolTableRecord
100
AcDbBlockTableRecord
  2
*Model_Space
340
73
 70
     0
280
     1
281
     0
  0
BLOCK_RECORD
  5
6C
330
1
100
AcDbSymbolTableRecord
100
AcDbBlockTableRecord
  2
*Paper_Space
340
6F
 70
     0
280
     1
281
     0
  0
BLOCK_RECORD
  5
74
330
1
100
AcDbSymbolTableRecord
100
AcDbBlockTableRecord
  2
*Paper_Space0
340
77
 70
     0
280
     1
281
     0
  0
BLOCK_RECORD
  5
8C
330
1
100
AcDbSymbolTableRecord
100
AcDbBlockTableRecord
  2
Block_0
340
0
102
{BLKREFS
331
8D
102
}
 70
     0
280
     1
281
     0
  0
ENDTAB
  0
ENDSEC
  0
SECTION
  2
BLOCKS
  0
BLOCK
  5
71
330
70
100
AcDbEntity
  8
0
100
AcDbBlockBegin
  2
*Model_Space
 70
     0
 10
0.0
 20
0.0
 30
0.0
  3
*Model_Space
  1

  0
ENDBLK
  5
72
330
70
100
AcDbEntity
  8
0
100
AcDbBlockEnd
  0
BLOCK
  5
6D
330
6C
100
AcDbEntity
 67
     1
  8
0
100
AcDbBlockBegin
  2
*Paper_Space
 70
     0
 10
0.0
 20
0.0
 30
0.0
  3
*Paper_Space
  1

  0
ENDBLK
  5
6E
330
6C
100
AcDbEntity
 67
     1
  8
0
100
AcDbBlockEnd
  0
BLOCK
  5
75
330
74
100
AcDbEntity
 67
     1
  8
0
100
AcDbBlockBegin
  2
*Paper_Space0
 70
     0
 10
0.0
 20
0.0
 30
0.0
  3
*Paper_Space0
  1

  0
ENDBLK
  5
76
330
74
100
AcDbEntity
 67
     1
  8
0
100
AcDbBlockEnd
  0
BLOCK
  5
8E
330
8C
100
AcDbEntity
  8
0
100
AcDbBlockBegin
  2
Block_0
 70
     0
 10
0.0
 20
0.0
 30
0.0
  3
Block_0
  1

  0
SPLINE
  5
90
330
8C
100
AcDbEntity
  8
图层 1
100
AcDbSpline
210
0.0
220
0.0
230
1.0
 70
     9
 71
     3
 72
    17
 73
    13
 74
     0
 42
0.0000000001
 43
0.0000000001
 40
0.0
 40
0.0
 40
0.0
 40
0.0
 40
1.0
 40
1.0
 40
1.0
 40
2.0
 40
2.0
 40
2.0
 40
3.0
 40
3.0
 40
3.0
 40
4.0
 40
4.0
 40
4.0
 40
4.0
 10
41.01264974682419
 20
45.95405727465249
 30
0.0
 10
34.26167536153969
 20
45.95405727465249
 30
0.0
 10
28.76791158067677
 20
40.4602835818075
 30
0.0
 10
28.76791158067677
 20
33.70673703803936
 30
0.0
 10
28.76791158067677
 20
26.95453852338022
 30
0.0
 10
34.26167536153969
 20
21.46076483054292
 30
0.0
 10
41.01264974682419
 20
21.46076483054292
 30
0.0
 10
47.76617151064725
 20
21.46076483054292
 30
0.0
 10
53.25993529150825
 20
26.95453852338022
 30
0.0
 10
53.25993529150825
 20
33.70673703803936
 30
0.0
 10
53.25993529150825
 20
40.4602835818075
 30
0.0
 10
47.76617151064725
 20
45.95405727465249
 30
0.0
 10
41.01264974682419
 20
45.95405727465249
 30
0.0
  0
SPLINE
  5
91
330
8C
100
AcDbEntity
  8
图层 1
100
AcDbSpline
210
0.0
220
0.0
230
1.0
 70
     9
 71
     3
 72
    17
 73
    13
 74
     0
 42
0.0000000001
 43
0.0000000001
 40
0.0
 40
0.0
 40
0.0
 40
0.0
 40
1.0
 40
1.0
 40
1.0
 40
2.0
 40
2.0
 40
2.0
 40
3.0
 40
3.0
 40
3.0
 40
4.0
 40
4.0
 40
4.0
 40
4.0
 10
41.01264974682419
 20
20.76399237248567
 30
0.0
 10
33.87699642232569
 20
20.76399237248567
 30
0.0
 10
28.07116142457541
 20
26.56987445213243
 30
0.0
 10
28.07116142457541
 20
33.70673703803936
 30
0.0
 10
28.07116142457541
 20
40.84494765305528
 30
0.0
 10
33.87699642232569
 20
46.65209846598783
 30
0.0
 10
41.01264974682419
 20
46.65209846598783
 30
0.0
 10
48.14957180460078
 20
46.65209846598783
 30
0.0
 10
53.9566829696169
 20
40.84494765305528
 30
0.0
 10
53.9566829696169
 20
33.70673703803936
 30
0.0
 10
53.9566829696169
 20
26.56987445213243
 30
0.0
 10
48.14957180460078
 20
20.76399237248567
 30
0.0
 10
41.01264974682419
 20
20.76399237248567
 30
0.0
  0
HATCH
  5
92
330
8C
100
AcDbEntity
  8
图层 1
 62
   250
420
  2170655
440
 33554687
100
AcDbHatch
 10
0.0
 20
0.0
 30
0.0
210
0.0
220
0.0
230
1.0
  2
SOLID
 70
     1
 71
     1
 91
        2
 92
        1
 93
        2
 72
     4
 94
        3
 73
     0
 74
     0
 95
       17
 96
       13
 40
0.0
 40
0.0
 40
0.0
 40
0.0
 40
1.0
 40
1.0
 40
1.0
 40
2.0
 40
2.0
 40
2.0
 40
3.0
 40
3.0
 40
3.0
 40
4.0
 40
4.0
 40
4.0
 40
4.0
 10
41.01264974682419
 20
45.95405727465249
 10
34.26167536153969
 20
45.95405727465249
 10
28.76791158067677
 20
40.4602835818075
 10
28.76791158067677
 20
33.70673703803936
 10
28.76791158067677
 20
26.95453852338022
 10
34.26167536153969
 20
21.46076483054292
 10
41.01264974682419
 20
21.46076483054292
 10
47.76617151064725
 20
21.46076483054292
 10
53.25993529150825
 20
26.95453852338022
 10
53.25993529150825
 20
33.70673703803936
 10
53.25993529150825
 20
40.4602835818075
 10
47.76617151064725
 20
45.95405727465249
 10
41.01264974682419
 20
45.95405727465249
 97
        0
 72
     1
 10
41.01264974682419
 20
45.95405727465248
 11
41.01264974682419
 21
45.95405727465249
 97
        0
 92
        1
 93
        2
 72
     4
 94
        3
 73
     0
 74
     0
 95
       17
 96
       13
 40
0.0
 40
0.0
 40
0.0
 40
0.0
 40
1.0
 40
1.0
 40
1.0
 40
2.0
 40
2.0
 40
2.0
 40
3.0
 40
3.0
 40
3.0
 40
4.0
 40
4.0
 40
4.0
 40
4.0
 10
41.01264974682419
 20
20.76399237248567
 10
33.87699642232569
 20
20.76399237248567
 10
28.07116142457541
 20
26.56987445213243
 10
28.07116142457541
 20
33.70673703803936
 10
28.07116142457541
 20
40.84494765305528
 10
33.87699642232569
 20
46.65209846598783
 10
41.01264974682419
 20
46.65209846598783
 10
48.14957180460078
 20
46.65209846598783
 10
53.9566829696169
 20
40.84494765305528
 10
53.9566829696169
 20
33.70673703803936
 10
53.9566829696169
 20
26.56987445213243
 10
48.14957180460078
 20
20.76399237248567
 10
41.01264974682419
 20
20.76399237248567
 97
        0
 72
     1
 10
41.0126497468242
 20
20.76399237248567
 11
41.01264974682419
 21
20.76399237248567
 97
        0
 75
     2
 76
     1
 98
        1
 10
0.0
 20
0.0
450
        0
451
        0
460
0.0
461
0.0
452
        0
462
0.0
453
        0
470

  0
LWPOLYLINE
  5
93
330
8C
100
AcDbEntity
  8
图层 1
100
AcDbPolyline
 90
        8
 70
     1
 43
0.0
 10
35.35382178387639
 20
34.53220662815962
 10
35.35382178387639
 20
39.46044246156202
 10
33.90172433130523
 20
39.46044246156202
 10
33.90172433130523
 20
28.23722786917503
 10
35.35382178387639
 20
28.23722786917503
 10
35.35382178387639
 20
33.21129669230985
 10
36.96514030705916
 20
33.21129669230985
 10
36.96514030705916
 20
34.53220662815962
  0
HATCH
  5
94
330
8C
100
AcDbEntity
  8
图层 1
 62
   250
420
  2170655
440
 33554687
100
AcDbHatch
 10
0.0
 20
0.0
 30
0.0
210
0.0
220
0.0
230
1.0
  2
SOLID
 70
     1
 71
     1
 91
        1
 92
        1
 93
        8
 72
     1
 10
35.35382178387639
 20
34.53220662815962
 11
35.35382178387639
 21
39.46044246156202
 72
     1
 10
35.35382178387639
 20
39.46044246156202
 11
33.90172433130523
 21
39.46044246156202
 72
     1
 10
33.90172433130523
 20
39.46044246156202
 11
33.90172433130523
 21
28.23722786917503
 72
     1
 10
33.90172433130523
 20
28.23722786917503
 11
35.35382178387639
 21
28.23722786917503
 72
     1
 10
35.35382178387639
 20
28.23722786917503
 11
35.35382178387639
 21
33.21129669230985
 72
     1
 10
35.35382178387639
 20
33.21129669230985
 11
36.96514030705916
 21
33.21129669230985
 72
     1
 10
36.96514030705916
 20
33.21129669230985
 11
36.96514030705916
 21
34.53220662815962
 72
     1
 10
36.96514030705916
 20
34.53220662815962
 11
35.35382178387639
 21
34.53220662815962
 97
        1
330
93
 75
     2
 76
     1
 98
        1
 10
0.0
 20
0.0
450
        0
451
        0
460
0.0
461
0.0
452
        0
462
0.0
453
        0
470

  0
LWPOLYLINE
  5
95
330
8C
100
AcDbEntity
  8
图层 1
100
AcDbPolyline
 90
        8
 70
     1
 43
0.0
 10
46.69200541775893
 20
34.53220662815962
 10
46.69200541775893
 20
39.46044246156202
 10
48.1428316590532
 20
39.46044246156202
 10
48.1428316590532
 20
28.23722786917503
 10
46.69200541775893
 20
28.23722786917503
 10
46.69200541775893
 20
33.21129669230985
 10
45.08323675110774
 20
33.21129669230985
 10
45.08323675110774
 20
34.53220662815962
  0
HATCH
  5
96
330
8C
100
AcDbEntity
  8
图层 1
 62
   250
420
  2170655
440
 33554687
100
AcDbHatch
 10
0.0
 20
0.0
 30
0.0
210
0.0
220
0.0
230
1.0
  2
SOLID
 70
     1
 71
     1
 91
        1
 92
        1
 93
        8
 72
     1
 10
46.69200541775893
 20
34.53220662815962
 11
46.69200541775893
 21
39.46044246156202
 72
     1
 10
46.69200541775893
 20
39.46044246156202
 11
48.1428316590532
 21
39.46044246156202
 72
     1
 10
48.1428316590532
 20
39.46044246156202
 11
48.1428316590532
 21
28.23722786917503
 72
     1
 10
48.1428316590532
 20
28.23722786917503
 11
46.69200541775893
 21
28.23722786917503
 72
     1
 10
46.69200541775893
 20
28.23722786917503
 11
46.69200541775893
 21
33.21129669230985
 72
     1
 10
46.69200541775893
 20
33.21129669230985
 11
45.08323675110774
 21
33.21129669230985
 72
     1
 10
45.08323675110774
 20
33.21129669230985
 11
45.08323675110774
 21
34.53220662815962
 72
     1
 10
45.08323675110774
 20
34.53220662815962
 11
46.69200541775893
 21
34.53220662815962
 97
        1
330
95
 75
     2
 76
     1
 98
        1
 10
0.0
 20
0.0
450
        0
451
        0
460
0.0
461
0.0
452
        0
462
0.0
453
        0
470

  0
SPLINE
  5
97
330
8C
100
AcDbEntity
  8
图层 1
100
AcDbSpline
210
0.0
220
0.0
230
1.0
 70
     9
 71
     3
 72
   155
 73
   151
 74
     0
 42
0.0000000001
 43
0.0000000001
 40
0.0
 40
0.0
 40
0.0
 40
0.0
 40
1.0
 40
1.0
 40
1.0
 40
2.0
 40
2.0
 40
2.0
 40
3.0
 40
3.0
 40
3.0
 40
4.0
 40
4.0
 40
4.0
 40
5.0
 40
5.0
 40
5.0
 40
6.0
 40
6.0
 40
6.0
 40
7.0
 40
7.0
 40
7.0
 40
8.0
 40
8.0
 40
8.0
 40
9.0
 40
9.0
 40
9.0
 40
10.0
 40
10.0
 40
10.0
 40
11.0
 40
11.0
 40
11.0
 40
12.0
 40
12.0
 40
12.0
 40
13.0
 40
13.0
 40
13.0
 40
14.0
 40
14.0
 40
14.0
 40
15.0
 40
15.0
 40
15.0
 40
16.0
 40
16.0
 40
16.0
 40
17.0
 40
17.0
 40
17.0
 40
18.0
 40
18.0
 40
18.0
 40
19.0
 40
19.0
 40
19.0
 40
20.0
 40
20.0
 40
20.0
 40
21.0
 40
21.0
 40
21.0
 40
22.0
 40
22.0
 40
22.0
 40
23.0
 40
23.0
 40
23.0
 40
24.0
 40
24.0
 40
24.0
 40
25.0
 40
25.0
 40
25.0
 40
26.0
 40
26.0
 40
26.0
 40
27.0
 40
27.0
 40
27.0
 40
28.0
 40
28.0
 40
28.0
 40
29.0
 40
29.0
 40
29.0
 40
30.0
 40
30.0
 40
30.0
 40
31.0
 40
31.0
 40
31.0
 40
32.0
 40
32.0
 40
32.0
 40
33.0
 40
33.0
 40
33.0
 40
34.0
 40
34.0
 40
34.0
 40
35.0
 40
35.0
 40
35.0
 40
36.0
 40
36.0
 40
36.0
 40
37.0
 40
37.0
 40
37.0
 40
38.0
 40
38.0
 40
38.0
 40
39.0
 40
39.0
 40
39.0
 40
40.0
 40
40.0
 40
40.0
 40
41.0
 40
41.0
 40
41.0
 40
42.0
 40
42.0
 40
42.0
 40
43.0
 40
43.0
 40
43.0
 40
44.0
 40
44.0
 40
44.0
 40
45.0
 40
45.0
 40
45.0
 40
46.0
 40
46.0
 40
46.0
 40
47.0
 40
47.0
 40
47.0
 40
48.0
 40
48.0
 40
48.0
 40
49.0
 40
49.0
 40
49.0
 40
50.0
 40
50.0
 40
50.0
 40
50.0
 10
44.82797604041094
 20
32.44173066233242
 30
0.0
 10
44.61525258650862
 20
32.86588405690682
 30
0.0
 10
44.32228918665058
 20
33.22636290001
 30
0.0
 10
43.96563636734675
 20
33.52189845834847
 30
0.0
 10
43.6204417954749
 20
33.80593612134881
 30
0.0
 10
43.22812319864244
 20
34.03518036583026
 30
0.0
 10
42.78867066487017
 20
34.20590428777988
 30
0.0
 10
42.37724425100487
 20
34.36386158110494
 30
0.0
 10
41.9505335659153
 20
34.48867321749508
 30
0.0
 10
41.53018884917234
 20
34.6058724542116
 30
0.0
 10
41.18882030109824
 20
34.70142392933838
 30
0.0
 10
40.92769665497107
 20
34.79308990879937
 30
0.0
 10
40.50225965914886
 20
34.93574310693921
 30
0.0
 10
40.13923343751002
 20
35.04913614380995
 30
0.0
 10
39.8029571685155
 20
35.18544567555234
 30
0.0
 10
39.50489653358635
 20
35.3510153685555
 30
0.0
 10
39.23103599476866
 20
35.5115101284393
 30
0.0
 10
39.00303322562782
 20
35.71656914477614
 30
0.0
 10
38.83489633012965
 20
35.95096761820404
 30
0.0
 10
38.67949384932608
 20
36.17386819627969
 30
0.0
 10
38.60306753719106
 20
36.46813502134651
 30
0.0
 10
38.60306753719106
 20
36.82345963549489
 30
0.0
 10
38.60306753719106
 20
37.06673924188154
 30
0.0
 10
38.64764913960399
 20
37.30621264842819
 30
0.0
 10
38.73808851169219
 20
37.53299872217862
 30
0.0
 10
38.82725171651998
 20
37.75209310042132
 30
0.0
 10
38.96736744809918
 20
37.95842085003817
 30
0.0
 10
39.1571570611725
 20
38.13802590494719
 30
0.0
 10
39.35204638731125
 20
38.32143715969494
 30
0.0
 10
39.60552541982908
 20
38.47043402423354
 30
0.0
 10
39.90358605475952
 20
38.58382706110426
 30
0.0
 10
40.21948329544622
 20
38.69975756454206
 30
0.0
 10
40.60033868885743
 20
38.75581971634094
 30
0.0
 10
41.03723888810122
 20
38.75581971634094
 30
0.0
 10
41.43847826580727
 20
38.75581971634094
 30
0.0
 10
41.78239419242024
 20
38.71506165972727
 30
0.0
 10
42.07663375954252
 20
38.63862047962443
 30
0.0
 10
42.36705473685289
 20
38.55456689984412
 30
0.0
 10
42.62308362590583
 20
38.45901542471541
 30
0.0
 10
42.8383495023539
 20
38.33420378832014
 30
0.0
 10
43.03833110757608
 20
38.21827328488876
 30
0.0
 10
43.22302844156822
 20
38.0819637531483
 30
0.0
 10
43.3746048985721
 20
37.94057928828717
 30
0.0
 10
43.5338259691879
 20
37.78389072824275
 30
0.0
 10
43.6561100510017
 20
37.64766049233706
 30
0.0
 10
43.74909432363413
 20
37.52657575995281
 30
0.0
 10
43.74909432363413
 20
37.52657575995281
 30
0.0
 10
43.93378917963002
 20
37.27568375388869
 30
0.0
 10
43.93378917963002
 20
37.27568375388869
 30
0.0
 10
43.93378917963002
 20
37.27568375388869
 30
0.0
 10
44.97445774034092
 20
38.16094239981179
 30
0.0
 10
44.97445774034092
 20
38.16094239981179
 30
0.0
 10
44.97445774034092
 20
38.16094239981179
 30
0.0
 10
44.81523666972544
 20
38.38257424461256
 30
0.0
 10
44.81523666972544
 20
38.38257424461256
 30
0.0
 10
44.68786278682669
 20
38.55710436640285
 30
0.0
 10
44.51589986753044
 20
38.74812802082742
 30
0.0
 10
44.30063399108046
 20
38.95960999939457
 30
0.0
 10
44.08918918243702
 20
39.16593774901014
 30
0.0
 10
43.82806553631179
 20
39.3518864703179
 30
0.0
 10
43.51981538722905
 20
39.52641659210819
 30
0.0
 10
43.22812319864244
 20
39.68691135199326
 30
0.0
 10
42.86892052280831
 20
39.82829581685246
 30
0.0
 10
42.46131269875653
 20
39.94676378684193
 30
0.0
 10
42.05880210977553
 20
40.05635062388098
 30
0.0
 10
41.590054722815
 20
40.11106474656573
 30
0.0
 10
41.0741808328957
 20
40.11106474656573
 30
0.0
 10
40.47168863869444
 20
40.11106474656573
 30
0.0
 10
39.92269139379612
 20
40.02701116678543
 30
0.0
 10
39.44503065994432
 20
39.86144147378161
 30
0.0
 10
38.96736744809918
 20
39.6958717807778
 30
0.0
 10
38.55339117770197
 20
39.46020457406989
 30
0.0
 10
38.21457000816675
 20
39.16593774901014
 30
0.0
 10
37.87065408155378
 20
38.87428768633234
 30
0.0
 10
37.60570936762007
 20
38.5163463097943
 30
0.0
 10
37.42610679070408
 20
38.12018434320196
 30
0.0
 10
37.25032528159624
 20
37.71767871021217
 30
0.0
 10
37.15988838750269
 20
37.2947940489107
 30
0.0
 10
37.15988838750269
 20
36.86041149227176
 30
0.0
 10
37.15988838750269
 20
36.23119908136052
 30
0.0
 10
37.27962261277945
 20
35.70261307869993
 30
0.0
 10
37.52164091987002
 20
35.28099715067912
 30
0.0
 10
37.76620412750514
 20
34.87714348857968
 30
0.0
 10
38.07955151165834
 20
34.53966043617523
 30
0.0
 10
38.46040690506922
 20
34.28234546788337
 30
0.0
 10
38.82215695944384
 20
34.02756796615151
 30
0.0
 10
39.24887012253222
 20
33.82631514965276
 30
0.0
 10
39.72143857730089
 20
33.66962658960834
 30
0.0
 10
40.14305450531656
 20
33.52697339146721
 30
0.0
 10
40.41819121139688
 20
33.42761571650169
 30
0.0
 10
40.92132820862565
 20
33.27219588973728
 30
0.0
 10
41.28052840646868
 20
33.16395708181236
 30
0.0
 10
41.63973356029712
 20
33.05183277821266
 30
0.0
 10
41.9849256541724
 20
32.92448367526572
 30
0.0
 10
42.3148285208319
 20
32.80601570526727
 30
0.0
 10
42.61034425522002
 20
32.65321264089572
 30
0.0
 10
42.86254959846824
 20
32.46972209031576
 30
0.0
 10
43.11093387390799
 20
32.27996716916734
 30
0.0
 10
43.30964426785522
 20
32.05326039124783
 30
0.0
 10
43.45358106724097
 20
31.79721415623596
 30
0.0
 10
43.60006276717063
 20
31.5424366545041
 30
0.0
 10
43.6752153900383
 20
31.21383473505713
 30
0.0
 10
43.6752153900383
 20
30.83932053004811
 30
0.0
 10
43.6752153900383
 20
30.48518535334368
 30
0.0
 10
43.60770738077836
 20
30.16546456685417
 30
0.0
 10
43.47650747408379
 20
29.88911859936864
 30
0.0
 10
43.3363917425046
 20
29.61649953589157
 30
0.0
 10
43.15169688650902
 20
29.39359895780821
 30
0.0
 10
42.91987057156506
 20
29.22422306496631
 30
0.0
 10
42.67658105319955
 20
29.03946378110378
 30
0.0
 10
42.37469687246952
 20
28.89807931625035
 30
0.0
 10
42.0346020136631
 20
28.8076820700713
 30
0.0
 10
41.68940991978781
 20
28.71339932821682
 30
0.0
 10
41.29708884496071
 20
28.65860590970371
 30
0.0
 10
40.86528340279114
 20
28.65860590970371
 30
0.0
 10
40.11885440920414
 20
28.65860590970371
 30
0.0
 10
39.48706488381807
 20
28.80514460351065
 30
0.0
 10
38.98137803005963
 20
29.07768437115937
 30
0.0
 10
38.49097792552203
 20
29.35030343463452
 30
0.0
 10
38.06044369462743
 20
29.69928438239315
 30
0.0
 10
37.69869364025441
 20
30.11836284384881
 30
0.0
 10
37.69869364025441
 20
30.11836284384881
 30
0.0
 10
36.65165663319617
 20
29.11083002808788
 30
0.0
 10
36.65165663319617
 20
29.11083002808788
 30
0.0
 10
36.81724367216244
 20
28.90196481191744
 30
0.0
 10
37.01722775537926
 20
28.69555776647352
 30
0.0
 10
37.25542003867367
 20
28.49811114981863
 30
0.0
 10
37.52800936621544
 20
28.27140437189912
 30
0.0
 10
37.85154378652791
 20
28.0650766222797
 30
0.0
 10
38.22093845451217
 20
27.88547156737261
 30
0.0
 10
38.57377268400249
 20
27.70840397902424
 30
0.0
 10
38.97755696225116
 20
27.56701951416312
 30
0.0
 10
39.42847269944628
 20
27.44855154417173
 30
0.0
 10
39.87556489083861
 20
27.34665640264042
 30
0.0
 10
40.36087023829845
 20
27.28805678428857
 30
0.0
 10
40.86528340279114
 20
27.28805678428857
 30
0.0
 10
41.44866777996116
 20
27.28805678428857
 30
0.0
 10
42.00785206101908
 20
27.36576669767014
 30
0.0
 10
42.52500211820069
 20
27.52879892411522
 30
0.0
 10
43.04597572118381
 20
27.69056241727838
 30
0.0
 10
43.50070757019621
 20
27.92369215742628
 30
0.0
 10
43.89302864502524
 20
28.22684011544478
 30
0.0
 10
44.27770758423764
 20
28.53125680674971
 30
0.0
 10
44.58723142258965
 20
28.90450227847809
 30
0.0
 10
44.81905525953703
 20
29.34134300584998
 30
0.0
 10
45.05088653047058
 20
29.78722345784119
 30
0.0
 10
45.16425230940352
 20
30.29035549907844
 30
0.0
 10
45.16425230940352
 20
30.83932053004811
 30
0.0
 10
45.16425230940352
 20
31.46726420767935
 30
0.0
 10
45.05215774174394
 20
32.00861683896448
 30
0.0
 10
44.82797604041094
 20
32.44173066233242
 30
0.0
  0
HATCH
  5
98
330
8C
100
AcDbEntity
  8
图层 1
 62
   250
420
  2170655
440
 33554687
100
AcDbHatch
 10
0.0
 20
0.0
 30
0.0
210
0.0
220
0.0
230
1.0
  2
SOLID
 70
     1
 71
     1
 91
        1
 92
        1
 93
        2
 72
     4
 94
        3
 73
     0
 74
     0
 95
      155
 96
      151
 40
0.0
 40
0.0
 40
0.0
 40
0.0
 40
1.0
 40
1.0
 40
1.0
 40
2.0
 40
2.0
 40
2.0
 40
3.0
 40
3.0
 40
3.0
 40
4.0
 40
4.0
 40
4.0
 40
5.0
 40
5.0
 40
5.0
 40
6.0
 40
6.0
 40
6.0
 40
7.0
 40
7.0
 40
7.0
 40
8.0
 40
8.0
 40
8.0
 40
9.0
 40
9.0
 40
9.0
 40
10.0
 40
10.0
 40
10.0
 40
11.0
 40
11.0
 40
11.0
 40
12.0
 40
12.0
 40
12.0
 40
13.0
 40
13.0
 40
13.0
 40
14.0
 40
14.0
 40
14.0
 40
15.0
 40
15.0
 40
15.0
 40
16.0
 40
16.0
 40
16.0
 40
17.0
 40
17.0
 40
17.0
 40
18.0
 40
18.0
 40
18.0
 40
19.0
 40
19.0
 40
19.0
 40
20.0
 40
20.0
 40
20.0
 40
21.0
 40
21.0
 40
21.0
 40
22.0
 40
22.0
 40
22.0
 40
23.0
 40
23.0
 40
23.0
 40
24.0
 40
24.0
 40
24.0
 40
25.0
 40
25.0
 40
25.0
 40
26.0
 40
26.0
 40
26.0
 40
27.0
 40
27.0
 40
27.0
 40
28.0
 40
28.0
 40
28.0
 40
29.0
 40
29.0
 40
29.0
 40
30.0
 40
30.0
 40
30.0
 40
31.0
 40
31.0
 40
31.0
 40
32.0
 40
32.0
 40
32.0
 40
33.0
 40
33.0
 40
33.0
 40
34.0
 40
34.0
 40
34.0
 40
35.0
 40
35.0
 40
35.0
 40
36.0
 40
36.0
 40
36.0
 40
37.0
 40
37.0
 40
37.0
 40
38.0
 40
38.0
 40
38.0
 40
39.0
 40
39.0
 40
39.0
 40
40.0
 40
40.0
 40
40.0
 40
41.0
 40
41.0
 40
41.0
 40
42.0
 40
42.0
 40
42.0
 40
43.0
 40
43.0
 40
43.0
 40
44.0
 40
44.0
 40
44.0
 40
45.0
 40
45.0
 40
45.0
 40
46.0
 40
46.0
 40
46.0
 40
47.0
 40
47.0
 40
47.0
 40
48.0
 40
48.0
 40
48.0
 40
49.0
 40
49.0
 40
49.0
 40
50.0
 40
50.0
 40
50.0
 40
50.0
 10
44.82797604041094
 20
32.44173066233242
 10
44.61525258650862
 20
32.86588405690682
 10
44.32228918665058
 20
33.22636290001
 10
43.96563636734675
 20
33.52189845834847
 10
43.6204417954749
 20
33.80593612134881
 10
43.22812319864244
 20
34.03518036583026
 10
42.78867066487017
 20
34.20590428777988
 10
42.37724425100487
 20
34.36386158110494
 10
41.9505335659153
 20
34.48867321749508
 10
41.53018884917234
 20
34.6058724542116
 10
41.18882030109824
 20
34.70142392933838
 10
40.92769665497107
 20
34.79308990879937
 10
40.50225965914886
 20
34.93574310693921
 10
40.13923343751002
 20
35.04913614380995
 10
39.8029571685155
 20
35.18544567555234
 10
39.50489653358635
 20
35.3510153685555
 10
39.23103599476866
 20
35.5115101284393
 10
39.00303322562782
 20
35.71656914477614
 10
38.83489633012965
 20
35.95096761820404
 10
38.67949384932608
 20
36.17386819627969
 10
38.60306753719106
 20
36.46813502134651
 10
38.60306753719106
 20
36.82345963549489
 10
38.60306753719106
 20
37.06673924188154
 10
38.64764913960399
 20
37.30621264842819
 10
38.73808851169219
 20
37.53299872217862
 10
38.82725171651998
 20
37.75209310042132
 10
38.96736744809918
 20
37.95842085003817
 10
39.1571570611725
 20
38.13802590494719
 10
39.35204638731125
 20
38.32143715969494
 10
39.60552541982908
 20
38.47043402423354
 10
39.90358605475952
 20
38.58382706110426
 10
40.21948329544622
 20
38.69975756454206
 10
40.60033868885743
 20
38.75581971634094
 10
41.03723888810122
 20
38.75581971634094
 10
41.43847826580727
 20
38.75581971634094
 10
41.78239419242024
 20
38.71506165972727
 10
42.07663375954252
 20
38.63862047962443
 10
42.36705473685289
 20
38.55456689984412
 10
42.62308362590583
 20
38.45901542471541
 10
42.8383495023539
 20
38.33420378832014
 10
43.03833110757608
 20
38.21827328488876
 10
43.22302844156822
 20
38.0819637531483
 10
43.3746048985721
 20
37.94057928828717
 10
43.5338259691879
 20
37.78389072824275
 10
43.6561100510017
 20
37.64766049233706
 10
43.74909432363413
 20
37.52657575995281
 10
43.74909432363413
 20
37.52657575995281
 10
43.93378917963002
 20
37.27568375388869
 10
43.93378917963002
 20
37.27568375388869
 10
43.93378917963002
 20
37.27568375388869
 10
44.97445774034092
 20
38.16094239981179
 10
44.97445774034092
 20
38.16094239981179
 10
44.97445774034092
 20
38.16094239981179
 10
44.81523666972544
 20
38.38257424461256
 10
44.81523666972544
 20
38.38257424461256
 10
44.68786278682669
 20
38.55710436640285
 10
44.51589986753044
 20
38.74812802082742
 10
44.30063399108046
 20
38.95960999939457
 10
44.08918918243702
 20
39.16593774901014
 10
43.82806553631179
 20
39.3518864703179
 10
43.51981538722905
 20
39.52641659210819
 10
43.22812319864244
 20
39.68691135199326
 10
42.86892052280831
 20
39.82829581685246
 10
42.46131269875653
 20
39.94676378684193
 10
42.05880210977553
 20
40.05635062388098
 10
41.590054722815
 20
40.11106474656573
 10
41.0741808328957
 20
40.11106474656573
 10
40.47168863869444
 20
40.11106474656573
 10
39.92269139379612
 20
40.02701116678543
 10
39.44503065994432
 20
39.86144147378161
 10
38.96736744809918
 20
39.6958717807778
 10
38.55339117770197
 20
39.46020457406989
 10
38.21457000816675
 20
39.16593774901014
 10
37.87065408155378
 20
38.87428768633234
 10
37.60570936762007
 20
38.5163463097943
 10
37.42610679070408
 20
38.12018434320196
 10
37.25032528159624
 20
37.71767871021217
 10
37.15988838750269
 20
37.2947940489107
 10
37.15988838750269
 20
36.86041149227176
 10
37.15988838750269
 20
36.23119908136052
 10
37.27962261277945
 20
35.70261307869993
 10
37.52164091987002
 20
35.28099715067912
 10
37.76620412750514
 20
34.87714348857968
 10
38.07955151165834
 20
34.53966043617523
 10
38.46040690506922
 20
34.28234546788337
 10
38.82215695944384
 20
34.02756796615151
 10
39.24887012253222
 20
33.82631514965276
 10
39.72143857730089
 20
33.66962658960834
 10
40.14305450531656
 20
33.52697339146721
 10
40.41819121139688
 20
33.42761571650169
 10
40.92132820862565
 20
33.27219588973728
 10
41.28052840646868
 20
33.16395708181236
 10
41.63973356029712
 20
33.05183277821266
 10
41.9849256541724
 20
32.92448367526572
 10
42.3148285208319
 20
32.80601570526727
 10
42.61034425522002
 20
32.65321264089572
 10
42.86254959846824
 20
32.46972209031576
 10
43.11093387390799
 20
32.27996716916734
 10
43.30964426785522
 20
32.05326039124783
 10
43.45358106724097
 20
31.79721415623596
 10
43.60006276717063
 20
31.5424366545041
 10
43.6752153900383
 20
31.21383473505713
 10
43.6752153900383
 20
30.83932053004811
 10
43.6752153900383
 20
30.48518535334368
 10
43.60770738077836
 20
30.16546456685417
 10
43.47650747408379
 20
29.88911859936864
 10
43.3363917425046
 20
29.61649953589157
 10
43.15169688650902
 20
29.39359895780821
 10
42.91987057156506
 20
29.22422306496631
 10
42.67658105319955
 20
29.03946378110378
 10
42.37469687246952
 20
28.89807931625035
 10
42.0346020136631
 20
28.8076820700713
 10
41.68940991978781
 20
28.71339932821682
 10
41.29708884496071
 20
28.65860590970371
 10
40.86528340279114
 20
28.65860590970371
 10
40.11885440920414
 20
28.65860590970371
 10
39.48706488381807
 20
28.80514460351065
 10
38.98137803005963
 20
29.07768437115937
 10
38.49097792552203
 20
29.35030343463452
 10
38.06044369462743
 20
29.69928438239315
 10
37.69869364025441
 20
30.11836284384881
 10
37.69869364025441
 20
30.11836284384881
 10
36.65165663319617
 20
29.11083002808788
 10
36.65165663319617
 20
29.11083002808788
 10
36.81724367216244
 20
28.90196481191744
 10
37.01722775537926
 20
28.69555776647352
 10
37.25542003867367
 20
28.49811114981863
 10
37.52800936621544
 20
28.27140437189912
 10
37.85154378652791
 20
28.0650766222797
 10
38.22093845451217
 20
27.88547156737261
 10
38.57377268400249
 20
27.70840397902424
 10
38.97755696225116
 20
27.56701951416312
 10
39.42847269944628
 20
27.44855154417173
 10
39.87556489083861
 20
27.34665640264042
 10
40.36087023829845
 20
27.28805678428857
 10
40.86528340279114
 20
27.28805678428857
 10
41.44866777996116
 20
27.28805678428857
 10
42.00785206101908
 20
27.36576669767014
 10
42.52500211820069
 20
27.52879892411522
 10
43.04597572118381
 20
27.69056241727838
 10
43.50070757019621
 20
27.92369215742628
 10
43.89302864502524
 20
28.22684011544478
 10
44.27770758423764
 20
28.53125680674971
 10
44.58723142258965
 20
28.90450227847809
 10
44.81905525953703
 20
29.34134300584998
 10
45.05088653047058
 20
29.78722345784119
 10
45.16425230940352
 20
30.29035549907844
 10
45.16425230940352
 20
30.83932053004811
 10
45.16425230940352
 20
31.46726420767935
 10
45.05215774174394
 20
32.00861683896448
 10
44.82797604041094
 20
32.44173066233242
 97
        0
 72
     1
 10
44.82797604041094
 20
32.44173066233243
 11
44.82797604041094
 21
32.44173066233242
 97
        0
 75
     2
 76
     1
 98
        1
 10
0.0
 20
0.0
450
        0
451
        0
460
0.0
461
0.0
452
        0
462
0.0
453
        0
470

  0
SPLINE
  5
99
330
8C
100
AcDbEntity
  8
图层 1
100
AcDbSpline
210
0.0
220
0.0
230
1.0
 70
     9
 71
     3
 72
   149
 73
   145
 74
     0
 42
0.0000000001
 43
0.0000000001
 40
0.0
 40
0.0
 40
0.0
 40
0.0
 40
1.0
 40
1.0
 40
1.0
 40
2.0
 40
2.0
 40
2.0
 40
3.0
 40
3.0
 40
3.0
 40
4.0
 40
4.0
 40
4.0
 40
5.0
 40
5.0
 40
5.0
 40
6.0
 40
6.0
 40
6.0
 40
7.0
 40
7.0
 40
7.0
 40
8.0
 40
8.0
 40
8.0
 40
9.0
 40
9.0
 40
9.0
 40
10.0
 40
10.0
 40
10.0
 40
11.0
 40
11.0
 40
11.0
 40
12.0
 40
12.0
 40
12.0
 40
13.0
 40
13.0
 40
13.0
 40
14.0
 40
14.0
 40
14.0
 40
15.0
 40
15.0
 40
15.0
 40
16.0
 40
16.0
 40
16.0
 40
17.0
 40
17.0
 40
17.0
 40
18.0
 40
18.0
 40
18.0
 40
19.0
 40
19.0
 40
19.0
 40
20.0
 40
20.0
 40
20.0
 40
21.0
 40
21.0
 40
21.0
 40
22.0
 40
22.0
 40
22.0
 40
23.0
 40
23.0
 40
23.0
 40
24.0
 40
24.0
 40
24.0
 40
25.0
 40
25.0
 40
25.0
 40
26.0
 40
26.0
 40
26.0
 40
27.0
 40
27.0
 40
27.0
 40
28.0
 40
28.0
 40
28.0
 40
29.0
 40
29.0
 40
29.0
 40
30.0
 40
30.0
 40
30.0
 40
31.0
 40
31.0
 40
31.0
 40
32.0
 40
32.0
 40
32.0
 40
33.0
 40
33.0
 40
33.0
 40
34.0
 40
34.0
 40
34.0
 40
35.0
 40
35.0
 40
35.0
 40
36.0
 40
36.0
 40
36.0
 40
37.0
 40
37.0
 40
37.0
 40
38.0
 40
38.0
 40
38.0
 40
39.0
 40
39.0
 40
39.0
 40
40.0
 40
40.0
 40
40.0
 40
41.0
 40
41.0
 40
41.0
 40
42.0
 40
42.0
 40
42.0
 40
43.0
 40
43.0
 40
43.0
 40
44.0
 40
44.0
 40
44.0
 40
45.0
 40
45.0
 40
45.0
 40
46.0
 40
46.0
 40
46.0
 40
47.0
 40
47.0
 40
47.0
 40
48.0
 40
48.0
 40
48.0
 40
48.0
 10
62.56579158289039
 20
30.37282316226083
 30
0.0
 10
62.94154974122889
 20
29.91933031058895
 30
0.0
 10
63.39119178915474
 20
29.54997033453535
 30
0.0
 10
63.91598150395899
 20
29.26212647169436
 30
0.0
 10
64.43950248548066
 20
28.97674077959401
 30
0.0
 10
65.07766045721055
 20
28.83281884817415
 30
0.0
 10
65.82790804060916
 20
28.83281884817415
 30
0.0
 10
66.25971843876801
 20
28.83281884817415
 30
0.0
 10
66.65458689213237
 20
28.8838060668543
 30
0.0
 10
67.01251340070772
 20
28.98189500854174
 30
0.0
 10
67.37171855453617
 20
29.08125268350726
 30
0.0
 10
67.68124487088282
 20
29.22771208148713
 30
0.0
 10
67.9398186604784
 20
29.42008376501878
 30
0.0
 10
68.19966613934099
 20
29.61364488601171
 30
0.0
 10
68.40092391182548
 20
29.85565575911837
 30
0.0
 10
68.54485575522229
 20
30.14992258417812
 30
0.0
 10
68.68752382132931
 20
30.44157264685592
 30
0.0
 10
68.76012410966659
 20
30.78167246164937
 30
0.0
 10
68.76012410966659
 20
31.16768456200488
 30
0.0
 10
68.76012410966659
 20
31.57653386139406
 30
0.0
 10
68.67988168571428
 20
31.92424607586306
 30
0.0
 10
68.52066061510074
 20
32.21090050125305
 30
0.0
 10
68.36016585521341
 20
32.50001309737019
 30
0.0
 10
68.14616623404944
 20
32.73948650391684
 30
0.0
 10
67.88250264336891
 20
32.93185818745234
 30
0.0
 10
67.61627680618201
 20
33.12541930843757
 30
0.0
 10
67.31694495997662
 20
33.28337660176263
 30
0.0
 10
66.9793925237214
 20
33.40438203831917
 30
0.0
 10
66.64311873272345
 20
33.52538747486736
 30
0.0
 10
66.30302387391734
 20
33.63624304518707
 30
0.0
 10
65.96165532584293
 20
33.73560072015387
 30
0.0
 10
65.54131308709492
 20
33.84637699463751
 30
0.0
 10
65.12096589235927
 20
33.96991989775278
 30
0.0
 10
64.70189734288085
 20
34.10749816277324
 30
0.0
 10
64.28282879340213
 20
34.24634516106858
 30
0.0
 10
63.90706567907436
 20
34.42848768254147
 30
0.0
 10
63.57588664515223
 20
34.65519446045777
 30
0.0
 10
63.24470761123044
 20
34.8807118009282
 30
0.0
 10
62.97721799675409
 20
35.16855566376727
 30
0.0
 10
62.77213915646144
 20
35.51626787823819
 30
0.0
 10
62.56833896142766
 20
35.86405938854389
 30
0.0
 10
62.46770759719255
 20
36.31239801126226
 30
0.0
 10
62.46770759719255
 20
36.86651727117837
 30
0.0
 10
62.46770759719255
 20
37.24095218035776
 30
0.0
 10
62.54413390932757
 20
37.6001622901758
 30
0.0
 10
62.6982602228653
 20
37.94279957152606
 30
0.0
 10
62.85238653640302
 20
38.28416811960593
 30
0.0
 10
63.07529702646267
 20
38.58224114450634
 30
0.0
 10
63.36953411559192
 20
38.83701864624333
 30
0.0
 10
63.66122878217157
 20
39.09179614797518
 30
0.0
 10
64.02043393600194
 20
39.29304896446815
 30
0.0
 10
64.44459724255681
 20
39.4407770957261
 30
0.0
 10
64.87003423838064
 20
39.59112198937371
 30
0.0
 10
65.35279716329087
 20
39.66494640708754
 30
0.0
 10
65.89414483859219
 20
39.66494640708754
 30
0.0
 10
66.35907115774841
 20
39.66494640708754
 30
0.0
 10
66.76922883832954
 20
39.61530721751639
 30
0.0
 10
67.12842408018329
 20
39.51468080927086
 30
0.0
 10
67.48762923401367
 20
39.41786060086407
 30
0.0
 10
67.80225526342573
 20
39.29304896446815
 30
0.0
 10
68.07229225644256
 20
39.14270407082057
 30
0.0
 10
68.34232924945938
 20
38.99497593956775
 30
0.0
 10
68.56906080732558
 20
38.83067497984458
 30
0.0
 10
68.75120828478421
 20
38.65487612476852
 30
0.0
 10
68.93463440749946
 20
38.47780853642016
 30
0.0
 10
69.08621334250216
 20
38.30716391029889
 30
0.0
 10
69.20721877905548
 20
38.14024618818607
 30
0.0
 10
69.20721877905548
 20
38.14024618818607
 30
0.0
 10
68.64421343018941
 20
37.66129937509343
 30
0.0
 10
68.64421343018941
 20
37.66129937509343
 30
0.0
 10
68.54485575522229
 20
37.79380270699516
 30
0.0
 10
68.4174818723229
 20
37.93518717184923
 30
0.0
 10
68.26335555878549
 20
38.0829153031091
 30
0.0
 10
68.10795555597656
 20
38.23326019675477
 30
0.0
 10
67.92071332144179
 20
38.37083846177524
 30
0.0
 10
67.70035020992101
 20
38.4969188314441
 30
0.0
 10
67.47871340913097
 20
38.62299920111937
 30
0.0
 10
67.21758728500917
 20
38.73004857159328
 30
0.0
 10
66.9144343709969
 20
38.81029595153485
 30
0.0
 10
66.60873407844672
 20
38.89434953131516
 30
0.0
 10
66.25971843876801
 20
38.93510758793013
 30
0.0
 10
65.86102891759548
 20
38.93510758793013
 30
0.0
 10
65.40883949113268
 20
38.93510758793013
 30
0.0
 10
65.02033948411181
 20
38.87523923629314
 30
0.0
 10
64.69425520726808
 20
38.7542337997411
 30
0.0
 10
64.36817093042018
 20
38.63322836318585
 30
0.0
 10
64.10068131594544
 20
38.4714648700227
 30
0.0
 10
63.89050771857696
 20
38.27401825336846
 30
0.0
 10
63.6816127664651
 20
38.07530290342971
 30
0.0
 10
63.52620780766692
 20
37.85113359206699
 30
0.0
 10
63.42812877796026
 20
37.60269975673388
 30
0.0
 10
63.32750236971249
 20
37.35434521723041
 30
0.0
 10
63.27782353222877
 20
37.09703024893855
 30
0.0
 10
63.27782353222877
 20
36.83210288096922
 30
0.0
 10
63.27782353222877
 20
36.43594091437623
 30
0.0
 10
63.36953411559192
 20
36.10733899492862
 30
0.0
 10
63.55168654903981
 20
35.84621782679288
 30
0.0
 10
63.73256033722852
 20
35.5876341252223
 30
0.0
 10
63.97330247705741
 20
35.37234594681834
 30
0.0
 10
64.27136558998056
 20
35.20170132069579
 30
0.0
 10
64.56942870290788
 20
35.03097739874616
 30
0.0
 10
64.90315511536502
 20
34.88959293388504
 30
0.0
 10
65.27382347261857
 20
34.77881665940203
 30
0.0
 10
65.64321318461198
 20
34.66922982236812
 30
0.0
 10
66.01642892040247
 20
34.5647972142768
 30
0.0
 10
66.39218707874322
 20
34.46417080603256
 30
0.0
 10
66.77814466321416
 20
34.36481313106575
 30
0.0
 10
67.16409233570657
 20
34.24000149466984
 30
0.0
 10
67.55131865345751
 20
34.09219406758289
 30
0.0
 10
67.93727128193951
 20
33.94319720305008
 30
0.0
 10
68.28246089782176
 20
33.74448185311134
 30
0.0
 10
68.585618767823
 20
33.49485858032722
 30
0.0
 10
68.8887766378242
 20
33.24769347827283
 30
0.0
 10
69.13843460253355
 20
32.93439565401107
 30
0.0
 10
69.33204528341535
 20
32.55988144900268
 30
0.0
 10
69.52438723101716
 20
32.18409851072071
 30
0.0
 10
69.62119257145613
 20
31.72045579281328
 30
0.0
 10
69.62119257145613
 20
31.16768456200488
 30
0.0
 10
69.62119257145613
 20
30.69381268202905
 30
0.0
 10
69.52183985247668
 20
30.26585308761591
 30
0.0
 10
69.32312945853138
 20
29.88499521620878
 30
0.0
 10
69.12442402057504
 20
29.50413734480101
 30
0.0
 10
68.85693440609675
 20
29.18187909175279
 30
0.0
 10
68.52066061510074
 20
28.91687242795446
 30
0.0
 10
68.18310817884359
 20
28.65067632670512
 30
0.0
 10
67.78187127913219
 20
28.44688604364828
 30
0.0
 10
67.31949233851548
 20
28.30296411222843
 30
0.0
 10
66.85456601935992
 20
28.15904218081435
 30
0.0
 10
66.35907115774841
 20
28.08767593383024
 30
0.0
 10
65.82790804060916
 20
28.08767593383024
 30
0.0
 10
65.36426036671405
 20
28.08767593383024
 30
0.0
 10
64.93372365782481
 20
28.13739441922461
 30
0.0
 10
64.53630782591964
 20
28.2367520941972
 30
0.0
 10
64.13889199401831
 20
28.33737850244336
 30
0.0
 10
63.77713946164714
 20
28.46472760539158
 30
0.0
 10
63.45233383006195
 20
28.62649109855666
 30
0.0
 10
63.12624955321567
 20
28.78698585843981
 30
0.0
 10
62.83964468772289
 20
28.96785964663461
 30
0.0
 10
62.58999167900282
 20
29.17164992968824
 30
0.0
 10
62.34160244757187
 20
29.37670894602316
 30
0.0
 10
62.14034963107697
 20
29.58819092458325
 30
0.0
 10
61.98622331753925
 20
29.80982276938595
 30
0.0
 10
61.98622331753925
 20
29.80982276938595
 30
0.0
 10
62.56579158289039
 20
30.37282316226083
 30
0.0
 10
62.56579158289039
 20
30.37282316226083
 30
0.0
  0
HATCH
  5
9A
330
8C
100
AcDbEntity
  8
图层 1
 62
   250
420
  2170655
440
 33554687
100
AcDbHatch
 10
0.0
 20
0.0
 30
0.0
210
0.0
220
0.0
230
1.0
  2
SOLID
 70
     1
 71
     1
 91
        1
 92
        1
 93
        1
 72
     4
 94
        3
 73
     0
 74
     0
 95
      149
 96
      145
 40
0.0
 40
0.0
 40
0.0
 40
0.0
 40
1.0
 40
1.0
 40
1.0
 40
2.0
 40
2.0
 40
2.0
 40
3.0
 40
3.0
 40
3.0
 40
4.0
 40
4.0
 40
4.0
 40
5.0
 40
5.0
 40
5.0
 40
6.0
 40
6.0
 40
6.0
 40
7.0
 40
7.0
 40
7.0
 40
8.0
 40
8.0
 40
8.0
 40
9.0
 40
9.0
 40
9.0
 40
10.0
 40
10.0
 40
10.0
 40
11.0
 40
11.0
 40
11.0
 40
12.0
 40
12.0
 40
12.0
 40
13.0
 40
13.0
 40
13.0
 40
14.0
 40
14.0
 40
14.0
 40
15.0
 40
15.0
 40
15.0
 40
16.0
 40
16.0
 40
16.0
 40
17.0
 40
17.0
 40
17.0
 40
18.0
 40
18.0
 40
18.0
 40
19.0
 40
19.0
 40
19.0
 40
20.0
 40
20.0
 40
20.0
 40
21.0
 40
21.0
 40
21.0
 40
22.0
 40
22.0
 40
22.0
 40
23.0
 40
23.0
 40
23.0
 40
24.0
 40
24.0
 40
24.0
 40
25.0
 40
25.0
 40
25.0
 40
26.0
 40
26.0
 40
26.0
 40
27.0
 40
27.0
 40
27.0
 40
28.0
 40
28.0
 40
28.0
 40
29.0
 40
29.0
 40
29.0
 40
30.0
 40
30.0
 40
30.0
 40
31.0
 40
31.0
 40
31.0
 40
32.0
 40
32.0
 40
32.0
 40
33.0
 40
33.0
 40
33.0
 40
34.0
 40
34.0
 40
34.0
 40
35.0
 40
35.0
 40
35.0
 40
36.0
 40
36.0
 40
36.0
 40
37.0
 40
37.0
 40
37.0
 40
38.0
 40
38.0
 40
38.0
 40
39.0
 40
39.0
 40
39.0
 40
40.0
 40
40.0
 40
40.0
 40
41.0
 40
41.0
 40
41.0
 40
42.0
 40
42.0
 40
42.0
 40
43.0
 40
43.0
 40
43.0
 40
44.0
 40
44.0
 40
44.0
 40
45.0
 40
45.0
 40
45.0
 40
46.0
 40
46.0
 40
46.0
 40
47.0
 40
47.0
 40
47.0
 40
48.0
 40
48.0
 40
48.0
 40
48.0
 10
62.56579158289039
 20
30.37282316226083
 10
62.94154974122889
 20
29.91933031058895
 10
63.39119178915474
 20
29.54997033453535
 10
63.91598150395899
 20
29.26212647169436
 10
64.43950248548066
 20
28.97674077959401
 10
65.07766045721055
 20
28.83281884817415
 10
65.82790804060916
 20
28.83281884817415
 10
66.25971843876801
 20
28.83281884817415
 10
66.65458689213237
 20
28.8838060668543
 10
67.01251340070772
 20
28.98189500854174
 10
67.37171855453617
 20
29.08125268350726
 10
67.68124487088282
 20
29.22771208148713
 10
67.9398186604784
 20
29.42008376501878
 10
68.19966613934099
 20
29.61364488601171
 10
68.40092391182548
 20
29.85565575911837
 10
68.54485575522229
 20
30.14992258417812
 10
68.68752382132931
 20
30.44157264685592
 10
68.76012410966659
 20
30.78167246164937
 10
68.76012410966659
 20
31.16768456200488
 10
68.76012410966659
 20
31.57653386139406
 10
68.67988168571428
 20
31.92424607586306
 10
68.52066061510074
 20
32.21090050125305
 10
68.36016585521341
 20
32.50001309737019
 10
68.14616623404944
 20
32.73948650391684
 10
67.88250264336891
 20
32.93185818745234
 10
67.61627680618201
 20
33.12541930843757
 10
67.31694495997662
 20
33.28337660176263
 10
66.9793925237214
 20
33.40438203831917
 10
66.64311873272345
 20
33.52538747486736
 10
66.30302387391734
 20
33.63624304518707
 10
65.96165532584293
 20
33.73560072015387
 10
65.54131308709492
 20
33.84637699463751
 10
65.12096589235927
 20
33.96991989775278
 10
64.70189734288085
 20
34.10749816277324
 10
64.28282879340213
 20
34.24634516106858
 10
63.90706567907436
 20
34.42848768254147
 10
63.57588664515223
 20
34.65519446045777
 10
63.24470761123044
 20
34.8807118009282
 10
62.97721799675409
 20
35.16855566376727
 10
62.77213915646144
 20
35.51626787823819
 10
62.56833896142766
 20
35.86405938854389
 10
62.46770759719255
 20
36.31239801126226
 10
62.46770759719255
 20
36.86651727117837
 10
62.46770759719255
 20
37.24095218035776
 10
62.54413390932757
 20
37.6001622901758
 10
62.6982602228653
 20
37.94279957152606
 10
62.85238653640302
 20
38.28416811960593
 10
63.07529702646267
 20
38.58224114450634
 10
63.36953411559192
 20
38.83701864624333
 10
63.66122878217157
 20
39.09179614797518
 10
64.02043393600194
 20
39.29304896446815
 10
64.44459724255681
 20
39.4407770957261
 10
64.87003423838064
 20
39.59112198937371
 10
65.35279716329087
 20
39.66494640708754
 10
65.89414483859219
 20
39.66494640708754
 10
66.35907115774841
 20
39.66494640708754
 10
66.76922883832954
 20
39.61530721751639
 10
67.12842408018329
 20
39.51468080927086
 10
67.48762923401367
 20
39.41786060086407
 10
67.80225526342573
 20
39.29304896446815
 10
68.07229225644256
 20
39.14270407082057
 10
68.34232924945938
 20
38.99497593956775
 10
68.56906080732558
 20
38.83067497984458
 10
68.75120828478421
 20
38.65487612476852
 10
68.93463440749946
 20
38.47780853642016
 10
69.08621334250216
 20
38.30716391029889
 10
69.20721877905548
 20
38.14024618818607
 10
69.20721877905548
 20
38.14024618818607
 10
68.64421343018941
 20
37.66129937509343
 10
68.64421343018941
 20
37.66129937509343
 10
68.54485575522229
 20
37.79380270699516
 10
68.4174818723229
 20
37.93518717184923
 10
68.26335555878549
 20
38.0829153031091
 10
68.10795555597656
 20
38.23326019675477
 10
67.92071332144179
 20
38.37083846177524
 10
67.70035020992101
 20
38.4969188314441
 10
67.47871340913097
 20
38.62299920111937
 10
67.21758728500917
 20
38.73004857159328
 10
66.9144343709969
 20
38.81029595153485
 10
66.60873407844672
 20
38.89434953131516
 10
66.25971843876801
 20
38.93510758793013
 10
65.86102891759548
 20
38.93510758793013
 10
65.40883949113268
 20
38.93510758793013
 10
65.02033948411181
 20
38.87523923629314
 10
64.69425520726808
 20
38.7542337997411
 10
64.36817093042018
 20
38.63322836318585
 10
64.10068131594544
 20
38.4714648700227
 10
63.89050771857696
 20
38.27401825336846
 10
63.6816127664651
 20
38.07530290342971
 10
63.52620780766692
 20
37.85113359206699
 10
63.42812877796026
 20
37.60269975673388
 10
63.32750236971249
 20
37.35434521723041
 10
63.27782353222877
 20
37.09703024893855
 10
63.27782353222877
 20
36.83210288096922
 10
63.27782353222877
 20
36.43594091437623
 10
63.36953411559192
 20
36.10733899492862
 10
63.55168654903981
 20
35.84621782679288
 10
63.73256033722852
 20
35.5876341252223
 10
63.97330247705741
 20
35.37234594681834
 10
64.27136558998056
 20
35.20170132069579
 10
64.56942870290788
 20
35.03097739874616
 10
64.90315511536502
 20
34.88959293388504
 10
65.27382347261857
 20
34.77881665940203
 10
65.64321318461198
 20
34.66922982236812
 10
66.01642892040247
 20
34.5647972142768
 10
66.39218707874322
 20
34.46417080603256
 10
66.77814466321416
 20
34.36481313106575
 10
67.16409233570657
 20
34.24000149466984
 10
67.55131865345751
 20
34.09219406758289
 10
67.93727128193951
 20
33.94319720305008
 10
68.28246089782176
 20
33.74448185311134
 10
68.585618767823
 20
33.49485858032722
 10
68.8887766378242
 20
33.24769347827283
 10
69.13843460253355
 20
32.93439565401107
 10
69.33204528341535
 20
32.55988144900268
 10
69.52438723101716
 20
32.18409851072071
 10
69.62119257145613
 20
31.72045579281328
 10
69.62119257145613
 20
31.16768456200488
 10
69.62119257145613
 20
30.69381268202905
 10
69.52183985247668
 20
30.26585308761591
 10
69.32312945853138
 20
29.88499521620878
 10
69.12442402057504
 20
29.50413734480101
 10
68.85693440609675
 20
29.18187909175279
 10
68.52066061510074
 20
28.91687242795446
 10
68.18310817884359
 20
28.65067632670512
 10
67.78187127913219
 20
28.44688604364828
 10
67.31949233851548
 20
28.30296411222843
 10
66.85456601935992
 20
28.15904218081435
 10
66.35907115774841
 20
28.08767593383024
 10
65.82790804060916
 20
28.08767593383024
 10
65.36426036671405
 20
28.08767593383024
 10
64.93372365782481
 20
28.13739441922461
 10
64.53630782591964
 20
28.2367520941972
 10
64.13889199401831
 20
28.33737850244336
 10
63.77713946164714
 20
28.46472760539158
 10
63.45233383006195
 20
28.62649109855666
 10
63.12624955321567
 20
28.78698585843981
 10
62.83964468772289
 20
28.96785964663461
 10
62.58999167900282
 20
29.17164992968824
 10
62.34160244757187
 20
29.37670894602316
 10
62.14034963107697
 20
29.58819092458325
 10
61.98622331753925
 20
29.80982276938595
 10
61.98622331753925
 20
29.80982276938595
 10
62.56579158289039
 20
30.37282316226083
 10
62.56579158289039
 20
30.37282316226083
 97
        0
 97
        1
330
99
 75
     2
 76
     1
 98
        1
 10
0.0
 20
0.0
450
        0
451
        0
460
0.0
461
0.0
452
        0
462
0.0
453
        0
470

  0
LWPOLYLINE
  5
9B
330
8C
100
AcDbEntity
  8
图层 1
100
AcDbPolyline
 90
        4
 70
     1
 43
0.0
 10
72.96572713246423
 20
39.39930537664439
 10
73.76183248554193
 20
39.39930537664439
 10
73.76183248554193
 20
28.35196893516054
 10
72.96572713246423
 20
28.35196893516054
  0
HATCH
  5
9C
330
8C
100
AcDbEntity
  8
图层 1
 62
   250
420
  2170655
440
 33554687
100
AcDbHatch
 10
0.0
 20
0.0
 30
0.0
210
0.0
220
0.0
230
1.0
  2
SOLID
 70
     1
 71
     1
 91
        1
 92
        1
 93
        4
 72
     1
 10
72.96572713246423
 20
39.39930537664439
 11
73.76183248554193
 21
39.39930537664439
 72
     1
 10
73.76183248554193
 20
39.39930537664439
 11
73.76183248554193
 21
28.35196893516054
 72
     1
 10
73.76183248554193
 20
28.35196893516054
 11
72.96572713246423
 21
28.35196893516054
 72
     1
 10
72.96572713246423
 20
28.35196893516054
 11
72.96572713246423
 21
39.39930537664439
 97
        1
330
9B
 75
     2
 76
     1
 98
        1
 10
0.0
 20
0.0
450
        0
451
        0
460
0.0
461
0.0
452
        0
462
0.0
453
        0
470

  0
SPLINE
  5
9D
330
8C
100
AcDbEntity
  8
图层 1
100
AcDbSpline
210
0.0
220
0.0
230
1.0
 70
    11
 71
     3
 72
   113
 73
   109
 74
     0
 42
0.0000000001
 43
0.0000000001
 40
0.0
 40
0.0
 40
0.0
 40
0.0
 40
1.0
 40
1.0
 40
1.0
 40
2.0
 40
2.0
 40
2.0
 40
3.0
 40
3.0
 40
3.0
 40
4.0
 40
4.0
 40
4.0
 40
5.0
 40
5.0
 40
5.0
 40
6.0
 40
6.0
 40
6.0
 40
7.0
 40
7.0
 40
7.0
 40
8.0
 40
8.0
 40
8.0
 40
9.0
 40
9.0
 40
9.0
 40
10.0
 40
10.0
 40
10.0
 40
11.0
 40
11.0
 40
11.0
 40
12.0
 40
12.0
 40
12.0
 40
13.0
 40
13.0
 40
13.0
 40
14.0
 40
14.0
 40
14.0
 40
15.0
 40
15.0
 40
15.0
 40
16.0
 40
16.0
 40
16.0
 40
17.0
 40
17.0
 40
17.0
 40
18.0
 40
18.0
 40
18.0
 40
19.0
 40
19.0
 40
19.0
 40
20.0
 40
20.0
 40
20.0
 40
21.0
 40
21.0
 40
21.0
 40
22.0
 40
22.0
 40
22.0
 40
23.0
 40
23.0
 40
23.0
 40
24.0
 40
24.0
 40
24.0
 40
25.0
 40
25.0
 40
25.0
 40
26.0
 40
26.0
 40
26.0
 40
27.0
 40
27.0
 40
27.0
 40
28.0
 40
28.0
 40
28.0
 40
29.0
 40
29.0
 40
29.0
 40
30.0
 40
30.0
 40
30.0
 40
31.0
 40
31.0
 40
31.0
 40
32.0
 40
32.0
 40
32.0
 40
33.0
 40
33.0
 40
33.0
 40
34.0
 40
34.0
 40
34.0
 40
35.0
 40
35.0
 40
35.0
 40
36.0
 40
36.0
 40
36.0
 40
36.0
 10
85.91814093328862
 20
32.84082657463232
 30
0.0
 10
85.91814093328862
 20
32.84082657463232
 30
0.0
 10
82.97063563701184
 20
32.84082657463232
 30
0.0
 10
82.97063563701184
 20
32.84082657463232
 30
0.0
 10
82.97063563701184
 20
32.84082657463232
 30
0.0
 10
82.97063563701184
 20
33.58596948897495
 30
0.0
 10
82.97063563701184
 20
33.58596948897495
 30
0.0
 10
82.97063563701184
 20
33.58596948897495
 30
0.0
 10
86.71296268511817
 20
33.58596948897495
 30
0.0
 10
86.71296268511817
 20
33.58596948897495
 30
0.0
 10
86.71296268511817
 20
33.58596948897495
 30
0.0
 10
86.71296268511817
 20
29.44625138891721
 30
0.0
 10
86.71296268511817
 20
29.44625138891721
 30
0.0
 10
86.52572540657105
 20
29.27933366680632
 30
0.0
 10
86.29899384870487
 20
29.11757017364124
 30
0.0
 10
86.03404665677684
 20
28.95707541375809
 30
0.0
 10
85.76910442083743
 20
28.79658065387302
 30
0.0
 10
85.46213043901895
 20
28.65012125589508
 30
0.0
 10
85.11438848860823
 20
28.5176179239927
 30
0.0
 10
84.76665149418868
 20
28.38519388792382
 30
0.0
 10
84.37433041935966
 20
28.2807612798325
 30
0.0
 10
83.93870390938548
 20
28.20305136645094
 30
0.0
 10
83.50307244341815
 20
28.12534145306809
 30
0.0
 10
83.01394602815207
 20
28.08838959629828
 30
0.0
 10
82.47386708613076
 20
28.08838959629828
 30
0.0
 10
81.67776173305467
 20
28.08838959629828
 30
0.0
 10
80.94916686722962
 20
28.22850532787941
 30
0.0
 10
80.28680879938729
 20
28.51127425759396
 30
0.0
 10
79.62444577555378
 20
28.79150572075428
 30
0.0
 10
79.05761935888307
 20
29.18893642062534
 30
0.0
 10
78.58887197192064
 20
29.70221832810008
 30
0.0
 10
78.12012954094971
 20
30.21557953140252
 30
0.0
 10
77.75582963003966
 20
30.82829840967882
 30
0.0
 10
77.49597719518746
 20
31.54029566709229
 30
0.0
 10
77.23612971632421
 20
32.25364095361476
 30
0.0
 10
77.10748214415779
 20
33.03573572473233
 30
0.0
 10
77.10748214415779
 20
33.88404251388049
 30
0.0
 10
77.10748214415779
 20
34.68905377986202
 30
0.0
 10
77.23612971632421
 20
35.44315712299625
 30
0.0
 10
77.49597719518746
 20
36.14500451416647
 30
0.0
 10
77.75582963003966
 20
36.84558317206374
 30
0.0
 10
78.12012954094971
 20
37.45822275450976
 30
0.0
 10
78.58887197192064
 20
37.98427129060969
 30
0.0
 10
79.05761935888307
 20
38.50786165598567
 30
0.0
 10
79.62444577555378
 20
38.91924842193294
 30
0.0
 10
80.28680879938729
 20
39.21732144683849
 30
0.0
 10
80.94916686722962
 20
39.51412573845889
 30
0.0
 10
81.67776173305467
 20
39.6656600695575
 30
0.0
 10
82.47386708613076
 20
39.6656600695575
 30
0.0
 10
83.12476690654269
 20
39.6656600695575
 30
0.0
 10
83.68521992087902
 20
39.57526282337652
 30
0.0
 10
84.15524099710848
 20
39.39946396830816
 30
0.0
 10
84.62398838407255
 20
39.22239637995723
 30
0.0
 10
85.018856837435
 20
39.01606863034166
 30
0.0
 10
85.33857266793747
 20
38.77913269035375
 30
0.0
 10
85.6582884984361
 20
38.54219675036583
 30
0.0
 10
85.90922015241664
 20
38.30652954365792
 30
0.0
 10
86.09136762987526
 20
38.07474783261774
 30
0.0
 10
86.27479375259083
 20
37.84288682574857
 30
0.0
 10
86.39835152367231
 20
37.67097346634793
 30
0.0
 10
86.46457840967649
 20
37.56265536259595
 30
0.0
 10
86.46457840967649
 20
37.56265536259595
 30
0.0
 10
85.86846209580489
 20
37.14746239680802
 30
0.0
 10
85.86846209580489
 20
37.14746239680802
 30
0.0
 10
85.80222529782183
 20
37.23405344314898
 30
0.0
 10
85.69268306469169
 20
37.37543790800817
 30
0.0
 10
85.53727810589348
 20
37.56907832482241
 30
0.0
 10
85.38187810308425
 20
37.76390817908764
 30
0.0
 10
85.16915712718043
 20
37.95881732918701
 30
0.0
 10
84.90039382343319
 20
38.15753267911997
 30
0.0
 10
84.62908809713605
 20
38.35751676233807
 30
0.0
 10
84.30045644175471
 20
38.53204688412836
 30
0.0
 10
83.91449885728185
 20
38.6873874150657
 30
0.0
 10
83.52727253953251
 20
38.84153850855202
 30
0.0
 10
83.07508806905707
 20
38.91924842193294
 30
0.0
 10
82.55666680060048
 20
38.91924842193294
 30
0.0
 10
81.83825649293813
 20
38.91924842193294
 30
0.0
 10
81.19500872012137
 20
38.78936185241894
 30
0.0
 10
80.62690365819019
 20
38.52950941757027
 30
0.0
 10
80.05752986298222
 20
38.26965698271775
 30
0.0
 10
79.57731927259851
 20
37.91425307273331
 30
0.0
 10
79.1862718870407
 20
37.4620289543485
 30
0.0
 10
78.79267712294208
 20
37.00861539850754
 30
0.0
 10
78.49334032074965
 20
36.47614390017217
 30
0.0
 10
78.28189303411125
 20
35.86350431773192
 30
0.0
 10
78.07299808200294
 20
35.2520541727369
 30
0.0
 10
77.96855060594701
 20
34.59096483817523
 30
0.0
 10
77.96855060594701
 20
33.88404251388049
 30
0.0
 10
77.96855060594701
 20
33.17712018958576
 30
0.0
 10
78.06917701419478
 20
32.5185683215841
 30
0.0
 10
78.27425089849815
 20
31.90458071002714
 30
0.0
 10
78.47932973878887
 20
31.29194112758882
 30
0.0
 10
78.77611916244467
 20
30.75820089597537
 30
0.0
 10
79.16971392654137
 20
30.2983643779041
 30
0.0
 10
79.56076131209951
 20
29.83979659312118
 30
0.0
 10
80.03587714540675
 20
29.4805864832993
 30
0.0
 10
80.59250909193812
 20
29.22208207755642
 30
0.0
 10
81.15169832898338
 20
28.96349837598391
 30
0.0
 10
81.77711445203284
 20
28.83226377736218
 30
0.0
 10
82.47386708613076
 20
28.83226377736218
 30
0.0
 10
83.32347234449873
 20
28.83226377736218
 30
0.0
 10
84.02149866786592
 20
28.92654651920896
 30
0.0
 10
84.56794605623107
 20
29.11503270708251
 30
0.0
 10
85.11438848860823
 20
29.303598190778
 30
0.0
 10
85.56402558054513
 20
29.5239613023007
 30
0.0
 10
85.91814093328862
 20
29.77739077492483
 30
0.0
 10
85.91814093328862
 20
29.77739077492483
 30
0.0
 10
85.91814093328862
 20
32.84082657463232
 30
0.0
 10
85.91814093328862
 20
32.84082657463232
 30
0.0
  0
HATCH
  5
9E
330
8C
100
AcDbEntity
  8
图层 1
 62
   250
420
  2170655
440
 33554687
100
AcDbHatch
 10
0.0
 20
0.0
 30
0.0
210
0.0
220
0.0
230
1.0
  2
SOLID
 70
     1
 71
     1
 91
        1
 92
        1
 93
        1
 72
     4
 94
        3
 73
     0
 74
     0
 95
      113
 96
      109
 40
0.0
 40
0.0
 40
0.0
 40
0.0
 40
1.0
 40
1.0
 40
1.0
 40
2.0
 40
2.0
 40
2.0
 40
3.0
 40
3.0
 40
3.0
 40
4.0
 40
4.0
 40
4.0
 40
5.0
 40
5.0
 40
5.0
 40
6.0
 40
6.0
 40
6.0
 40
7.0
 40
7.0
 40
7.0
 40
8.0
 40
8.0
 40
8.0
 40
9.0
 40
9.0
 40
9.0
 40
10.0
 40
10.0
 40
10.0
 40
11.0
 40
11.0
 40
11.0
 40
12.0
 40
12.0
 40
12.0
 40
13.0
 40
13.0
 40
13.0
 40
14.0
 40
14.0
 40
14.0
 40
15.0
 40
15.0
 40
15.0
 40
16.0
 40
16.0
 40
16.0
 40
17.0
 40
17.0
 40
17.0
 40
18.0
 40
18.0
 40
18.0
 40
19.0
 40
19.0
 40
19.0
 40
20.0
 40
20.0
 40
20.0
 40
21.0
 40
21.0
 40
21.0
 40
22.0
 40
22.0
 40
22.0
 40
23.0
 40
23.0
 40
23.0
 40
24.0
 40
24.0
 40
24.0
 40
25.0
 40
25.0
 40
25.0
 40
26.0
 40
26.0
 40
26.0
 40
27.0
 40
27.0
 40
27.0
 40
28.0
 40
28.0
 40
28.0
 40
29.0
 40
29.0
 40
29.0
 40
30.0
 40
30.0
 40
30.0
 40
31.0
 40
31.0
 40
31.0
 40
32.0
 40
32.0
 40
32.0
 40
33.0
 40
33.0
 40
33.0
 40
34.0
 40
34.0
 40
34.0
 40
35.0
 40
35.0
 40
35.0
 40
36.0
 40
36.0
 40
36.0
 40
36.0
 10
85.91814093328862
 20
32.84082657463232
 10
85.91814093328862
 20
32.84082657463232
 10
82.97063563701184
 20
32.84082657463232
 10
82.97063563701184
 20
32.84082657463232
 10
82.97063563701184
 20
32.84082657463232
 10
82.97063563701184
 20
33.58596948897495
 10
82.97063563701184
 20
33.58596948897495
 10
82.97063563701184
 20
33.58596948897495
 10
86.71296268511817
 20
33.58596948897495
 10
86.71296268511817
 20
33.58596948897495
 10
86.71296268511817
 20
33.58596948897495
 10
86.71296268511817
 20
29.44625138891721
 10
86.71296268511817
 20
29.44625138891721
 10
86.52572540657105
 20
29.27933366680632
 10
86.29899384870487
 20
29.11757017364124
 10
86.03404665677684
 20
28.95707541375809
 10
85.76910442083743
 20
28.79658065387302
 10
85.46213043901895
 20
28.65012125589508
 10
85.11438848860823
 20
28.5176179239927
 10
84.76665149418868
 20
28.38519388792382
 10
84.37433041935966
 20
28.2807612798325
 10
83.93870390938548
 20
28.20305136645094
 10
83.50307244341815
 20
28.12534145306809
 10
83.01394602815207
 20
28.08838959629828
 10
82.47386708613076
 20
28.08838959629828
 10
81.67776173305467
 20
28.08838959629828
 10
80.94916686722962
 20
28.22850532787941
 10
80.28680879938729
 20
28.51127425759396
 10
79.62444577555378
 20
28.79150572075428
 10
79.05761935888307
 20
29.18893642062534
 10
78.58887197192064
 20
29.70221832810008
 10
78.12012954094971
 20
30.21557953140252
 10
77.75582963003966
 20
30.82829840967882
 10
77.49597719518746
 20
31.54029566709229
 10
77.23612971632421
 20
32.25364095361476
 10
77.10748214415779
 20
33.03573572473233
 10
77.10748214415779
 20
33.88404251388049
 10
77.10748214415779
 20
34.68905377986202
 10
77.23612971632421
 20
35.44315712299625
 10
77.49597719518746
 20
36.14500451416647
 10
77.75582963003966
 20
36.84558317206374
 10
78.12012954094971
 20
37.45822275450976
 10
78.58887197192064
 20
37.98427129060969
 10
79.05761935888307
 20
38.50786165598567
 10
79.62444577555378
 20
38.91924842193294
 10
80.28680879938729
 20
39.21732144683849
 10
80.94916686722962
 20
39.51412573845889
 10
81.67776173305467
 20
39.6656600695575
 10
82.47386708613076
 20
39.6656600695575
 10
83.12476690654269
 20
39.6656600695575
 10
83.68521992087902
 20
39.57526282337652
 10
84.15524099710848
 20
39.39946396830816
 10
84.62398838407255
 20
39.22239637995723
 10
85.018856837435
 20
39.01606863034166
 10
85.33857266793747
 20
38.77913269035375
 10
85.6582884984361
 20
38.54219675036583
 10
85.90922015241664
 20
38.30652954365792
 10
86.09136762987526
 20
38.07474783261774
 10
86.27479375259083
 20
37.84288682574857
 10
86.39835152367231
 20
37.67097346634793
 10
86.46457840967649
 20
37.56265536259595
 10
86.46457840967649
 20
37.56265536259595
 10
85.86846209580489
 20
37.14746239680802
 10
85.86846209580489
 20
37.14746239680802
 10
85.80222529782183
 20
37.23405344314898
 10
85.69268306469169
 20
37.37543790800817
 10
85.53727810589348
 20
37.56907832482241
 10
85.38187810308425
 20
37.76390817908764
 10
85.16915712718043
 20
37.95881732918701
 10
84.90039382343319
 20
38.15753267911997
 10
84.62908809713605
 20
38.35751676233807
 10
84.30045644175471
 20
38.53204688412836
 10
83.91449885728185
 20
38.6873874150657
 10
83.52727253953251
 20
38.84153850855202
 10
83.07508806905707
 20
38.91924842193294
 10
82.55666680060048
 20
38.91924842193294
 10
81.83825649293813
 20
38.91924842193294
 10
81.19500872012137
 20
38.78936185241894
 10
80.62690365819019
 20
38.52950941757027
 10
80.05752986298222
 20
38.26965698271775
 10
79.57731927259851
 20
37.91425307273331
 10
79.1862718870407
 20
37.4620289543485
 10
78.79267712294208
 20
37.00861539850754
 10
78.49334032074965
 20
36.47614390017217
 10
78.28189303411125
 20
35.86350431773192
 10
78.07299808200294
 20
35.2520541727369
 10
77.96855060594701
 20
34.59096483817523
 10
77.96855060594701
 20
33.88404251388049
 10
77.96855060594701
 20
33.17712018958576
 10
78.06917701419478
 20
32.5185683215841
 10
78.27425089849815
 20
31.90458071002714
 10
78.47932973878887
 20
31.29194112758882
 10
78.77611916244467
 20
30.75820089597537
 10
79.16971392654137
 20
30.2983643779041
 10
79.56076131209951
 20
29.83979659312118
 10
80.03587714540675
 20
29.4805864832993
 10
80.59250909193812
 20
29.22208207755642
 10
81.15169832898338
 20
28.96349837598391
 10
81.77711445203284
 20
28.83226377736218
 10
82.47386708613076
 20
28.83226377736218
 10
83.32347234449873
 20
28.83226377736218
 10
84.02149866786592
 20
28.92654651920896
 10
84.56794605623107
 20
29.11503270708251
 10
85.11438848860823
 20
29.303598190778
 10
85.56402558054513
 20
29.5239613023007
 10
85.91814093328862
 20
29.77739077492483
 10
85.91814093328862
 20
29.77739077492483
 10
85.91814093328862
 20
32.84082657463232
 10
85.91814093328862
 20
32.84082657463232
 97
        0
 97
        1
330
9D
 75
     2
 76
     1
 98
        1
 10
0.0
 20
0.0
450
        0
451
        0
460
0.0
461
0.0
452
        0
462
0.0
453
        0
470

  0
LWPOLYLINE
  5
9F
330
8C
100
AcDbEntity
  8
图层 1
100
AcDbPolyline
 90
       10
 70
     1
 43
0.0
 10
90.47235320463533
 20
39.39970185579836
 10
91.30156952271889
 20
39.39970185579836
 10
98.39009138827064
 20
29.54457821809485
 10
98.39009138827064
 20
39.39970185579836
 10
99.16837004756899
 20
39.39970185579836
 10
99.16837004756899
 20
28.35228611847973
 10
98.34041255078691
 20
28.35228611847973
 10
91.25190059721211
 20
38.07498572011051
 10
91.25190059721211
 20
28.35228611847973
 10
90.47235320463533
 20
28.35228611847973
  0
HATCH
  5
A0
330
8C
100
AcDbEntity
  8
图层 1
 62
   250
420
  2170655
440
 33554687
100
AcDbHatch
 10
0.0
 20
0.0
 30
0.0
210
0.0
220
0.0
230
1.0
  2
SOLID
 70
     1
 71
     1
 91
        1
 92
        1
 93
       10
 72
     1
 10
90.47235320463533
 20
39.39970185579836
 11
91.30156952271889
 21
39.39970185579836
 72
     1
 10
91.30156952271889
 20
39.39970185579836
 11
98.39009138827064
 21
29.54457821809485
 72
     1
 10
98.39009138827064
 20
29.54457821809485
 11
98.39009138827064
 21
39.39970185579836
 72
     1
 10
98.39009138827064
 20
39.39970185579836
 11
99.16837004756899
 21
39.39970185579836
 72
     1
 10
99.16837004756899
 20
39.39970185579836
 11
99.16837004756899
 21
28.35228611847973
 72
     1
 10
99.16837004756899
 20
28.35228611847973
 11
98.34041255078691
 21
28.35228611847973
 72
     1
 10
98.34041255078691
 20
28.35228611847973
 11
91.25190059721211
 21
38.07498572011051
 72
     1
 10
91.25190059721211
 20
38.07498572011051
 11
91.25190059721211
 21
28.35228611847973
 72
     1
 10
91.25190059721211
 20
28.35228611847973
 11
90.47235320463533
 21
28.35228611847973
 72
     1
 10
90.47235320463533
 20
28.35228611847973
 11
90.47235320463533
 21
39.39970185579836
 97
        1
330
9F
 75
     2
 76
     1
 98
        1
 10
0.0
 20
0.0
450
        0
451
        0
460
0.0
461
0.0
452
        0
462
0.0
453
        0
470

  0
SPLINE
  5
A1
330
8C
100
AcDbEntity
  8
图层 1
100
AcDbSpline
210
0.0
220
0.0
230
1.0
 70
    11
 71
     3
 72
    14
 73
    10
 74
     0
 42
0.0000000001
 43
0.0000000001
 40
0.0
 40
0.0
 40
0.0
 40
0.0
 40
1.0
 40
1.0
 40
1.0
 40
2.0
 40
2.0
 40
2.0
 40
3.0
 40
3.0
 40
3.0
 40
3.0
 10
109.1057631088785
 20
32.65892194065543
 30
0.0
 10
109.1057631088785
 20
32.65892194065543
 30
0.0
 10
106.8027743186969
 20
38.38963157347999
 30
0.0
 10
106.8027743186969
 20
38.38963157347999
 30
0.0
 10
106.8027743186969
 20
38.38963157347999
 30
0.0
 10
104.5010740857579
 20
32.65892194065543
 30
0.0
 10
104.5010740857579
 20
32.65892194065543
 30
0.0
 10
104.5010740857579
 20
32.65892194065543
 30
0.0
 10
109.1057631088785
 20
32.65892194065543
 30
0.0
 10
109.1057631088785
 20
32.65892194065543
 30
0.0
  0
SPLINE
  5
A2
330
8C
100
AcDbEntity
  8
图层 1
100
AcDbSpline
210
0.0
220
0.0
230
1.0
 70
    11
 71
     3
 72
    29
 73
    25
 74
     0
 42
0.0000000001
 43
0.0000000001
 40
0.0
 40
0.0
 40
0.0
 40
0.0
 40
1.0
 40
1.0
 40
1.0
 40
2.0
 40
2.0
 40
2.0
 40
3.0
 40
3.0
 40
3.0
 40
4.0
 40
4.0
 40
4.0
 40
5.0
 40
5.0
 40
5.0
 40
6.0
 40
6.0
 40
6.0
 40
7.0
 40
7.0
 40
7.0
 40
8.0
 40
8.0
 40
8.0
 40
8.0
 10
106.4397580090385
 20
39.39970185579836
 30
0.0
 10
106.4397580090385
 20
39.39970185579836
 30
0.0
 10
107.2345896728467
 20
39.39970185579836
 30
0.0
 10
107.2345896728467
 20
39.39970185579836
 30
0.0
 10
107.2345896728467
 20
39.39970185579836
 30
0.0
 10
111.7564641135297
 20
28.35228611847973
 30
0.0
 10
111.7564641135297
 20
28.35228611847973
 30
0.0
 10
111.7564641135297
 20
28.35228611847973
 30
0.0
 10
110.8444530369657
 20
28.35228611847973
 30
0.0
 10
110.8444530369657
 20
28.35228611847973
 30
0.0
 10
110.8444530369657
 20
28.35228611847973
 30
0.0
 10
109.4038163098238
 20
31.91377902630574
 30
0.0
 10
109.4038163098238
 20
31.91377902630574
 30
0.0
 10
109.4038163098238
 20
31.91377902630574
 30
0.0
 10
104.2030109728328
 20
31.91377902630574
 30
0.0
 10
104.2030109728328
 20
31.91377902630574
 30
0.0
 10
104.2030109728328
 20
31.91377902630574
 30
0.0
 10
102.7789470741577
 20
28.35228611847973
 30
0.0
 10
102.7789470741577
 20
28.35228611847973
 30
0.0
 10
102.7789470741577
 20
28.35228611847973
 30
0.0
 10
101.9178736563792
 20
28.35228611847973
 30
0.0
 10
101.9178736563792
 20
28.35228611847973
 30
0.0
 10
101.9178736563792
 20
28.35228611847973
 30
0.0
 10
106.4397580090385
 20
39.39970185579836
 30
0.0
 10
106.4397580090385
 20
39.39970185579836
 30
0.0
  0
HATCH
  5
A3
330
8C
100
AcDbEntity
  8
图层 1
 62
   250
420
  2170655
440
 33554687
100
AcDbHatch
 10
0.0
 20
0.0
 30
0.0
210
0.0
220
0.0
230
1.0
  2
SOLID
 70
     1
 71
     1
 91
        2
 92
        1
 93
        1
 72
     4
 94
        3
 73
     0
 74
     0
 95
       14
 96
       10
 40
0.0
 40
0.0
 40
0.0
 40
0.0
 40
1.0
 40
1.0
 40
1.0
 40
2.0
 40
2.0
 40
2.0
 40
3.0
 40
3.0
 40
3.0
 40
3.0
 10
109.1057631088785
 20
32.65892194065543
 10
109.1057631088785
 20
32.65892194065543
 10
106.8027743186969
 20
38.38963157347999
 10
106.8027743186969
 20
38.38963157347999
 10
106.8027743186969
 20
38.38963157347999
 10
104.5010740857579
 20
32.65892194065543
 10
104.5010740857579
 20
32.65892194065543
 10
104.5010740857579
 20
32.65892194065543
 10
109.1057631088785
 20
32.65892194065543
 10
109.1057631088785
 20
32.65892194065543
 97
        0
 97
        1
330
A1
 92
        1
 93
        1
 72
     4
 94
        3
 73
     0
 74
     0
 95
       29
 96
       25
 40
0.0
 40
0.0
 40
0.0
 40
0.0
 40
1.0
 40
1.0
 40
1.0
 40
2.0
 40
2.0
 40
2.0
 40
3.0
 40
3.0
 40
3.0
 40
4.0
 40
4.0
 40
4.0
 40
5.0
 40
5.0
 40
5.0
 40
6.0
 40
6.0
 40
6.0
 40
7.0
 40
7.0
 40
7.0
 40
8.0
 40
8.0
 40
8.0
 40
8.0
 10
106.4397580090385
 20
39.39970185579836
 10
106.4397580090385
 20
39.39970185579836
 10
107.2345896728467
 20
39.39970185579836
 10
107.2345896728467
 20
39.39970185579836
 10
107.2345896728467
 20
39.39970185579836
 10
111.7564641135297
 20
28.35228611847973
 10
111.7564641135297
 20
28.35228611847973
 10
111.7564641135297
 20
28.35228611847973
 10
110.8444530369657
 20
28.35228611847973
 10
110.8444530369657
 20
28.35228611847973
 10
110.8444530369657
 20
28.35228611847973
 10
109.4038163098238
 20
31.91377902630574
 10
109.4038163098238
 20
31.91377902630574
 10
109.4038163098238
 20
31.91377902630574
 10
104.2030109728328
 20
31.91377902630574
 10
104.2030109728328
 20
31.91377902630574
 10
104.2030109728328
 20
31.91377902630574
 10
102.7789470741577
 20
28.35228611847973
 10
102.7789470741577
 20
28.35228611847973
 10
102.7789470741577
 20
28.35228611847973
 10
101.9178736563792
 20
28.35228611847973
 10
101.9178736563792
 20
28.35228611847973
 10
101.9178736563792
 20
28.35228611847973
 10
106.4397580090385
 20
39.39970185579836
 10
106.4397580090385
 20
39.39970185579836
 97
        0
 97
        1
330
A2
 75
     2
 76
     1
 98
        1
 10
0.0
 20
0.0
450
        0
451
        0
460
0.0
461
0.0
452
        0
462
0.0
453
        0
470

  0
LWPOLYLINE
  5
A4
330
8C
100
AcDbEntity
  8
图层 1
100
AcDbPolyline
 90
        8
 70
     1
 43
0.0
 10
115.8784992435035
 20
38.6873081192367
 10
111.5897148950551
 20
38.6873081192367
 10
111.5897148950551
 20
39.39930537664439
 10
120.9633740770608
 20
39.39930537664439
 10
120.9633740770608
 20
38.6873081192367
 10
116.6733209953327
 20
38.6873081192367
 10
116.6733209953327
 20
28.35323766844054
 10
115.8784992435035
 20
28.35323766844054
  0
HATCH
  5
A5
330
8C
100
AcDbEntity
  8
图层 1
 62
   250
420
  2170655
440
 33554687
100
AcDbHatch
 10
0.0
 20
0.0
 30
0.0
210
0.0
220
0.0
230
1.0
  2
SOLID
 70
     1
 71
     1
 91
        1
 92
        1
 93
        8
 72
     1
 10
115.8784992435035
 20
38.6873081192367
 11
111.5897148950551
 21
38.6873081192367
 72
     1
 10
111.5897148950551
 20
38.6873081192367
 11
111.5897148950551
 21
39.39930537664439
 72
     1
 10
111.5897148950551
 20
39.39930537664439
 11
120.9633740770608
 21
39.39930537664439
 72
     1
 10
120.9633740770608
 20
39.39930537664439
 11
120.9633740770608
 21
38.6873081192367
 72
     1
 10
120.9633740770608
 20
38.6873081192367
 11
116.6733209953327
 21
38.6873081192367
 72
     1
 10
116.6733209953327
 20
38.6873081192367
 11
116.6733209953327
 21
28.35323766844054
 72
     1
 10
116.6733209953327
 20
28.35323766844054
 11
115.8784992435035
 21
28.35323766844054
 72
     1
 10
115.8784992435035
 20
28.35323766844054
 11
115.8784992435035
 21
38.6873081192367
 97
        1
330
A4
 75
     2
 76
     1
 98
        1
 10
0.0
 20
0.0
450
        0
451
        0
460
0.0
461
0.0
452
        0
462
0.0
453
        0
470

  0
SPLINE
  5
A6
330
8C
100
AcDbEntity
  8
图层 1
100
AcDbSpline
210
0.0
220
0.0
230
1.0
 70
    11
 71
     3
 72
    71
 73
    67
 74
     0
 42
0.0000000001
 43
0.0000000001
 40
0.0
 40
0.0
 40
0.0
 40
0.0
 40
1.0
 40
1.0
 40
1.0
 40
2.0
 40
2.0
 40
2.0
 40
3.0
 40
3.0
 40
3.0
 40
4.0
 40
4.0
 40
4.0
 40
5.0
 40
5.0
 40
5.0
 40
6.0
 40
6.0
 40
6.0
 40
7.0
 40
7.0
 40
7.0
 40
8.0
 40
8.0
 40
8.0
 40
9.0
 40
9.0
 40
9.0
 40
10.0
 40
10.0
 40
10.0
 40
11.0
 40
11.0
 40
11.0
 40
12.0
 40
12.0
 40
12.0
 40
13.0
 40
13.0
 40
13.0
 40
14.0
 40
14.0
 40
14.0
 40
15.0
 40
15.0
 40
15.0
 40
16.0
 40
16.0
 40
16.0
 40
17.0
 40
17.0
 40
17.0
 40
18.0
 40
18.0
 40
18.0
 40
19.0
 40
19.0
 40
19.0
 40
20.0
 40
20.0
 40
20.0
 40
21.0
 40
21.0
 40
21.0
 40
22.0
 40
22.0
 40
22.0
 40
22.0
 10
123.7132840769981
 20
39.39970185579836
 30
0.0
 10
123.7132840769981
 20
39.39970185579836
 30
0.0
 10
124.508105828826
 20
39.39970185579836
 30
0.0
 10
124.508105828826
 20
39.39970185579836
 30
0.0
 10
124.508105828826
 20
39.39970185579836
 30
0.0
 10
124.508105828826
 20
33.17228314395979
 30
0.0
 10
124.508105828826
 20
33.17228314395979
 30
0.0
 10
124.508105828826
 20
32.5417227039389
 30
0.0
 10
124.5577846663097
 20
31.96214948259881
 30
0.0
 10
124.6571423412788
 20
31.43229474665309
 30
0.0
 10
124.7564901042693
 20
30.90236071488542
 30
0.0
 10
124.9360951591783
 20
30.44514095920381
 30
0.0
 10
125.1959376820519
 20
30.05786012557023
 30
0.0
 10
125.4557901169041
 20
29.67065858776371
 30
0.0
 10
125.8048107125718
 20
29.37131682958522
 30
0.0
 10
126.2468056688934
 20
29.15602865118126
 30
0.0
 10
126.6888006252149
 20
28.94081976860629
 30
0.0
 10
127.2518109300687
 20
28.83250166485495
 30
0.0
 10
127.9370854927772
 20
28.83250166485495
 30
0.0
 10
128.6211111461625
 20
28.83250166485495
 30
0.0
 10
129.1853901842946
 20
28.94081976860629
 30
0.0
 10
129.6261164073378
 20
29.15602865118126
 30
0.0
 10
130.0668327184024
 20
29.37131682958522
 30
0.0
 10
130.418400692607
 20
29.67065858776371
 30
0.0
 10
130.6769645702224
 20
30.05786012557023
 30
0.0
 10
130.9380956503332
 20
30.44514095920381
 30
0.0
 10
131.1176907932633
 20
30.90236071488542
 30
0.0
 10
131.2157797349527
 20
31.43229474665309
 30
0.0
 10
131.3151274979413
 20
31.96214948259881
 30
0.0
 10
131.364806335425
 20
32.5417227039389
 30
0.0
 10
131.364806335425
 20
33.17228314395979
 30
0.0
 10
131.364806335425
 20
33.17228314395979
 30
0.0
 10
131.364806335425
 20
39.39970185579836
 30
0.0
 10
131.364806335425
 20
39.39970185579836
 30
0.0
 10
131.364806335425
 20
39.39970185579836
 30
0.0
 10
132.1596379992331
 20
39.39970185579836
 30
0.0
 10
132.1596379992331
 20
39.39970185579836
 30
0.0
 10
132.1596379992331
 20
39.39970185579836
 30
0.0
 10
132.1596379992331
 20
32.75701088234286
 30
0.0
 10
132.1596379992331
 20
32.75701088234286
 30
0.0
 10
132.1596379992331
 20
32.10607141401803
 30
0.0
 10
132.0908488667219
 20
31.49596929813073
 30
0.0
 10
131.9520117804035
 20
30.92916270541712
 30
0.0
 10
131.8144434273632
 20
30.3597393503145
 30
0.0
 10
131.5826121564299
 20
29.865567737865
 30
0.0
 10
131.2565377915641
 20
29.44648927640805
 30
0.0
 10
130.9317222479985
 20
29.02614208166725
 30
0.0
 10
130.4973694272916
 20
28.69492339983384
 30
0.0
 10
129.9572855292794
 20
28.45164379344718
 30
0.0
 10
129.415942809969
 20
28.20963292034053
 30
0.0
 10
128.7421165827142
 20
28.0873587505104
 30
0.0
 10
127.9370854927772
 20
28.0873587505104
 30
0.0
 10
127.1307955815368
 20
28.0873587505104
 30
0.0
 10
126.4569792662622
 20
28.20963292034053
 30
0.0
 10
125.9168953682516
 20
28.45164379344718
 30
0.0
 10
125.374264091704
 20
28.69492339983384
 30
0.0
 10
124.9411899162544
 20
29.02614208166725
 30
0.0
 10
124.6150957274296
 20
29.44648927640805
 30
0.0
 10
124.2902900958438
 20
29.865567737865
 30
0.0
 10
124.0584687368917
 20
30.3597393503145
 30
0.0
 10
123.920900383851
 20
30.92916270541712
 30
0.0
 10
123.7820533855502
 20
31.49596929813073
 30
0.0
 10
123.7132840769981
 20
32.10607141401803
 30
0.0
 10
123.7132840769981
 20
32.75701088234286
 30
0.0
 10
123.7132840769981
 20
32.75701088234286
 30
0.0
 10
123.7132840769981
 20
39.39970185579836
 30
0.0
 10
123.7132840769981
 20
39.39970185579836
 30
0.0
  0
HATCH
  5
A7
330
8C
100
AcDbEntity
  8
图层 1
 62
   250
420
  2170655
440
 33554687
100
AcDbHatch
 10
0.0
 20
0.0
 30
0.0
210
0.0
220
0.0
230
1.0
  2
SOLID
 70
     1
 71
     1
 91
        1
 92
        1
 93
        1
 72
     4
 94
        3
 73
     0
 74
     0
 95
       71
 96
       67
 40
0.0
 40
0.0
 40
0.0
 40
0.0
 40
1.0
 40
1.0
 40
1.0
 40
2.0
 40
2.0
 40
2.0
 40
3.0
 40
3.0
 40
3.0
 40
4.0
 40
4.0
 40
4.0
 40
5.0
 40
5.0
 40
5.0
 40
6.0
 40
6.0
 40
6.0
 40
7.0
 40
7.0
 40
7.0
 40
8.0
 40
8.0
 40
8.0
 40
9.0
 40
9.0
 40
9.0
 40
10.0
 40
10.0
 40
10.0
 40
11.0
 40
11.0
 40
11.0
 40
12.0
 40
12.0
 40
12.0
 40
13.0
 40
13.0
 40
13.0
 40
14.0
 40
14.0
 40
14.0
 40
15.0
 40
15.0
 40
15.0
 40
16.0
 40
16.0
 40
16.0
 40
17.0
 40
17.0
 40
17.0
 40
18.0
 40
18.0
 40
18.0
 40
19.0
 40
19.0
 40
19.0
 40
20.0
 40
20.0
 40
20.0
 40
21.0
 40
21.0
 40
21.0
 40
22.0
 40
22.0
 40
22.0
 40
22.0
 10
123.7132840769981
 20
39.39970185579836
 10
123.7132840769981
 20
39.39970185579836
 10
124.508105828826
 20
39.39970185579836
 10
124.508105828826
 20
39.39970185579836
 10
124.508105828826
 20
39.39970185579836
 10
124.508105828826
 20
33.17228314395979
 10
124.508105828826
 20
33.17228314395979
 10
124.508105828826
 20
32.5417227039389
 10
124.5577846663097
 20
31.96214948259881
 10
124.6571423412788
 20
31.43229474665309
 10
124.7564901042693
 20
30.90236071488542
 10
124.9360951591783
 20
30.44514095920381
 10
125.1959376820519
 20
30.05786012557023
 10
125.4557901169041
 20
29.67065858776371
 10
125.8048107125718
 20
29.37131682958522
 10
126.2468056688934
 20
29.15602865118126
 10
126.6888006252149
 20
28.94081976860629
 10
127.2518109300687
 20
28.83250166485495
 10
127.9370854927772
 20
28.83250166485495
 10
128.6211111461625
 20
28.83250166485495
 10
129.1853901842946
 20
28.94081976860629
 10
129.6261164073378
 20
29.15602865118126
 10
130.0668327184024
 20
29.37131682958522
 10
130.418400692607
 20
29.67065858776371
 10
130.6769645702224
 20
30.05786012557023
 10
130.9380956503332
 20
30.44514095920381
 10
131.1176907932633
 20
30.90236071488542
 10
131.2157797349527
 20
31.43229474665309
 10
131.3151274979413
 20
31.96214948259881
 10
131.364806335425
 20
32.5417227039389
 10
131.364806335425
 20
33.17228314395979
 10
131.364806335425
 20
33.17228314395979
 10
131.364806335425
 20
39.39970185579836
 10
131.364806335425
 20
39.39970185579836
 10
131.364806335425
 20
39.39970185579836
 10
132.1596379992331
 20
39.39970185579836
 10
132.1596379992331
 20
39.39970185579836
 10
132.1596379992331
 20
39.39970185579836
 10
132.1596379992331
 20
32.75701088234286
 10
132.1596379992331
 20
32.75701088234286
 10
132.1596379992331
 20
32.10607141401803
 10
132.0908488667219
 20
31.49596929813073
 10
131.9520117804035
 20
30.92916270541712
 10
131.8144434273632
 20
30.3597393503145
 10
131.5826121564299
 20
29.865567737865
 10
131.2565377915641
 20
29.44648927640805
 10
130.9317222479985
 20
29.02614208166725
 10
130.4973694272916
 20
28.69492339983384
 10
129.9572855292794
 20
28.45164379344718
 10
129.415942809969
 20
28.20963292034053
 10
128.7421165827142
 20
28.0873587505104
 10
127.9370854927772
 20
28.0873587505104
 10
127.1307955815368
 20
28.0873587505104
 10
126.4569792662622
 20
28.20963292034053
 10
125.9168953682516
 20
28.45164379344718
 10
125.374264091704
 20
28.69492339983384
 10
124.9411899162544
 20
29.02614208166725
 10
124.6150957274296
 20
29.44648927640805
 10
124.2902900958438
 20
29.865567737865
 10
124.0584687368917
 20
30.3597393503145
 10
123.920900383851
 20
30.92916270541712
 10
123.7820533855502
 20
31.49596929813073
 10
123.7132840769981
 20
32.10607141401803
 10
123.7132840769981
 20
32.75701088234286
 10
123.7132840769981
 20
32.75701088234286
 10
123.7132840769981
 20
39.39970185579836
 10
123.7132840769981
 20
39.39970185579836
 97
        0
 97
        1
330
A6
 75
     2
 76
     1
 98
        1
 10
0.0
 20
0.0
450
        0
451
        0
460
0.0
461
0.0
452
        0
462
0.0
453
        0
470

  0
SPLINE
  5
A8
330
8C
100
AcDbEntity
  8
图层 1
100
AcDbSpline
210
0.0
220
0.0
230
1.0
 70
     9
 71
     3
 72
    23
 73
    19
 74
     0
 42
0.0000000001
 43
0.0000000001
 40
0.0
 40
0.0
 40
0.0
 40
0.0
 40
1.0
 40
1.0
 40
1.0
 40
2.0
 40
2.0
 40
2.0
 40
3.0
 40
3.0
 40
3.0
 40
4.0
 40
4.0
 40
4.0
 40
5.0
 40
5.0
 40
5.0
 40
6.0
 40
6.0
 40
6.0
 40
6.0
 10
139.5798444096223
 20
33.88420110554362
 30
0.0
 10
141.40132909619
 20
33.88420110554362
 30
0.0
 10
142.3120813514522
 20
34.67906250528639
 30
0.0
 10
142.3120813514522
 20
36.26870600893844
 30
0.0
 10
142.3120813514522
 20
37.06348811285542
 30
0.0
 10
142.0726079449059
 20
37.66090289594459
 30
0.0
 10
141.5923923985329
 20
38.05706486253565
 30
0.0
 10
141.1109180308582
 20
38.45576429568736
 30
0.0
 10
140.4077919944256
 20
38.65447964562161
 30
0.0
 10
139.4804867346549
 20
38.65447964562161
 30
0.0
 10
139.4804867346549
 20
38.65447964562161
 30
0.0
 10
136.7151437838065
 20
38.65447964562161
 30
0.0
 10
136.7151437838065
 20
38.65447964562161
 30
0.0
 10
136.7151437838065
 20
38.65447964562161
 30
0.0
 10
136.7151437838065
 20
33.88420110554362
 30
0.0
 10
136.7151437838065
 20
33.88420110554362
 30
0.0
 10
136.7151437838065
 20
33.88420110554362
 30
0.0
 10
139.5798444096223
 20
33.88420110554362
 30
0.0
 10
139.5798444096223
 20
33.88420110554362
 30
0.0
  0
SPLINE
  5
A9
330
8C
100
AcDbEntity
  8
图层 1
100
AcDbSpline
210
0.0
220
0.0
230
1.0
 70
    11
 71
     3
 72
    47
 73
    43
 74
     0
 42
0.0000000001
 43
0.0000000001
 40
0.0
 40
0.0
 40
0.0
 40
0.0
 40
1.0
 40
1.0
 40
1.0
 40
2.0
 40
2.0
 40
2.0
 40
3.0
 40
3.0
 40
3.0
 40
4.0
 40
4.0
 40
4.0
 40
5.0
 40
5.0
 40
5.0
 40
6.0
 40
6.0
 40
6.0
 40
7.0
 40
7.0
 40
7.0
 40
8.0
 40
8.0
 40
8.0
 40
9.0
 40
9.0
 40
9.0
 40
10.0
 40
10.0
 40
10.0
 40
11.0
 40
11.0
 40
11.0
 40
12.0
 40
12.0
 40
12.0
 40
13.0
 40
13.0
 40
13.0
 40
14.0
 40
14.0
 40
14.0
 40
14.0
 10
135.9190334747395
 20
39.39962255996423
 30
0.0
 10
135.9190334747395
 20
39.39962255996423
 30
0.0
 10
139.2486653757002
 20
39.39962255996423
 30
0.0
 10
139.2486653757002
 20
39.39962255996423
 30
0.0
 10
139.967065771384
 20
39.39962255996423
 30
0.0
 10
140.5733914233653
 20
39.32318137986139
 30
0.0
 10
141.070159974248
 20
39.16903028637506
 30
0.0
 10
141.5669285251294
 20
39.01242102216477
 30
0.0
 10
141.9707128033801
 20
38.79459537720081
 30
0.0
 10
142.278955518477
 20
38.51436391404113
 30
0.0
 10
142.5872180575345
 20
38.23286371760594
 30
0.0
 10
142.8126660141544
 20
37.90037630249123
 30
0.0
 10
142.9502343671948
 20
37.51951843108539
 30
0.0
 10
143.0878027202348
 20
37.13992929295827
 30
0.0
 10
143.1578605860243
 20
36.72211956478133
 30
0.0
 10
143.1578605860243
 20
36.26870600893844
 30
0.0
 10
143.1578605860243
 20
35.55155452257916
 30
0.0
 10
142.9718920407576
 20
34.91338168287953
 30
0.0
 10
142.6024924167857
 20
34.35680425223753
 30
0.0
 10
142.2318240595302
 20
33.80014752576203
 30
0.0
 10
141.6446186145555
 20
33.42690205403365
 30
0.0
 10
140.8383287033148
 20
33.23841586616716
 30
0.0
 10
140.8383287033148
 20
33.23841586616716
 30
0.0
 10
143.4724866154364
 20
28.35220682265074
 30
0.0
 10
143.4724866154364
 20
28.35220682265074
 30
0.0
 10
143.4724866154364
 20
28.35220682265074
 30
0.0
 10
142.5604656268939
 20
28.35220682265074
 30
0.0
 10
142.5604656268939
 20
28.35220682265074
 30
0.0
 10
142.5604656268939
 20
28.35220682265074
 30
0.0
 10
139.9938182020249
 20
33.13905819119394
 30
0.0
 10
139.9938182020249
 20
33.13905819119394
 30
0.0
 10
139.9938182020249
 20
33.13905819119394
 30
0.0
 10
136.7151437838065
 20
33.13905819119394
 30
0.0
 10
136.7151437838065
 20
33.13905819119394
 30
0.0
 10
136.7151437838065
 20
33.13905819119394
 30
0.0
 10
136.7151437838065
 20
28.35220682265074
 30
0.0
 10
136.7151437838065
 20
28.35220682265074
 30
0.0
 10
136.7151437838065
 20
28.35220682265074
 30
0.0
 10
135.9190334747395
 20
28.35220682265074
 30
0.0
 10
135.9190334747395
 20
28.35220682265074
 30
0.0
 10
135.9190334747395
 20
28.35220682265074
 30
0.0
 10
135.9190334747395
 20
39.39962255996423
 30
0.0
 10
135.9190334747395
 20
39.39962255996423
 30
0.0
  0
HATCH
  5
AA
330
8C
100
AcDbEntity
  8
图层 1
 62
   250
420
  2170655
440
 33554687
100
AcDbHatch
 10
0.0
 20
0.0
 30
0.0
210
0.0
220
0.0
230
1.0
  2
SOLID
 70
     1
 71
     1
 91
        2
 92
        1
 93
        1
 72
     4
 94
        3
 73
     0
 74
     0
 95
       23
 96
       19
 40
0.0
 40
0.0
 40
0.0
 40
0.0
 40
1.0
 40
1.0
 40
1.0
 40
2.0
 40
2.0
 40
2.0
 40
3.0
 40
3.0
 40
3.0
 40
4.0
 40
4.0
 40
4.0
 40
5.0
 40
5.0
 40
5.0
 40
6.0
 40
6.0
 40
6.0
 40
6.0
 10
139.5798444096223
 20
33.88420110554362
 10
141.40132909619
 20
33.88420110554362
 10
142.3120813514522
 20
34.67906250528639
 10
142.3120813514522
 20
36.26870600893844
 10
142.3120813514522
 20
37.06348811285542
 10
142.0726079449059
 20
37.66090289594459
 10
141.5923923985329
 20
38.05706486253565
 10
141.1109180308582
 20
38.45576429568736
 10
140.4077919944256
 20
38.65447964562161
 10
139.4804867346549
 20
38.65447964562161
 10
139.4804867346549
 20
38.65447964562161
 10
136.7151437838065
 20
38.65447964562161
 10
136.7151437838065
 20
38.65447964562161
 10
136.7151437838065
 20
38.65447964562161
 10
136.7151437838065
 20
33.88420110554362
 10
136.7151437838065
 20
33.88420110554362
 10
136.7151437838065
 20
33.88420110554362
 10
139.5798444096223
 20
33.88420110554362
 10
139.5798444096223
 20
33.88420110554362
 97
        0
 97
        1
330
A8
 92
        1
 93
        1
 72
     4
 94
        3
 73
     0
 74
     0
 95
       47
 96
       43
 40
0.0
 40
0.0
 40
0.0
 40
0.0
 40
1.0
 40
1.0
 40
1.0
 40
2.0
 40
2.0
 40
2.0
 40
3.0
 40
3.0
 40
3.0
 40
4.0
 40
4.0
 40
4.0
 40
5.0
 40
5.0
 40
5.0
 40
6.0
 40
6.0
 40
6.0
 40
7.0
 40
7.0
 40
7.0
 40
8.0
 40
8.0
 40
8.0
 40
9.0
 40
9.0
 40
9.0
 40
10.0
 40
10.0
 40
10.0
 40
11.0
 40
11.0
 40
11.0
 40
12.0
 40
12.0
 40
12.0
 40
13.0
 40
13.0
 40
13.0
 40
14.0
 40
14.0
 40
14.0
 40
14.0
 10
135.9190334747395
 20
39.39962255996423
 10
135.9190334747395
 20
39.39962255996423
 10
139.2486653757002
 20
39.39962255996423
 10
139.2486653757002
 20
39.39962255996423
 10
139.967065771384
 20
39.39962255996423
 10
140.5733914233653
 20
39.32318137986139
 10
141.070159974248
 20
39.16903028637506
 10
141.5669285251294
 20
39.01242102216477
 10
141.9707128033801
 20
38.79459537720081
 10
142.278955518477
 20
38.51436391404113
 10
142.5872180575345
 20
38.23286371760594
 10
142.8126660141544
 20
37.90037630249123
 10
142.9502343671948
 20
37.51951843108539
 10
143.0878027202348
 20
37.13992929295827
 10
143.1578605860243
 20
36.72211956478133
 10
143.1578605860243
 20
36.26870600893844
 10
143.1578605860243
 20
35.55155452257916
 10
142.9718920407576
 20
34.91338168287953
 10
142.6024924167857
 20
34.35680425223753
 10
142.2318240595302
 20
33.80014752576203
 10
141.6446186145555
 20
33.42690205403365
 10
140.8383287033148
 20
33.23841586616716
 10
140.8383287033148
 20
33.23841586616716
 10
143.4724866154364
 20
28.35220682265074
 10
143.4724866154364
 20
28.35220682265074
 10
143.4724866154364
 20
28.35220682265074
 10
142.5604656268939
 20
28.35220682265074
 10
142.5604656268939
 20
28.35220682265074
 10
142.5604656268939
 20
28.35220682265074
 10
139.9938182020249
 20
33.13905819119394
 10
139.9938182020249
 20
33.13905819119394
 10
139.9938182020249
 20
33.13905819119394
 10
136.7151437838065
 20
33.13905819119394
 10
136.7151437838065
 20
33.13905819119394
 10
136.7151437838065
 20
33.13905819119394
 10
136.7151437838065
 20
28.35220682265074
 10
136.7151437838065
 20
28.35220682265074
 10
136.7151437838065
 20
28.35220682265074
 10
135.9190334747395
 20
28.35220682265074
 10
135.9190334747395
 20
28.35220682265074
 10
135.9190334747395
 20
28.35220682265074
 10
135.9190334747395
 20
39.39962255996423
 10
135.9190334747395
 20
39.39962255996423
 97
        0
 97
        1
330
A9
 75
     2
 76
     1
 98
        1
 10
0.0
 20
0.0
450
        0
451
        0
460
0.0
461
0.0
452
        0
462
0.0
453
        0
470

  0
LWPOLYLINE
  5
AB
330
8C
100
AcDbEntity
  8
图层 1
100
AcDbPolyline
 90
       12
 70
     1
 43
0.0
 10
146.7841084510112
 20
39.39970185579836
 10
153.4089677747
 20
39.39970185579836
 10
153.4089677747
 20
38.65455894144868
 10
147.5789302028407
 20
38.65455894144868
 10
147.5789302028407
 20
34.48042645117665
 10
152.1339304764991
 20
34.48042645117665
 10
152.1339304764991
 20
33.73528353683467
 10
147.5789302028407
 20
33.73528353683467
 10
147.5789302028407
 20
29.09742903282428
 10
153.8382258383307
 20
29.09742903282428
 10
153.8382258383307
 20
28.35228611847973
 10
146.7841084510112
 20
28.35228611847973
  0
HATCH
  5
AC
330
8C
100
AcDbEntity
  8
图层 1
 62
   250
420
  2170655
440
 33554687
100
AcDbHatch
 10
0.0
 20
0.0
 30
0.0
210
0.0
220
0.0
230
1.0
  2
SOLID
 70
     1
 71
     1
 91
        1
 92
        1
 93
       12
 72
     1
 10
146.7841084510112
 20
39.39970185579836
 11
153.4089677747
 21
39.39970185579836
 72
     1
 10
153.4089677747
 20
39.39970185579836
 11
153.4089677747
 21
38.65455894144868
 72
     1
 10
153.4089677747
 20
38.65455894144868
 11
147.5789302028407
 21
38.65455894144868
 72
     1
 10
147.5789302028407
 20
38.65455894144868
 11
147.5789302028407
 21
34.48042645117665
 72
     1
 10
147.5789302028407
 20
34.48042645117665
 11
152.1339304764991
 21
34.48042645117665
 72
     1
 10
152.1339304764991
 20
34.48042645117665
 11
152.1339304764991
 21
33.73528353683467
 72
     1
 10
152.1339304764991
 20
33.73528353683467
 11
147.5789302028407
 21
33.73528353683467
 72
     1
 10
147.5789302028407
 20
33.73528353683467
 11
147.5789302028407
 21
29.09742903282428
 72
     1
 10
147.5789302028407
 20
29.09742903282428
 11
153.8382258383307
 21
29.09742903282428
 72
     1
 10
153.8382258383307
 20
29.09742903282428
 11
153.8382258383307
 21
28.35228611847973
 72
     1
 10
153.8382258383307
 20
28.35228611847973
 11
146.7841084510112
 21
28.35228611847973
 72
     1
 10
146.7841084510112
 20
28.35228611847973
 11
146.7841084510112
 21
39.39970185579836
 97
        1
330
AB
 75
     2
 76
     1
 98
        1
 10
0.0
 20
0.0
450
        0
451
        0
460
0.0
461
0.0
452
        0
462
0.0
453
        0
470

  0
LWPOLYLINE
  5
AD
330
8C
100
AcDbEntity
  8
图层 1
100
AcDbPolyline
 90
       12
 70
     1
 43
0.0
 10
163.3123726608814
 20
39.39970185579836
 10
164.1097517032267
 20
39.39970185579836
 10
164.1097517032267
 20
34.48042645117665
 10
171.0645114155788
 20
34.48042645117665
 10
171.0645114155788
 20
39.39970185579836
 10
171.8593529913638
 20
39.39970185579836
 10
171.8593529913638
 20
28.35228611847973
 10
171.0645114155788
 20
28.35228611847973
 10
171.0645114155788
 20
33.73528353683467
 10
164.1097517032267
 20
33.73528353683467
 10
164.1097517032267
 20
28.35228611847973
 10
163.3123726608814
 20
28.35228611847973
  0
HATCH
  5
AE
330
8C
100
AcDbEntity
  8
图层 1
 62
   250
420
  2170655
440
 33554687
100
AcDbHatch
 10
0.0
 20
0.0
 30
0.0
210
0.0
220
0.0
230
1.0
  2
SOLID
 70
     1
 71
     1
 91
        1
 92
        1
 93
       12
 72
     1
 10
163.3123726608814
 20
39.39970185579836
 11
164.1097517032267
 21
39.39970185579836
 72
     1
 10
164.1097517032267
 20
39.39970185579836
 11
164.1097517032267
 21
34.48042645117665
 72
     1
 10
164.1097517032267
 20
34.48042645117665
 11
171.0645114155788
 21
34.48042645117665
 72
     1
 10
171.0645114155788
 20
34.48042645117665
 11
171.0645114155788
 21
39.39970185579836
 72
     1
 10
171.0645114155788
 20
39.39970185579836
 11
171.8593529913638
 21
39.39970185579836
 72
     1
 10
171.8593529913638
 20
39.39970185579836
 11
171.8593529913638
 21
28.35228611847973
 72
     1
 10
171.8593529913638
 20
28.35228611847973
 11
171.0645114155788
 21
28.35228611847973
 72
     1
 10
171.0645114155788
 20
28.35228611847973
 11
171.0645114155788
 21
33.73528353683467
 72
     1
 10
171.0645114155788
 20
33.73528353683467
 11
164.1097517032267
 21
33.73528353683467
 72
     1
 10
164.1097517032267
 20
33.73528353683467
 11
164.1097517032267
 21
28.35228611847973
 72
     1
 10
164.1097517032267
 20
28.35228611847973
 11
163.3123726608814
 21
28.35228611847973
 72
     1
 10
163.3123726608814
 20
28.35228611847973
 11
163.3123726608814
 21
39.39970185579836
 97
        1
330
AD
 75
     2
 76
     1
 98
        1
 10
0.0
 20
0.0
450
        0
451
        0
460
0.0
461
0.0
452
        0
462
0.0
453
        0
470

  0
SPLINE
  5
AF
330
8C
100
AcDbEntity
  8
图层 1
100
AcDbSpline
210
0.0
220
0.0
230
1.0
 70
    11
 71
     3
 72
    14
 73
    10
 74
     0
 42
0.0000000001
 43
0.0000000001
 40
0.0
 40
0.0
 40
0.0
 40
0.0
 40
1.0
 40
1.0
 40
1.0
 40
2.0
 40
2.0
 40
2.0
 40
3.0
 40
3.0
 40
3.0
 40
3.0
 10
181.7968848203743
 20
32.65892194065543
 30
0.0
 10
181.7968848203743
 20
32.65892194065543
 30
0.0
 10
179.4938960301946
 20
38.38963157347999
 30
0.0
 10
179.4938960301946
 20
38.38963157347999
 30
0.0
 10
179.4938960301946
 20
38.38963157347999
 30
0.0
 10
177.1922156212127
 20
32.65892194065543
 30
0.0
 10
177.1922156212127
 20
32.65892194065543
 30
0.0
 10
177.1922156212127
 20
32.65892194065543
 30
0.0
 10
181.7968848203743
 20
32.65892194065543
 30
0.0
 10
181.7968848203743
 20
32.65892194065543
 30
0.0
  0
SPLINE
  5
B0
330
8C
100
AcDbEntity
  8
图层 1
100
AcDbSpline
210
0.0
220
0.0
230
1.0
 70
    11
 71
     3
 72
    29
 73
    25
 74
     0
 42
0.0000000001
 43
0.0000000001
 40
0.0
 40
0.0
 40
0.0
 40
0.0
 40
1.0
 40
1.0
 40
1.0
 40
2.0
 40
2.0
 40
2.0
 40
3.0
 40
3.0
 40
3.0
 40
4.0
 40
4.0
 40
4.0
 40
5.0
 40
5.0
 40
5.0
 40
6.0
 40
6.0
 40
6.0
 40
7.0
 40
7.0
 40
7.0
 40
8.0
 40
8.0
 40
8.0
 40
8.0
 10
179.1296109872563
 20
39.39970185579836
 30
0.0
 10
179.1296109872563
 20
39.39970185579836
 30
0.0
 10
179.9244525630429
 20
39.39970185579836
 30
0.0
 10
179.9244525630429
 20
39.39970185579836
 30
0.0
 10
179.9244525630429
 20
39.39970185579836
 30
0.0
 10
184.4463170917455
 20
28.35228611847973
 30
0.0
 10
184.4463170917455
 20
28.35228611847973
 30
0.0
 10
184.4463170917455
 20
28.35228611847973
 30
0.0
 10
183.5355648364846
 20
28.35228611847973
 30
0.0
 10
183.5355648364846
 20
28.35228611847973
 30
0.0
 10
183.5355648364846
 20
28.35228611847973
 30
0.0
 10
182.0949380213208
 20
31.91377902630574
 30
0.0
 10
182.0949380213208
 20
31.91377902630574
 30
0.0
 10
182.0949380213208
 20
31.91377902630574
 30
0.0
 10
176.8941425963071
 20
31.91377902630574
 30
0.0
 10
176.8941425963071
 20
31.91377902630574
 30
0.0
 10
176.8941425963071
 20
31.91377902630574
 30
0.0
 10
175.4700687856551
 20
28.35228611847973
 30
0.0
 10
175.4700687856551
 20
28.35228611847973
 30
0.0
 10
175.4700687856551
 20
28.35228611847973
 30
0.0
 10
174.609015191834
 20
28.35228611847973
 30
0.0
 10
174.609015191834
 20
28.35228611847973
 30
0.0
 10
174.609015191834
 20
28.35228611847973
 30
0.0
 10
179.1296109872563
 20
39.39970185579836
 30
0.0
 10
179.1296109872563
 20
39.39970185579836
 30
0.0
  0
HATCH
  5
B1
330
8C
100
AcDbEntity
  8
图层 1
 62
   250
420
  2170655
440
 33554687
100
AcDbHatch
 10
0.0
 20
0.0
 30
0.0
210
0.0
220
0.0
230
1.0
  2
SOLID
 70
     1
 71
     1
 91
        2
 92
        1
 93
        1
 72
     4
 94
        3
 73
     0
 74
     0
 95
       14
 96
       10
 40
0.0
 40
0.0
 40
0.0
 40
0.0
 40
1.0
 40
1.0
 40
1.0
 40
2.0
 40
2.0
 40
2.0
 40
3.0
 40
3.0
 40
3.0
 40
3.0
 10
181.7968848203743
 20
32.65892194065543
 10
181.7968848203743
 20
32.65892194065543
 10
179.4938960301946
 20
38.38963157347999
 10
179.4938960301946
 20
38.38963157347999
 10
179.4938960301946
 20
38.38963157347999
 10
177.1922156212127
 20
32.65892194065543
 10
177.1922156212127
 20
32.65892194065543
 10
177.1922156212127
 20
32.65892194065543
 10
181.7968848203743
 20
32.65892194065543
 10
181.7968848203743
 20
32.65892194065543
 97
        0
 97
        1
330
AF
 92
        1
 93
        1
 72
     4
 94
        3
 73
     0
 74
     0
 95
       29
 96
       25
 40
0.0
 40
0.0
 40
0.0
 40
0.0
 40
1.0
 40
1.0
 40
1.0
 40
2.0
 40
2.0
 40
2.0
 40
3.0
 40
3.0
 40
3.0
 40
4.0
 40
4.0
 40
4.0
 40
5.0
 40
5.0
 40
5.0
 40
6.0
 40
6.0
 40
6.0
 40
7.0
 40
7.0
 40
7.0
 40
8.0
 40
8.0
 40
8.0
 40
8.0
 10
179.1296109872563
 20
39.39970185579836
 10
179.1296109872563
 20
39.39970185579836
 10
179.9244525630429
 20
39.39970185579836
 10
179.9244525630429
 20
39.39970185579836
 10
179.9244525630429
 20
39.39970185579836
 10
184.4463170917455
 20
28.35228611847973
 10
184.4463170917455
 20
28.35228611847973
 10
184.4463170917455
 20
28.35228611847973
 10
183.5355648364846
 20
28.35228611847973
 10
183.5355648364846
 20
28.35228611847973
 10
183.5355648364846
 20
28.35228611847973
 10
182.0949380213208
 20
31.91377902630574
 10
182.0949380213208
 20
31.91377902630574
 10
182.0949380213208
 20
31.91377902630574
 10
176.8941425963071
 20
31.91377902630574
 10
176.8941425963071
 20
31.91377902630574
 10
176.8941425963071
 20
31.91377902630574
 10
175.4700687856551
 20
28.35228611847973
 10
175.4700687856551
 20
28.35228611847973
 10
175.4700687856551
 20
28.35228611847973
 10
174.609015191834
 20
28.35228611847973
 10
174.609015191834
 20
28.35228611847973
 10
174.609015191834
 20
28.35228611847973
 10
179.1296109872563
 20
39.39970185579836
 10
179.1296109872563
 20
39.39970185579836
 97
        0
 97
        1
330
B0
 75
     2
 76
     1
 98
        1
 10
0.0
 20
0.0
450
        0
451
        0
460
0.0
461
0.0
452
        0
462
0.0
453
        0
470

  0
SPLINE
  5
B2
330
8C
100
AcDbEntity
  8
图层 1
100
AcDbSpline
210
0.0
220
0.0
230
1.0
 70
     9
 71
     3
 72
    23
 73
    19
 74
     0
 42
0.0000000001
 43
0.0000000001
 40
0.0
 40
0.0
 40
0.0
 40
0.0
 40
1.0
 40
1.0
 40
1.0
 40
2.0
 40
2.0
 40
2.0
 40
3.0
 40
3.0
 40
3.0
 40
4.0
 40
4.0
 40
4.0
 40
5.0
 40
5.0
 40
5.0
 40
6.0
 40
6.0
 40
6.0
 40
6.0
 10
190.8569289948003
 20
33.88420110554362
 30
0.0
 10
192.678413681368
 20
33.88420110554362
 30
0.0
 10
193.5891461126731
 20
34.67906250528639
 30
0.0
 10
193.5891461126731
 20
36.26870600893844
 30
0.0
 10
193.5891461126731
 20
37.06348811285542
 30
0.0
 10
193.3484039728465
 20
37.66090289594459
 30
0.0
 10
192.8682082504306
 20
38.05706486253565
 30
0.0
 10
192.3879927040579
 20
38.45576429568736
 30
0.0
 10
191.6848765796035
 20
38.65447964562161
 30
0.0
 10
190.7575713198313
 20
38.65447964562161
 30
0.0
 10
190.7575713198313
 20
38.65447964562161
 30
0.0
 10
187.9909398117474
 20
38.65447964562161
 30
0.0
 10
187.9909398117474
 20
38.65447964562161
 30
0.0
 10
187.9909398117474
 20
38.65447964562161
 30
0.0
 10
187.9909398117474
 20
33.88420110554362
 30
0.0
 10
187.9909398117474
 20
33.88420110554362
 30
0.0
 10
187.9909398117474
 20
33.88420110554362
 30
0.0
 10
190.8569289948003
 20
33.88420110554362
 30
0.0
 10
190.8569289948003
 20
33.88420110554362
 30
0.0
  0
SPLINE
  5
B3
330
8C
100
AcDbEntity
  8
图层 1
100
AcDbSpline
210
0.0
220
0.0
230
1.0
 70
    11
 71
     3
 72
    47
 73
    43
 74
     0
 42
0.0000000001
 43
0.0000000001
 40
0.0
 40
0.0
 40
0.0
 40
0.0
 40
1.0
 40
1.0
 40
1.0
 40
2.0
 40
2.0
 40
2.0
 40
3.0
 40
3.0
 40
3.0
 40
4.0
 40
4.0
 40
4.0
 40
5.0
 40
5.0
 40
5.0
 40
6.0
 40
6.0
 40
6.0
 40
7.0
 40
7.0
 40
7.0
 40
8.0
 40
8.0
 40
8.0
 40
9.0
 40
9.0
 40
9.0
 40
10.0
 40
10.0
 40
10.0
 40
11.0
 40
11.0
 40
11.0
 40
12.0
 40
12.0
 40
12.0
 40
13.0
 40
13.0
 40
13.0
 40
14.0
 40
14.0
 40
14.0
 40
14.0
 10
187.1960982359604
 20
39.39962255996423
 30
0.0
 10
187.1960982359604
 20
39.39962255996423
 30
0.0
 10
190.5257301369211
 20
39.39962255996423
 30
0.0
 10
190.5257301369211
 20
39.39962255996423
 30
0.0
 10
191.2428617993246
 20
39.39962255996423
 30
0.0
 10
191.8504660965645
 20
39.32318137986139
 30
0.0
 10
192.3472346474475
 20
39.16903028637506
 30
0.0
 10
192.8440031983289
 20
39.01242102216477
 30
0.0
 10
193.2465088313206
 20
38.79459537720081
 30
0.0
 10
193.5560202796994
 20
38.51436391404113
 30
0.0
 10
193.8642828187534
 20
38.23286371760594
 30
0.0
 10
194.0884521301149
 20
37.90037630249123
 30
0.0
 10
194.2260303951353
 20
37.51951843108539
 30
0.0
 10
194.3648773934323
 20
37.13992929295827
 30
0.0
 10
194.4336665259438
 20
36.72211956478133
 30
0.0
 10
194.4336665259438
 20
36.26870600893844
 30
0.0
 10
194.4336665259438
 20
35.55155452257916
 30
0.0
 10
194.248966713957
 20
34.91338168287953
 30
0.0
 10
193.8782983567032
 20
34.35680425223753
 30
0.0
 10
193.5088987327315
 20
33.80014752576203
 30
0.0
 10
192.9204245544746
 20
33.42690205403365
 30
0.0
 10
192.1153934645354
 20
33.23841586616716
 30
0.0
 10
192.1153934645354
 20
33.23841586616716
 30
0.0
 10
194.7482727313985
 20
28.35220682265074
 30
0.0
 10
194.7482727313985
 20
28.35220682265074
 30
0.0
 10
194.7482727313985
 20
28.35220682265074
 30
0.0
 10
193.837540300093
 20
28.35220682265074
 30
0.0
 10
193.837540300093
 20
28.35220682265074
 30
0.0
 10
193.837540300093
 20
28.35220682265074
 30
0.0
 10
191.2708928752224
 20
33.13905819119394
 30
0.0
 10
191.2708928752224
 20
33.13905819119394
 30
0.0
 10
191.2708928752224
 20
33.13905819119394
 30
0.0
 10
187.9909398117474
 20
33.13905819119394
 30
0.0
 10
187.9909398117474
 20
33.13905819119394
 30
0.0
 10
187.9909398117474
 20
33.13905819119394
 30
0.0
 10
187.9909398117474
 20
28.35220682265074
 30
0.0
 10
187.9909398117474
 20
28.35220682265074
 30
0.0
 10
187.9909398117474
 20
28.35220682265074
 30
0.0
 10
187.1960982359604
 20
28.35220682265074
 30
0.0
 10
187.1960982359604
 20
28.35220682265074
 30
0.0
 10
187.1960982359604
 20
28.35220682265074
 30
0.0
 10
187.1960982359604
 20
39.39962255996423
 30
0.0
 10
187.1960982359604
 20
39.39962255996423
 30
0.0
  0
HATCH
  5
B4
330
8C
100
AcDbEntity
  8
图层 1
 62
   250
420
  2170655
440
 33554687
100
AcDbHatch
 10
0.0
 20
0.0
 30
0.0
210
0.0
220
0.0
230
1.0
  2
SOLID
 70
     1
 71
     1
 91
        2
 92
        1
 93
        1
 72
     4
 94
        3
 73
     0
 74
     0
 95
       23
 96
       19
 40
0.0
 40
0.0
 40
0.0
 40
0.0
 40
1.0
 40
1.0
 40
1.0
 40
2.0
 40
2.0
 40
2.0
 40
3.0
 40
3.0
 40
3.0
 40
4.0
 40
4.0
 40
4.0
 40
5.0
 40
5.0
 40
5.0
 40
6.0
 40
6.0
 40
6.0
 40
6.0
 10
190.8569289948003
 20
33.88420110554362
 10
192.678413681368
 20
33.88420110554362
 10
193.5891461126731
 20
34.67906250528639
 10
193.5891461126731
 20
36.26870600893844
 10
193.5891461126731
 20
37.06348811285542
 10
193.3484039728465
 20
37.66090289594459
 10
192.8682082504306
 20
38.05706486253565
 10
192.3879927040579
 20
38.45576429568736
 10
191.6848765796035
 20
38.65447964562161
 10
190.7575713198313
 20
38.65447964562161
 10
190.7575713198313
 20
38.65447964562161
 10
187.9909398117474
 20
38.65447964562161
 10
187.9909398117474
 20
38.65447964562161
 10
187.9909398117474
 20
38.65447964562161
 10
187.9909398117474
 20
33.88420110554362
 10
187.9909398117474
 20
33.88420110554362
 10
187.9909398117474
 20
33.88420110554362
 10
190.8569289948003
 20
33.88420110554362
 10
190.8569289948003
 20
33.88420110554362
 97
        0
 97
        1
330
B2
 92
        1
 93
        1
 72
     4
 94
        3
 73
     0
 74
     0
 95
       47
 96
       43
 40
0.0
 40
0.0
 40
0.0
 40
0.0
 40
1.0
 40
1.0
 40
1.0
 40
2.0
 40
2.0
 40
2.0
 40
3.0
 40
3.0
 40
3.0
 40
4.0
 40
4.0
 40
4.0
 40
5.0
 40
5.0
 40
5.0
 40
6.0
 40
6.0
 40
6.0
 40
7.0
 40
7.0
 40
7.0
 40
8.0
 40
8.0
 40
8.0
 40
9.0
 40
9.0
 40
9.0
 40
10.0
 40
10.0
 40
10.0
 40
11.0
 40
11.0
 40
11.0
 40
12.0
 40
12.0
 40
12.0
 40
13.0
 40
13.0
 40
13.0
 40
14.0
 40
14.0
 40
14.0
 40
14.0
 10
187.1960982359604
 20
39.39962255996423
 10
187.1960982359604
 20
39.39962255996423
 10
190.5257301369211
 20
39.39962255996423
 10
190.5257301369211
 20
39.39962255996423
 10
191.2428617993246
 20
39.39962255996423
 10
191.8504660965645
 20
39.32318137986139
 10
192.3472346474475
 20
39.16903028637506
 10
192.8440031983289
 20
39.01242102216477
 10
193.2465088313206
 20
38.79459537720081
 10
193.5560202796994
 20
38.51436391404113
 10
193.8642828187534
 20
38.23286371760594
 10
194.0884521301149
 20
37.90037630249123
 10
194.2260303951353
 20
37.51951843108539
 10
194.3648773934323
 20
37.13992929295827
 10
194.4336665259438
 20
36.72211956478133
 10
194.4336665259438
 20
36.26870600893844
 10
194.4336665259438
 20
35.55155452257916
 10
194.248966713957
 20
34.91338168287953
 10
193.8782983567032
 20
34.35680425223753
 10
193.5088987327315
 20
33.80014752576203
 10
192.9204245544746
 20
33.42690205403365
 10
192.1153934645354
 20
33.23841586616716
 10
192.1153934645354
 20
33.23841586616716
 10
194.7482727313985
 20
28.35220682265074
 10
194.7482727313985
 20
28.35220682265074
 10
194.7482727313985
 20
28.35220682265074
 10
193.837540300093
 20
28.35220682265074
 10
193.837540300093
 20
28.35220682265074
 10
193.837540300093
 20
28.35220682265074
 10
191.2708928752224
 20
33.13905819119394
 10
191.2708928752224
 20
33.13905819119394
 10
191.2708928752224
 20
33.13905819119394
 10
187.9909398117474
 20
33.13905819119394
 10
187.9909398117474
 20
33.13905819119394
 10
187.9909398117474
 20
33.13905819119394
 10
187.9909398117474
 20
28.35220682265074
 10
187.9909398117474
 20
28.35220682265074
 10
187.9909398117474
 20
28.35220682265074
 10
187.1960982359604
 20
28.35220682265074
 10
187.1960982359604
 20
28.35220682265074
 10
187.1960982359604
 20
28.35220682265074
 10
187.1960982359604
 20
39.39962255996423
 10
187.1960982359604
 20
39.39962255996423
 97
        0
 97
        1
330
B3
 75
     2
 76
     1
 98
        1
 10
0.0
 20
0.0
450
        0
451
        0
460
0.0
461
0.0
452
        0
462
0.0
453
        0
470

  0
SPLINE
  5
B5
330
8C
100
AcDbEntity
  8
图层 1
100
AcDbSpline
210
0.0
220
0.0
230
1.0
 70
     9
 71
     3
 72
    38
 73
    34
 74
     0
 42
0.0000000001
 43
0.0000000001
 40
0.0
 40
0.0
 40
0.0
 40
0.0
 40
1.0
 40
1.0
 40
1.0
 40
2.0
 40
2.0
 40
2.0
 40
3.0
 40
3.0
 40
3.0
 40
4.0
 40
4.0
 40
4.0
 40
5.0
 40
5.0
 40
5.0
 40
6.0
 40
6.0
 40
6.0
 40
7.0
 40
7.0
 40
7.0
 40
8.0
 40
8.0
 40
8.0
 40
9.0
 40
9.0
 40
9.0
 40
10.0
 40
10.0
 40
10.0
 40
11.0
 40
11.0
 40
11.0
 40
11.0
 10
201.2411540580596
 20
29.09750832865136
 30
0.0
 10
202.0245175624553
 20
29.09750832865136
 30
0.0
 10
202.7340170012226
 20
29.19559727034393
 30
0.0
 10
203.3696127264462
 20
29.38662092477043
 30
0.0
 10
204.0052480995851
 20
29.58026134158466
 30
0.0
 10
204.547849640197
 20
29.87706563321019
 30
0.0
 10
205.001322667908
 20
30.27449633308318
 30
0.0
 10
205.4535071383831
 20
30.67057900384524
 30
0.0
 10
205.8012391768137
 20
31.17117357852377
 30
0.0
 10
206.0445386071581
 20
31.77366329473232
 30
0.0
 10
206.2865494802644
 20
32.37361554437701
 30
0.0
 10
206.4075747407752
 20
33.07800040211109
 30
0.0
 10
206.4075747407752
 20
33.88435969720033
 30
0.0
 10
206.4075747407752
 20
34.68937096318187
 30
0.0
 10
206.2840120137041
 20
35.39248708763786
 30
0.0
 10
206.0356178262839
 20
35.98728510833417
 30
0.0
 10
205.7859549055855
 20
36.58469989142398
 30
0.0
 10
205.4343968433575
 20
37.08021953298248
 30
0.0
 10
204.9758488825276
 20
37.47891896613356
 30
0.0
 10
204.5172810977389
 20
37.87508093272654
 30
0.0
 10
203.963201485736
 20
38.17053719523729
 30
0.0
 10
203.3110329320475
 20
38.36417761205666
 30
0.0
 10
202.6588643783556
 20
38.55781802887089
 30
0.0
 10
201.9251598874862
 20
38.65455894144868
 30
0.0
 10
201.1086903740724
 20
38.65455894144868
 30
0.0
 10
201.1086903740724
 20
38.65455894144868
 30
0.0
 10
198.8554002453371
 20
38.65455894144868
 30
0.0
 10
198.8554002453371
 20
38.65455894144868
 30
0.0
 10
198.8554002453371
 20
38.65455894144868
 30
0.0
 10
198.8554002453371
 20
29.09750832865136
 30
0.0
 10
198.8554002453371
 20
29.09750832865136
 30
0.0
 10
198.8554002453371
 20
29.09750832865136
 30
0.0
 10
201.2411540580596
 20
29.09750832865136
 30
0.0
 10
201.2411540580596
 20
29.09750832865136
 30
0.0
  0
SPLINE
  5
B6
330
8C
100
AcDbEntity
  8
图层 1
100
AcDbSpline
210
0.0
220
0.0
230
1.0
 70
    11
 71
     3
 72
    38
 73
    34
 74
     0
 42
0.0000000001
 43
0.0000000001
 40
0.0
 40
0.0
 40
0.0
 40
0.0
 40
1.0
 40
1.0
 40
1.0
 40
2.0
 40
2.0
 40
2.0
 40
3.0
 40
3.0
 40
3.0
 40
4.0
 40
4.0
 40
4.0
 40
5.0
 40
5.0
 40
5.0
 40
6.0
 40
6.0
 40
6.0
 40
7.0
 40
7.0
 40
7.0
 40
8.0
 40
8.0
 40
8.0
 40
9.0
 40
9.0
 40
9.0
 40
10.0
 40
10.0
 40
10.0
 40
11.0
 40
11.0
 40
11.0
 40
11.0
 10
198.0618274028301
 20
39.39978115162736
 30
0.0
 10
198.0618274028301
 20
39.39978115162736
 30
0.0
 10
201.0742759838613
 20
39.39978115162736
 30
0.0
 10
201.0742759838613
 20
39.39978115162736
 30
0.0
 10
201.9799334820481
 20
39.39978115162736
 30
0.0
 10
202.8117070906468
 20
39.29273178114704
 30
0.0
 10
203.567059343102
 20
39.07617486947013
 30
0.0
 10
204.3236803288356
 20
38.86096598689517
 30
0.0
 10
204.9758488825276
 20
38.52974730506047
 30
0.0
 10
205.5222962708927
 20
38.08267741561633
 30
0.0
 10
206.0687436592594
 20
37.63560752617797
 30
0.0
 10
206.4928970538355
 20
37.06364670451662
 30
0.0
 10
206.7986023023737
 20
36.36941171302002
 30
0.0
 10
207.1017700843553
 20
35.67525601735049
 30
0.0
 10
207.2520753300884
 20
34.84605952322821
 30
0.0
 10
207.2520753300884
 20
33.88435969720033
 30
0.0
 10
207.2520753300884
 20
32.92519733773376
 30
0.0
 10
207.1017700843553
 20
32.09592154778055
 30
0.0
 10
206.7986023023737
 20
31.39922838555293
 30
0.0
 10
206.4928970538355
 20
30.7049933940544
 30
0.0
 10
206.0687436592594
 20
30.13049510583433
 30
0.0
 10
205.5222962708927
 20
29.67835028327723
 30
0.0
 10
204.9758488825276
 20
29.22485743160727
 30
0.0
 10
204.3236803288356
 20
28.89118057904092
 30
0.0
 10
203.567059343102
 20
28.67589240063761
 30
0.0
 10
202.8117070906468
 20
28.46060422223365
 30
0.0
 10
201.9799334820481
 20
28.35236541430873
 30
0.0
 10
201.0742759838613
 20
28.35236541430873
 30
0.0
 10
201.0742759838613
 20
28.35236541430873
 30
0.0
 10
198.0618274028301
 20
28.35236541430873
 30
0.0
 10
198.0618274028301
 20
28.35236541430873
 30
0.0
 10
198.0618274028301
 20
28.35236541430873
 30
0.0
 10
198.0618274028301
 20
39.39978115162736
 30
0.0
 10
198.0618274028301
 20
39.39978115162736
 30
0.0
  0
HATCH
  5
B7
330
8C
100
AcDbEntity
  8
图层 1
 62
   250
420
  2170655
440
 33554687
100
AcDbHatch
 10
0.0
 20
0.0
 30
0.0
210
0.0
220
0.0
230
1.0
  2
SOLID
 70
     1
 71
     1
 91
        2
 92
        1
 93
        1
 72
     4
 94
        3
 73
     0
 74
     0
 95
       38
 96
       34
 40
0.0
 40
0.0
 40
0.0
 40
0.0
 40
1.0
 40
1.0
 40
1.0
 40
2.0
 40
2.0
 40
2.0
 40
3.0
 40
3.0
 40
3.0
 40
4.0
 40
4.0
 40
4.0
 40
5.0
 40
5.0
 40
5.0
 40
6.0
 40
6.0
 40
6.0
 40
7.0
 40
7.0
 40
7.0
 40
8.0
 40
8.0
 40
8.0
 40
9.0
 40
9.0
 40
9.0
 40
10.0
 40
10.0
 40
10.0
 40
11.0
 40
11.0
 40
11.0
 40
11.0
 10
201.2411540580596
 20
29.09750832865136
 10
202.0245175624553
 20
29.09750832865136
 10
202.7340170012226
 20
29.19559727034393
 10
203.3696127264462
 20
29.38662092477043
 10
204.0052480995851
 20
29.58026134158466
 10
204.547849640197
 20
29.87706563321019
 10
205.001322667908
 20
30.27449633308318
 10
205.4535071383831
 20
30.67057900384524
 10
205.8012391768137
 20
31.17117357852377
 10
206.0445386071581
 20
31.77366329473232
 10
206.2865494802644
 20
32.37361554437701
 10
206.4075747407752
 20
33.07800040211109
 10
206.4075747407752
 20
33.88435969720033
 10
206.4075747407752
 20
34.68937096318187
 10
206.2840120137041
 20
35.39248708763786
 10
206.0356178262839
 20
35.98728510833417
 10
205.7859549055855
 20
36.58469989142398
 10
205.4343968433575
 20
37.08021953298248
 10
204.9758488825276
 20
37.47891896613356
 10
204.5172810977389
 20
37.87508093272654
 10
203.963201485736
 20
38.17053719523729
 10
203.3110329320475
 20
38.36417761205666
 10
202.6588643783556
 20
38.55781802887089
 10
201.9251598874862
 20
38.65455894144868
 10
201.1086903740724
 20
38.65455894144868
 10
201.1086903740724
 20
38.65455894144868
 10
198.8554002453371
 20
38.65455894144868
 10
198.8554002453371
 20
38.65455894144868
 10
198.8554002453371
 20
38.65455894144868
 10
198.8554002453371
 20
29.09750832865136
 10
198.8554002453371
 20
29.09750832865136
 10
198.8554002453371
 20
29.09750832865136
 10
201.2411540580596
 20
29.09750832865136
 10
201.2411540580596
 20
29.09750832865136
 97
        0
 97
        1
330
B5
 92
        1
 93
        1
 72
     4
 94
        3
 73
     0
 74
     0
 95
       38
 96
       34
 40
0.0
 40
0.0
 40
0.0
 40
0.0
 40
1.0
 40
1.0
 40
1.0
 40
2.0
 40
2.0
 40
2.0
 40
3.0
 40
3.0
 40
3.0
 40
4.0
 40
4.0
 40
4.0
 40
5.0
 40
5.0
 40
5.0
 40
6.0
 40
6.0
 40
6.0
 40
7.0
 40
7.0
 40
7.0
 40
8.0
 40
8.0
 40
8.0
 40
9.0
 40
9.0
 40
9.0
 40
10.0
 40
10.0
 40
10.0
 40
11.0
 40
11.0
 40
11.0
 40
11.0
 10
198.0618274028301
 20
39.39978115162736
 10
198.0618274028301
 20
39.39978115162736
 10
201.0742759838613
 20
39.39978115162736
 10
201.0742759838613
 20
39.39978115162736
 10
201.9799334820481
 20
39.39978115162736
 10
202.8117070906468
 20
39.29273178114704
 10
203.567059343102
 20
39.07617486947013
 10
204.3236803288356
 20
38.86096598689517
 10
204.9758488825276
 20
38.52974730506047
 10
205.5222962708927
 20
38.08267741561633
 10
206.0687436592594
 20
37.63560752617797
 10
206.4928970538355
 20
37.06364670451662
 10
206.7986023023737
 20
36.36941171302002
 10
207.1017700843553
 20
35.67525601735049
 10
207.2520753300884
 20
34.84605952322821
 10
207.2520753300884
 20
33.88435969720033
 10
207.2520753300884
 20
32.92519733773376
 10
207.1017700843553
 20
32.09592154778055
 10
206.7986023023737
 20
31.39922838555293
 10
206.4928970538355
 20
30.7049933940544
 10
206.0687436592594
 20
30.13049510583433
 10
205.5222962708927
 20
29.67835028327723
 10
204.9758488825276
 20
29.22485743160727
 10
204.3236803288356
 20
28.89118057904092
 10
203.567059343102
 20
28.67589240063761
 10
202.8117070906468
 20
28.46060422223365
 10
201.9799334820481
 20
28.35236541430873
 10
201.0742759838613
 20
28.35236541430873
 10
201.0742759838613
 20
28.35236541430873
 10
198.0618274028301
 20
28.35236541430873
 10
198.0618274028301
 20
28.35236541430873
 10
198.0618274028301
 20
28.35236541430873
 10
198.0618274028301
 20
39.39978115162736
 10
198.0618274028301
 20
39.39978115162736
 97
        0
 97
        1
330
B6
 75
     2
 76
     1
 98
        1
 10
0.0
 20
0.0
450
        0
451
        0
460
0.0
461
0.0
452
        0
462
0.0
453
        0
470

  0
LWPOLYLINE
  5
B8
330
8C
100
AcDbEntity
  8
图层 1
100
AcDbPolyline
 90
       13
 70
     1
 43
0.0
 10
209.6699241299933
 20
39.39970185579836
 10
210.5653722900709
 20
39.39970185579836
 10
213.2148045614434
 20
29.47955563751013
 10
216.0132931692225
 20
39.06848317395661
 10
216.9915261758014
 20
39.06848317395661
 10
219.6575312756398
 20
29.54457821809485
 10
222.2916990997396
 20
39.39970185579836
 10
223.1515037842384
 20
39.39970185579836
 10
220.0536734182734
 20
28.35228611847973
 10
219.1773157292665
 20
28.35228611847973
 10
216.4769358871319
 20
37.89284319864148
 10
213.6453412703326
 20
28.35228611847973
 10
212.71803601056
 20
28.35228611847973
  0
HATCH
  5
B9
330
8C
100
AcDbEntity
  8
图层 1
 62
   250
420
  2170655
440
 33554687
100
AcDbHatch
 10
0.0
 20
0.0
 30
0.0
210
0.0
220
0.0
230
1.0
  2
SOLID
 70
     1
 71
     1
 91
        1
 92
        1
 93
       13
 72
     1
 10
209.6699241299933
 20
39.39970185579836
 11
210.5653722900709
 21
39.39970185579836
 72
     1
 10
210.5653722900709
 20
39.39970185579836
 11
213.2148045614434
 21
29.47955563751013
 72
     1
 10
213.2148045614434
 20
29.47955563751013
 11
216.0132931692225
 21
39.06848317395661
 72
     1
 10
216.0132931692225
 20
39.06848317395661
 11
216.9915261758014
 21
39.06848317395661
 72
     1
 10
216.9915261758014
 20
39.06848317395661
 11
219.6575312756398
 21
29.54457821809485
 72
     1
 10
219.6575312756398
 20
29.54457821809485
 11
222.2916990997396
 21
39.39970185579836
 72
     1
 10
222.2916990997396
 20
39.39970185579836
 11
223.1515037842384
 21
39.39970185579836
 72
     1
 10
223.1515037842384
 20
39.39970185579836
 11
220.0536734182734
 21
28.35228611847973
 72
     1
 10
220.0536734182734
 20
28.35228611847973
 11
219.1773157292665
 21
28.35228611847973
 72
     1
 10
219.1773157292665
 20
28.35228611847973
 11
216.4769358871319
 21
37.89284319864148
 72
     1
 10
216.4769358871319
 20
37.89284319864148
 11
213.6453412703326
 21
28.35228611847973
 72
     1
 10
213.6453412703326
 20
28.35228611847973
 11
212.71803601056
 21
28.35228611847973
 72
     1
 10
212.71803601056
 20
28.35228611847973
 11
209.6699241299933
 21
39.39970185579836
 97
        1
330
B8
 75
     2
 76
     1
 98
        1
 10
0.0
 20
0.0
450
        0
451
        0
460
0.0
461
0.0
452
        0
462
0.0
453
        0
470

  0
SPLINE
  5
BA
330
8C
100
AcDbEntity
  8
图层 1
100
AcDbSpline
210
0.0
220
0.0
230
1.0
 70
    11
 71
     3
 72
    14
 73
    10
 74
     0
 42
0.0000000001
 43
0.0000000001
 40
0.0
 40
0.0
 40
0.0
 40
0.0
 40
1.0
 40
1.0
 40
1.0
 40
2.0
 40
2.0
 40
2.0
 40
3.0
 40
3.0
 40
3.0
 40
3.0
 10
231.6645454994874
 20
32.65892194065543
 30
0.0
 10
231.6645454994874
 20
32.65892194065543
 30
0.0
 10
229.3628452665467
 20
38.38963157347999
 30
0.0
 10
229.3628452665467
 20
38.38963157347999
 30
0.0
 10
229.3628452665467
 20
38.38963157347999
 30
0.0
 10
227.0598763003245
 20
32.65892194065543
 30
0.0
 10
227.0598763003245
 20
32.65892194065543
 30
0.0
 10
227.0598763003245
 20
32.65892194065543
 30
0.0
 10
231.6645454994874
 20
32.65892194065543
 30
0.0
 10
231.6645454994874
 20
32.65892194065543
 30
0.0
  0
SPLINE
  5
BB
330
8C
100
AcDbEntity
  8
图层 1
100
AcDbSpline
210
0.0
220
0.0
230
1.0
 70
    11
 71
     3
 72
    29
 73
    25
 74
     0
 42
0.0000000001
 43
0.0000000001
 40
0.0
 40
0.0
 40
0.0
 40
0.0
 40
1.0
 40
1.0
 40
1.0
 40
2.0
 40
2.0
 40
2.0
 40
3.0
 40
3.0
 40
3.0
 40
4.0
 40
4.0
 40
4.0
 40
5.0
 40
5.0
 40
5.0
 40
6.0
 40
6.0
 40
6.0
 40
7.0
 40
7.0
 40
7.0
 40
8.0
 40
8.0
 40
8.0
 40
8.0
 10
228.9985602236064
 20
39.39970185579836
 30
0.0
 10
228.9985602236064
 20
39.39970185579836
 30
0.0
 10
229.793381975436
 20
39.39970185579836
 30
0.0
 10
229.793381975436
 20
39.39970185579836
 30
0.0
 10
229.793381975436
 20
39.39970185579836
 30
0.0
 10
234.3165152374186
 20
28.35228611847973
 30
0.0
 10
234.3165152374186
 20
28.35228611847973
 30
0.0
 10
234.3165152374186
 20
28.35228611847973
 30
0.0
 10
233.404514072835
 20
28.35228611847973
 30
0.0
 10
233.404514072835
 20
28.35228611847973
 30
0.0
 10
233.404514072835
 20
28.35228611847973
 30
0.0
 10
231.9625987004339
 20
31.91377902630574
 30
0.0
 10
231.9625987004339
 20
31.91377902630574
 30
0.0
 10
231.9625987004339
 20
31.91377902630574
 30
0.0
 10
226.7630918326577
 20
31.91377902630574
 30
0.0
 10
226.7630918326577
 20
31.91377902630574
 30
0.0
 10
226.7630918326577
 20
31.91377902630574
 30
0.0
 10
225.3390180220058
 20
28.35228611847973
 30
0.0
 10
225.3390180220058
 20
28.35228611847973
 30
0.0
 10
225.3390180220058
 20
28.35228611847973
 30
0.0
 10
224.477944604227
 20
28.35228611847973
 30
0.0
 10
224.477944604227
 20
28.35228611847973
 30
0.0
 10
224.477944604227
 20
28.35228611847973
 30
0.0
 10
228.9985602236064
 20
39.39970185579836
 30
0.0
 10
228.9985602236064
 20
39.39970185579836
 30
0.0
  0
HATCH
  5
BC
330
8C
100
AcDbEntity
  8
图层 1
 62
   250
420
  2170655
440
 33554687
100
AcDbHatch
 10
0.0
 20
0.0
 30
0.0
210
0.0
220
0.0
230
1.0
  2
SOLID
 70
     1
 71
     1
 91
        2
 92
        1
 93
        1
 72
     4
 94
        3
 73
     0
 74
     0
 95
       14
 96
       10
 40
0.0
 40
0.0
 40
0.0
 40
0.0
 40
1.0
 40
1.0
 40
1.0
 40
2.0
 40
2.0
 40
2.0
 40
3.0
 40
3.0
 40
3.0
 40
3.0
 10
231.6645454994874
 20
32.65892194065543
 10
231.6645454994874
 20
32.65892194065543
 10
229.3628452665467
 20
38.38963157347999
 10
229.3628452665467
 20
38.38963157347999
 10
229.3628452665467
 20
38.38963157347999
 10
227.0598763003245
 20
32.65892194065543
 10
227.0598763003245
 20
32.65892194065543
 10
227.0598763003245
 20
32.65892194065543
 10
231.6645454994874
 20
32.65892194065543
 10
231.6645454994874
 20
32.65892194065543
 97
        0
 97
        1
330
BA
 92
        1
 93
        1
 72
     4
 94
        3
 73
     0
 74
     0
 95
       29
 96
       25
 40
0.0
 40
0.0
 40
0.0
 40
0.0
 40
1.0
 40
1.0
 40
1.0
 40
2.0
 40
2.0
 40
2.0
 40
3.0
 40
3.0
 40
3.0
 40
4.0
 40
4.0
 40
4.0
 40
5.0
 40
5.0
 40
5.0
 40
6.0
 40
6.0
 40
6.0
 40
7.0
 40
7.0
 40
7.0
 40
8.0
 40
8.0
 40
8.0
 40
8.0
 10
228.9985602236064
 20
39.39970185579836
 10
228.9985602236064
 20
39.39970185579836
 10
229.793381975436
 20
39.39970185579836
 10
229.793381975436
 20
39.39970185579836
 10
229.793381975436
 20
39.39970185579836
 10
234.3165152374186
 20
28.35228611847973
 10
234.3165152374186
 20
28.35228611847973
 10
234.3165152374186
 20
28.35228611847973
 10
233.404514072835
 20
28.35228611847973
 10
233.404514072835
 20
28.35228611847973
 10
233.404514072835
 20
28.35228611847973
 10
231.9625987004339
 20
31.91377902630574
 10
231.9625987004339
 20
31.91377902630574
 10
231.9625987004339
 20
31.91377902630574
 10
226.7630918326577
 20
31.91377902630574
 10
226.7630918326577
 20
31.91377902630574
 10
226.7630918326577
 20
31.91377902630574
 10
225.3390180220058
 20
28.35228611847973
 10
225.3390180220058
 20
28.35228611847973
 10
225.3390180220058
 20
28.35228611847973
 10
224.477944604227
 20
28.35228611847973
 10
224.477944604227
 20
28.35228611847973
 10
224.477944604227
 20
28.35228611847973
 10
228.9985602236064
 20
39.39970185579836
 10
228.9985602236064
 20
39.39970185579836
 97
        0
 97
        1
330
BB
 75
     2
 76
     1
 98
        1
 10
0.0
 20
0.0
450
        0
451
        0
460
0.0
461
0.0
452
        0
462
0.0
453
        0
470

  0
SPLINE
  5
BD
330
8C
100
AcDbEntity
  8
图层 1
100
AcDbSpline
210
0.0
220
0.0
230
1.0
 70
     9
 71
     3
 72
    23
 73
    19
 74
     0
 42
0.0000000001
 43
0.0000000001
 40
0.0
 40
0.0
 40
0.0
 40
0.0
 40
1.0
 40
1.0
 40
1.0
 40
2.0
 40
2.0
 40
2.0
 40
3.0
 40
3.0
 40
3.0
 40
4.0
 40
4.0
 40
4.0
 40
5.0
 40
5.0
 40
5.0
 40
6.0
 40
6.0
 40
6.0
 40
6.0
 10
240.7252042165954
 20
33.88420110554362
 30
0.0
 10
242.546688903163
 20
33.88420110554362
 30
0.0
 10
243.4587098917055
 20
34.67906250528639
 30
0.0
 10
243.4587098917055
 20
36.26870600893844
 30
0.0
 10
243.4587098917055
 20
37.06348811285542
 30
0.0
 10
243.2179479279241
 20
37.66090289594459
 30
0.0
 10
242.7377522055059
 20
38.05706486253565
 30
0.0
 10
242.2575366591333
 20
38.45576429568736
 30
0.0
 10
241.5531518014011
 20
38.65447964562161
 30
0.0
 10
240.6258465416279
 20
38.65447964562161
 30
0.0
 10
240.6258465416279
 20
38.65447964562161
 30
0.0
 10
237.8604837668224
 20
38.65447964562161
 30
0.0
 10
237.8604837668224
 20
38.65447964562161
 30
0.0
 10
237.8604837668224
 20
38.65447964562161
 30
0.0
 10
237.8604837668224
 20
33.88420110554362
 30
0.0
 10
237.8604837668224
 20
33.88420110554362
 30
0.0
 10
237.8604837668224
 20
33.88420110554362
 30
0.0
 10
240.7252042165954
 20
33.88420110554362
 30
0.0
 10
240.7252042165954
 20
33.88420110554362
 30
0.0
  0
SPLINE
  5
BE
330
8C
100
AcDbEntity
  8
图层 1
100
AcDbSpline
210
0.0
220
0.0
230
1.0
 70
    11
 71
     3
 72
    47
 73
    43
 74
     0
 42
0.0000000001
 43
0.0000000001
 40
0.0
 40
0.0
 40
0.0
 40
0.0
 40
1.0
 40
1.0
 40
1.0
 40
2.0
 40
2.0
 40
2.0
 40
3.0
 40
3.0
 40
3.0
 40
4.0
 40
4.0
 40
4.0
 40
5.0
 40
5.0
 40
5.0
 40
6.0
 40
6.0
 40
6.0
 40
7.0
 40
7.0
 40
7.0
 40
8.0
 40
8.0
 40
8.0
 40
9.0
 40
9.0
 40
9.0
 40
10.0
 40
10.0
 40
10.0
 40
11.0
 40
11.0
 40
11.0
 40
12.0
 40
12.0
 40
12.0
 40
13.0
 40
13.0
 40
13.0
 40
14.0
 40
14.0
 40
14.0
 40
14.0
 10
237.0643932817129
 20
39.39962255996423
 30
0.0
 10
237.0643932817129
 20
39.39962255996423
 30
0.0
 10
240.3940251826732
 20
39.39962255996423
 30
0.0
 10
240.3940251826732
 20
39.39962255996423
 30
0.0
 10
241.111156845077
 20
39.39962255996423
 30
0.0
 10
241.7187413183614
 20
39.32318137986139
 30
0.0
 10
242.2155098692428
 20
39.16903028637506
 30
0.0
 10
242.7122784201239
 20
39.01242102216477
 30
0.0
 10
243.116072610353
 20
38.79459537720081
 30
0.0
 10
243.4243153254516
 20
38.51436391404113
 30
0.0
 10
243.7325580405484
 20
38.23286371760594
 30
0.0
 10
243.9567471758692
 20
37.90037630249123
 30
0.0
 10
244.0955941741678
 20
37.51951843108539
 30
0.0
 10
244.2331724391866
 20
37.13992929295827
 30
0.0
 10
244.3019417477388
 20
36.72211956478133
 30
0.0
 10
244.3019417477388
 20
36.26870600893844
 30
0.0
 10
244.3019417477388
 20
35.55155452257916
 30
0.0
 10
244.117241935754
 20
34.91338168287953
 30
0.0
 10
243.7465735785001
 20
34.35680425223753
 30
0.0
 10
243.3771739545269
 20
33.80014752576203
 30
0.0
 10
242.7899685095496
 20
33.42690205403365
 30
0.0
 10
241.98368851029
 20
33.23841586616716
 30
0.0
 10
241.98368851029
 20
33.23841586616716
 30
0.0
 10
244.6165677771506
 20
28.35220682265074
 30
0.0
 10
244.6165677771506
 20
28.35220682265074
 30
0.0
 10
244.6165677771506
 20
28.35220682265074
 30
0.0
 10
243.7058155218899
 20
28.35220682265074
 30
0.0
 10
243.7058155218899
 20
28.35220682265074
 30
0.0
 10
243.7058155218899
 20
28.35220682265074
 30
0.0
 10
241.1391879209765
 20
33.13905819119394
 30
0.0
 10
241.1391879209765
 20
33.13905819119394
 30
0.0
 10
241.1391879209765
 20
33.13905819119394
 30
0.0
 10
237.8604837668224
 20
33.13905819119394
 30
0.0
 10
237.8604837668224
 20
33.13905819119394
 30
0.0
 10
237.8604837668224
 20
33.13905819119394
 30
0.0
 10
237.8604837668224
 20
28.35220682265074
 30
0.0
 10
237.8604837668224
 20
28.35220682265074
 30
0.0
 10
237.8604837668224
 20
28.35220682265074
 30
0.0
 10
237.0643932817129
 20
28.35220682265074
 30
0.0
 10
237.0643932817129
 20
28.35220682265074
 30
0.0
 10
237.0643932817129
 20
28.35220682265074
 30
0.0
 10
237.0643932817129
 20
39.39962255996423
 30
0.0
 10
237.0643932817129
 20
39.39962255996423
 30
0.0
  0
HATCH
  5
BF
330
8C
100
AcDbEntity
  8
图层 1
 62
   250
420
  2170655
440
 33554687
100
AcDbHatch
 10
0.0
 20
0.0
 30
0.0
210
0.0
220
0.0
230
1.0
  2
SOLID
 70
     1
 71
     1
 91
        2
 92
        1
 93
        1
 72
     4
 94
        3
 73
     0
 74
     0
 95
       23
 96
       19
 40
0.0
 40
0.0
 40
0.0
 40
0.0
 40
1.0
 40
1.0
 40
1.0
 40
2.0
 40
2.0
 40
2.0
 40
3.0
 40
3.0
 40
3.0
 40
4.0
 40
4.0
 40
4.0
 40
5.0
 40
5.0
 40
5.0
 40
6.0
 40
6.0
 40
6.0
 40
6.0
 10
240.7252042165954
 20
33.88420110554362
 10
242.546688903163
 20
33.88420110554362
 10
243.4587098917055
 20
34.67906250528639
 10
243.4587098917055
 20
36.26870600893844
 10
243.4587098917055
 20
37.06348811285542
 10
243.2179479279241
 20
37.66090289594459
 10
242.7377522055059
 20
38.05706486253565
 10
242.2575366591333
 20
38.45576429568736
 10
241.5531518014011
 20
38.65447964562161
 10
240.6258465416279
 20
38.65447964562161
 10
240.6258465416279
 20
38.65447964562161
 10
237.8604837668224
 20
38.65447964562161
 10
237.8604837668224
 20
38.65447964562161
 10
237.8604837668224
 20
38.65447964562161
 10
237.8604837668224
 20
33.88420110554362
 10
237.8604837668224
 20
33.88420110554362
 10
237.8604837668224
 20
33.88420110554362
 10
240.7252042165954
 20
33.88420110554362
 10
240.7252042165954
 20
33.88420110554362
 97
        0
 97
        1
330
BD
 92
        1
 93
        1
 72
     4
 94
        3
 73
     0
 74
     0
 95
       47
 96
       43
 40
0.0
 40
0.0
 40
0.0
 40
0.0
 40
1.0
 40
1.0
 40
1.0
 40
2.0
 40
2.0
 40
2.0
 40
3.0
 40
3.0
 40
3.0
 40
4.0
 40
4.0
 40
4.0
 40
5.0
 40
5.0
 40
5.0
 40
6.0
 40
6.0
 40
6.0
 40
7.0
 40
7.0
 40
7.0
 40
8.0
 40
8.0
 40
8.0
 40
9.0
 40
9.0
 40
9.0
 40
10.0
 40
10.0
 40
10.0
 40
11.0
 40
11.0
 40
11.0
 40
12.0
 40
12.0
 40
12.0
 40
13.0
 40
13.0
 40
13.0
 40
14.0
 40
14.0
 40
14.0
 40
14.0
 10
237.0643932817129
 20
39.39962255996423
 10
237.0643932817129
 20
39.39962255996423
 10
240.3940251826732
 20
39.39962255996423
 10
240.3940251826732
 20
39.39962255996423
 10
241.111156845077
 20
39.39962255996423
 10
241.7187413183614
 20
39.32318137986139
 10
242.2155098692428
 20
39.16903028637506
 10
242.7122784201239
 20
39.01242102216477
 10
243.116072610353
 20
38.79459537720081
 10
243.4243153254516
 20
38.51436391404113
 10
243.7325580405484
 20
38.23286371760594
 10
243.9567471758692
 20
37.90037630249123
 10
244.0955941741678
 20
37.51951843108539
 10
244.2331724391866
 20
37.13992929295827
 10
244.3019417477388
 20
36.72211956478133
 10
244.3019417477388
 20
36.26870600893844
 10
244.3019417477388
 20
35.55155452257916
 10
244.117241935754
 20
34.91338168287953
 10
243.7465735785001
 20
34.35680425223753
 10
243.3771739545269
 20
33.80014752576203
 10
242.7899685095496
 20
33.42690205403365
 10
241.98368851029
 20
33.23841586616716
 10
241.98368851029
 20
33.23841586616716
 10
244.6165677771506
 20
28.35220682265074
 10
244.6165677771506
 20
28.35220682265074
 10
244.6165677771506
 20
28.35220682265074
 10
243.7058155218899
 20
28.35220682265074
 10
243.7058155218899
 20
28.35220682265074
 10
243.7058155218899
 20
28.35220682265074
 10
241.1391879209765
 20
33.13905819119394
 10
241.1391879209765
 20
33.13905819119394
 10
241.1391879209765
 20
33.13905819119394
 10
237.8604837668224
 20
33.13905819119394
 10
237.8604837668224
 20
33.13905819119394
 10
237.8604837668224
 20
33.13905819119394
 10
237.8604837668224
 20
28.35220682265074
 10
237.8604837668224
 20
28.35220682265074
 10
237.8604837668224
 20
28.35220682265074
 10
237.0643932817129
 20
28.35220682265074
 10
237.0643932817129
 20
28.35220682265074
 10
237.0643932817129
 20
28.35220682265074
 10
237.0643932817129
 20
39.39962255996423
 10
237.0643932817129
 20
39.39962255996423
 97
        0
 97
        1
330
BE
 75
     2
 76
     1
 98
        1
 10
0.0
 20
0.0
450
        0
451
        0
460
0.0
461
0.0
452
        0
462
0.0
453
        0
470

  0
LWPOLYLINE
  5
C0
330
8C
100
AcDbEntity
  8
图层 1
100
AcDbPolyline
 90
       12
 70
     1
 43
0.0
 10
247.9295079059006
 20
39.39970185579836
 10
254.5543771415664
 20
39.39970185579836
 10
254.5543771415664
 20
38.65455894144868
 10
248.7243296577302
 20
38.65455894144868
 10
248.7243296577302
 20
34.48042645117665
 10
253.2793398433651
 20
34.48042645117665
 10
253.2793398433651
 20
33.73528353683467
 10
248.7243296577302
 20
33.73528353683467
 10
248.7243296577302
 20
29.09742903282428
 10
254.9848940264998
 20
29.09742903282428
 10
254.9848940264998
 20
28.35228611847973
 10
247.9295079059006
 20
28.35228611847973
  0
HATCH
  5
C1
330
8C
100
AcDbEntity
  8
图层 1
 62
   250
420
  2170655
440
 33554687
100
AcDbHatch
 10
0.0
 20
0.0
 30
0.0
210
0.0
220
0.0
230
1.0
  2
SOLID
 70
     1
 71
     1
 91
        1
 92
        1
 93
       12
 72
     1
 10
247.9295079059006
 20
39.39970185579836
 11
254.5543771415664
 21
39.39970185579836
 72
     1
 10
254.5543771415664
 20
39.39970185579836
 11
254.5543771415664
 21
38.65455894144868
 72
     1
 10
254.5543771415664
 20
38.65455894144868
 11
248.7243296577302
 21
38.65455894144868
 72
     1
 10
248.7243296577302
 20
38.65455894144868
 11
248.7243296577302
 21
34.48042645117665
 72
     1
 10
248.7243296577302
 20
34.48042645117665
 11
253.2793398433651
 21
34.48042645117665
 72
     1
 10
253.2793398433651
 20
34.48042645117665
 11
253.2793398433651
 21
33.73528353683467
 72
     1
 10
253.2793398433651
 20
33.73528353683467
 11
248.7243296577302
 21
33.73528353683467
 72
     1
 10
248.7243296577302
 20
33.73528353683467
 11
248.7243296577302
 21
29.09742903282428
 72
     1
 10
248.7243296577302
 20
29.09742903282428
 11
254.9848940264998
 21
29.09742903282428
 72
     1
 10
254.9848940264998
 20
29.09742903282428
 11
254.9848940264998
 21
28.35228611847973
 72
     1
 10
254.9848940264998
 20
28.35228611847973
 11
247.9295079059006
 21
28.35228611847973
 72
     1
 10
247.9295079059006
 20
28.35228611847973
 11
247.9295079059006
 21
39.39970185579836
 97
        1
330
C0
 75
     2
 76
     1
 98
        1
 10
0.0
 20
0.0
450
        0
451
        0
460
0.0
461
0.0
452
        0
462
0.0
453
        0
470

  0
ENDBLK
  5
8F
330
8C
100
AcDbEntity
  8
0
100
AcDbBlockEnd
  0
ENDSEC
  0
SECTION
  2
ENTITIES
  0
SPLINE
  5
79
330
70
100
AcDbEntity
  8
图层 1
 62
   250
420
  2299925
370
    20
100
AcDbSpline
210
0.0
220
0.0
230
1.0
 70
     9
 71
     3
 72
    29
 73
    25
 74
     0
 42
0.0000000001
 43
0.0000000001
 40
0.0
 40
0.0
 40
0.0
 40
0.0
 40
1.0
 40
1.0
 40
1.0
 40
2.0
 40
2.0
 40
2.0
 40
3.0
 40
3.0
 40
3.0
 40
4.0
 40
4.0
 40
4.0
 40
5.0
 40
5.0
 40
5.0
 40
6.0
 40
6.0
 40
6.0
 40
7.0
 40
7.0
 40
7.0
 40
8.0
 40
8.0
 40
8.0
 40
8.0
 10
217.8218001648671
 20
646.1299836980614
 30
0.0
 10
217.8218001648671
 20
646.1299836980614
 30
0.0
 10
969.1394046003889
 20
646.1299836980614
 30
0.0
 10
969.1394046003889
 20
646.1299836980614
 30
0.0
 10
975.1268327520564
 20
646.1299836980614
 30
0.0
 10
979.980602286003
 20
641.6529620013989
 30
0.0
 10
979.980602286003
 20
636.1302758592753
 30
0.0
 10
979.980602286003
 20
636.1302758592753
 30
0.0
 10
979.980602286003
 20
239.1297141901931
 30
0.0
 10
979.980602286003
 20
239.1297141901931
 30
0.0
 10
979.980602286003
 20
233.607028048069
 30
0.0
 10
975.1268327520564
 20
229.1300063514089
 30
0.0
 10
969.1394046003889
 20
229.1300063514089
 30
0.0
 10
969.1394046003889
 20
229.1300063514089
 30
0.0
 10
217.8218001648671
 20
229.1300063514089
 30
0.0
 10
217.8218001648671
 20
229.1300063514089
 30
0.0
 10
211.8343720132014
 20
229.1300063514089
 30
0.0
 10
206.9806024792519
 20
233.607028048069
 30
0.0
 10
206.9806024792519
 20
239.1297141901931
 30
0.0
 10
206.9806024792519
 20
239.1297141901931
 30
0.0
 10
206.9806024792519
 20
636.1302758592753
 30
0.0
 10
206.9806024792519
 20
636.1302758592753
 30
0.0
 10
206.9806024792519
 20
641.6529620013989
 30
0.0
 10
211.8343720132014
 20
646.1299836980614
 30
0.0
 10
217.8218001648671
 20
646.1299836980614
 30
0.0
  0
LINE
  5
7A
330
70
100
AcDbEntity
  8
图层 1
 62
   250
420
  2299925
370
     9
100
AcDbLine
 10
979.980602286003
 20
648.6300033643182
 30
0.0
 11
979.980602286003
 21
741.873407475122
 31
0.0
  0
LINE
  5
7B
330
70
100
AcDbEntity
  8
图层 1
 62
   250
420
  2299925
370
     9
100
AcDbLine
 10
206.9806024792519
 20
648.6300033643182
 30
0.0
 11
206.9806024792519
 21
741.873407475122
 31
0.0
  0
LWPOLYLINE
  5
7C
330
70
100
AcDbEntity
  8
图层 1
100
AcDbPolyline
 90
        3
 70
     1
 43
0.0
 10
976.2474968181862
 20
738.3731043347229
 10
979.980602286003
 20
739.3733878088652
 10
976.2474968181862
 20
740.3736712830075
  0
HATCH
  5
7D
330
70
100
AcDbEntity
  8
图层 1
 62
   250
420
  2299925
440
 33554687
100
AcDbHatch
 10
0.0
 20
0.0
 30
0.0
210
0.0
220
0.0
230
1.0
  2
SOLID
 70
     1
 71
     1
 91
        1
 92
        1
 93
        3
 72
     1
 10
976.2474968181862
 20
738.3731043347229
 11
979.980602286003
 21
739.3733878088652
 72
     1
 10
979.980602286003
 20
739.3733878088652
 11
976.2474968181862
 21
740.3736712830075
 72
     1
 10
976.2474968181862
 20
740.3736712830075
 11
976.2474968181862
 21
738.3731043347229
 97
        1
330
7C
 75
     0
 76
     1
 98
        1
 10
0.0
 20
0.0
450
        0
451
        0
460
0.0
461
0.0
452
        0
462
0.0
453
        0
470

  0
LINE
  5
7E
330
70
100
AcDbEntity
  8
图层 1
 62
   250
420
  2299925
370
     9
100
AcDbLine
 10
210.7137079470687
 20
739.3733878088652
 30
0.0
 11
976.2474968181862
 21
739.3733878088652
 31
0.0
  0
LWPOLYLINE
  5
7F
330
70
100
AcDbEntity
  8
图层 1
100
AcDbPolyline
 90
        3
 70
     1
 43
0.0
 10
210.7137079470687
 20
738.3731043347229
 10
206.9806024792519
 20
739.3733878088652
 10
210.7137079470687
 20
740.3736712830075
  0
HATCH
  5
80
330
70
100
AcDbEntity
  8
图层 1
 62
   250
420
  2299925
440
 33554687
100
AcDbHatch
 10
0.0
 20
0.0
 30
0.0
210
0.0
220
0.0
230
1.0
  2
SOLID
 70
     1
 71
     1
 91
        1
 92
        1
 93
        3
 72
     1
 10
210.7137079470687
 20
738.3731043347229
 11
206.9806024792519
 21
739.3733878088652
 72
     1
 10
206.9806024792519
 20
739.3733878088652
 11
210.7137079470687
 21
740.3736712830075
 72
     1
 10
210.7137079470687
 20
740.3736712830075
 11
210.7137079470687
 21
738.3731043347229
 97
        1
330
7F
 75
     0
 76
     1
 98
        1
 10
0.0
 20
0.0
450
        0
451
        0
460
0.0
461
0.0
452
        0
462
0.0
453
        0
470

  0
LINE
  5
81
330
70
100
AcDbEntity
  8
图层 1
 62
   250
420
  2299925
370
     9
100
AcDbLine
 10
234.4805946734403
 20
229.1300063514089
 30
0.0
 11
113.538886626351
 21
229.1300063514089
 31
0.0
  0
LINE
  5
82
330
70
100
AcDbEntity
  8
图层 1
 62
   250
420
  2299925
370
     9
100
AcDbLine
 10
234.4805946734403
 20
646.1299836980614
 30
0.0
 11
113.538886626351
 21
646.1299836980614
 31
0.0
  0
LINE
  5
83
330
70
100
AcDbEntity
  8
图层 1
 62
   250
420
  2299925
370
     9
100
AcDbLine
 10
116.0388847607629
 20
219.7973072774074
 30
0.0
 11
116.0388847607629
 21
229.1300063514089
 31
0.0
  0
LWPOLYLINE
  5
84
330
70
100
AcDbEntity
  8
图层 1
100
AcDbPolyline
 90
        3
 70
     1
 43
0.0
 10
117.0391843837903
 20
225.3968793517454
 10
116.0388847607629
 20
229.1300063514089
 10
115.0386174355057
 20
225.3968793517454
  0
HATCH
  5
85
330
70
100
AcDbEntity
  8
图层 1
 62
   250
420
  2299925
440
 33554687
100
AcDbHatch
 10
0.0
 20
0.0
 30
0.0
210
0.0
220
0.0
230
1.0
  2
SOLID
 70
     1
 71
     1
 91
        1
 92
        1
 93
        3
 72
     1
 10
117.0391843837903
 20
225.3968793517454
 11
116.0388847607629
 21
229.1300063514089
 72
     1
 10
116.0388847607629
 20
229.1300063514089
 11
115.0386174355057
 21
225.3968793517454
 72
     1
 10
115.0386174355057
 20
225.3968793517454
 11
117.0391843837903
 21
225.3968793517454
 97
        1
330
84
 75
     0
 76
     1
 98
        1
 10
0.0
 20
0.0
450
        0
451
        0
460
0.0
461
0.0
452
        0
462
0.0
453
        0
470

  0
LINE
  5
86
330
70
100
AcDbEntity
  8
图层 1
 62
   250
420
  2299925
370
     9
100
AcDbLine
 10
116.0388847607629
 20
646.1299836980614
 30
0.0
 11
116.0388847607629
 21
655.4627043039068
 31
0.0
  0
LWPOLYLINE
  5
87
330
70
100
AcDbEntity
  8
图层 1
100
AcDbPolyline
 90
        3
 70
     1
 43
0.0
 10
117.0391843837903
 20
649.8630891658782
 10
116.0388847607629
 20
646.1299836980614
 10
115.0386174355057
 20
649.8630891658782
  0
HATCH
  5
88
330
70
100
AcDbEntity
  8
图层 1
 62
   250
420
  2299925
440
 33554687
100
AcDbHatch
 10
0.0
 20
0.0
 30
0.0
210
0.0
220
0.0
230
1.0
  2
SOLID
 70
     1
 71
     1
 91
        1
 92
        1
 93
        3
 72
     1
 10
117.0391843837903
 20
649.8630891658782
 11
116.0388847607629
 21
646.1299836980614
 72
     1
 10
116.0388847607629
 20
646.1299836980614
 11
115.0386174355057
 21
649.8630891658782
 72
     1
 10
115.0386174355057
 20
649.8630891658782
 11
117.0391843837903
 21
649.8630891658782
 97
        1
330
87
 75
     0
 76
     1
 98
        1
 10
0.0
 20
0.0
450
        0
451
        0
460
0.0
461
0.0
452
        0
462
0.0
453
        0
470

  0
MTEXT
  5
89
330
70
100
AcDbEntity
  8
图层 1
100
AcDbMText
 10
414.9045683486192
 20
758.5878302056253
 30
0.0
 40
0.2
 41
0.0
 46
0.0
 71
     7
 72
     1
  1
\C18;\c4;\FEffra|b0|i0|c1;\H32.464472;\W1.000000;30-7/16"(773mm)
 73
     1
 44
1.0
  0
MTEXT
  5
8A
330
70
100
AcDbEntity
  8
图层 1
100
AcDbMText
 10
10.53751929606515
 20
451.2142221648352
 30
0.0
 40
0.2
 41
0.0
 46
0.0
 71
     7
 72
     1
  1
\C18;\c4;\FEffra|b0|i0|c1;\H32.464472;\W1.000000;16-7/16"
 73
     1
 44
1.0
  0
MTEXT
  5
8B
330
70
100
AcDbEntity
  8
图层 1
100
AcDbMText
 10
9.563429208398179
 20
396.1896930155487
 30
0.0
 40
0.2
 41
0.0
 46
0.0
 71
     7
 72
     1
  1
\C18;\c4;\FEffra|b0|i0|c1;\H32.464472;\W1.000000;(417mm)
 73
     1
 44
1.0
  0
INSERT
  5
8D
330
70
100
AcDbEntity
  8
图层 1
100
AcDbBlockReference
  2
Block_0
 10
0.0
 20
0.0
 30
0.0
  0
MTEXT
  5
C2
330
70
100
AcDbEntity
  8
图层 1
100
AcDbMText
 10
265.8783446600929
 20
29.09658744932308
 30
0.0
 40
0.2
 41
0.0
 46
0.0
 71
     7
 72
     1
  1
\C18;\c0;\FEffra Italic|b0|i1|c1;\H10.118033;\W1.000000;SHAT229072GB SHAT229073MG
 73
     1
 44
1.0
  0
MTEXT
  5
C3
330
70
100
AcDbEntity
  8
图层 1
100
AcDbMText
 10
756.1094571236625
 20
30.85668673273722
 30
0.0
 40
0.2
 41
0.0
 46
0.0
 71
     7
 72
     1
  1
\C250;\c1382435;\FHelvetica Neue LT Pro 77 Bold Condensed|b1|i0|c1;\H4.352424;\W1.000000;NOTE\FHelvetica Neue LT Pro 65 Medium|b0|i0|c1;: Due to the slight variations in the manufacture process it is
 73
     1
 44
1.0
  0
MTEXT
  5
C4
330
70
100
AcDbEntity
  8
图层 1
100
AcDbMText
 10
756.1094571236625
 20
23.47970377017174
 30
0.0
 40
0.2
 41
0.0
 46
0.0
 71
     7
 72
     1
  1
\C250;\c1382435;\FHelvetica Neue LT Pro 65 Medium|b0|i0|c1;\H4.352424;\W1.000000;recommended the installer use the template for cutting out the countertop.
 73
     1
 44
1.0
  0
ENDSEC
  0
SECTION
  2
OBJECTS
  0
DICTIONARY
  5
C
330
0
100
AcDbDictionary
281
     1
  3
ACAD_COLOR
350
63
  3
ACAD_DETAILVIEWSTYLE
350
6A
  3
ACAD_GROUP
350
D
  3
ACAD_LAYOUT
350
62
  3
ACAD_MATERIAL
350
10
  3
ACAD_MLEADERSTYLE
350
66
  3
ACAD_MLINESTYLE
350
5F
  3
ACAD_PLOTSETTINGS
350
61
  3
ACAD_PLOTSTYLENAME
350
E
  3
ACAD_SCALELIST
350
42
  3
ACAD_SECTIONVIEWSTYLE
350
68
  3
ACAD_TABLESTYLE
350
64
  3
ACAD_VISUALSTYLE
350
29
  3
ACDB_RECOMPOSE_DATA
350
CD
  3
AcDbVariableDictionary
350
C5
  0
DICTIONARY
  5
63
102
{ACAD_REACTORS
330
C
102
}
330
C
100
AcDbDictionary
281
     1
  0
DICTIONARY
  5
6A
102
{ACAD_REACTORS
330
C
102
}
330
C
100
AcDbDictionary
281
     1
  3
Imperial24
350
6B
  0
DICTIONARY
  5
D
102
{ACAD_REACTORS
330
C
102
}
330
C
100
AcDbDictionary
281
     1
  0
DICTIONARY
  5
62
102
{ACAD_REACTORS
330
C
102
}
330
C
100
AcDbDictionary
281
     1
  3
Layout1
350
6F
  3
Layout2
350
77
  3
Model
350
73
  0
DICTIONARY
  5
10
102
{ACAD_REACTORS
330
C
102
}
330
C
100
AcDbDictionary
281
     1
  3
ByBlock
350
19
  3
ByLayer
350
11
  3
Global
350
21
  0
DICTIONARY
  5
66
102
{ACAD_REACTORS
330
C
102
}
330
C
100
AcDbDictionary
281
     1
  3
Standard
350
67
  0
DICTIONARY
  5
5F
102
{ACAD_REACTORS
330
C
102
}
330
C
100
AcDbDictionary
281
     1
  3
Standard
350
60
  0
DICTIONARY
  5
61
102
{ACAD_REACTORS
330
C
102
}
330
C
100
AcDbDictionary
281
     1
  0
ACDBDICTIONARYWDFLT
  5
E
102
{ACAD_REACTORS
330
C
102
}
330
C
100
AcDbDictionary
281
     1
  3
Normal
350
F
100
AcDbDictionaryWithDefault
340
F
  0
DICTIONARY
  5
42
102
{ACAD_REACTORS
330
C
102
}
330
C
100
AcDbDictionary
281
     1
  3
A0
350
43
  3
A1
350
44
  3
A2
350
45
  3
A3
350
46
  3
A4
350
47
  3
A5
350
48
  3
A6
350
49
  3
A7
350
4A
  3
A8
350
4B
  3
A9
350
4C
  3
B0
350
4D
  3
B1
350
4E
  3
B2
350
4F
  3
B3
350
50
  3
B4
350
51
  3
B5
350
52
  3
B6
350
53
  0
DICTIONARY
  5
68
102
{ACAD_REACTORS
330
C
102
}
330
C
100
AcDbDictionary
281
     1
  3
Imperial24
350
69
  0
DICTIONARY
  5
64
102
{ACAD_REACTORS
330
C
102
}
330
C
100
AcDbDictionary
281
     1
  3
Standard
350
65
  0
DICTIONARY
  5
29
102
{ACAD_REACTORS
330
C
102
}
330
C
100
AcDbDictionary
281
     1
  3
2dWireframe
350
2F
  3
Basic
350
2E
  3
Brighten
350
35
  3
ColorChange
350
39
  3
Conceptual
350
32
  3
Dim
350
34
  3
EdgeColorOff
350
41
  3
Facepattern
350
38
  3
Flat
350
2A
  3
FlatWithEdges
350
2B
  3
Gouraud
350
2C
  3
GouraudWithEdges
350
2D
  3
Hidden
350
31
  3
JitterOff
350
3F
  3
Linepattern
350
37
  3
OverhangOff
350
40
  3
Realistic
350
33
  3
Shaded
350
3E
  3
Shaded with edges
350
3D
  3
Shades of Gray
350
3A
  3
Sketchy
350
3B
  3
Thicken
350
36
  3
Wireframe
350
30
  3
X-Ray
350
3C
  0
XRECORD
  5
CD
102
{ACAD_REACTORS
330
C
102
}
330
C
100
AcDbXrecord
280
     1
 90
        1
330
65
  0
DICTIONARY
  5
C5
102
{ACAD_REACTORS
330
C
102
}
330
C
100
AcDbDictionary
281
     1
  3
CANNOSCALE
350
CA
  3
CMLEADERSTYLE
350
C7
  3
CTABLESTYLE
350
C6
  3
CVIEWDETAILSTYLE
350
C8
  3
CVIEWSECTIONSTYLE
350
C9
  0
ACDBDETAILVIEWSTYLE
  5
6B
102
{ACAD_REACTORS
330
6A
102
}
330
6A
100
AcDbModelDocViewStyle
 70
     0
  3
Imperial24
290
     1
300
Imperial24
 90
        0
100
AcDbDetailViewStyle
 70
     0
 71
     0
 90
        3
 71
     1
340
55
 62
   256
 40
0.24
340
0
 62
   256
 40
0.24
300

 40
0.36
280
     3
 71
     2
340
5D
 90
       25
 62
   256
 71
     3
340
55
 62
   256
 40
0.24
 90
        1
 40
0.75
 90
        1
300
%<\AcVar ViewType \f "%tc1">% %<\AcVar ViewDetailId>%\PSCALE %<\AcVar ViewScale \f "%sn">%
 71
     4
340
5D
 90
       25
 62
   256
340
5D
 90
       25
 62
   256
280
     0
  0
LAYOUT
  5
6F
102
{ACAD_REACTORS
330
62
102
}
330
62
100
AcDbPlotSettings
  1

  2

  4

  6

 40
0.0
 41
0.0
 42
0.0
 43
0.0
 44
0.0
 45
0.0
 46
0.0
 47
0.0
 48
0.0
 49
0.0
140
0.0
141
0.0
142
1.0
143
1.0
 70
   688
 72
     0
 73
     0
 74
     5
  7

 75
    16
147
1.0
 76
     0
 77
     2
 78
   300
148
0.0
149
0.0
100
AcDbLayout
  1
Layout1
 70
     1
 71
     1
 10
0.0
 20
0.0
 11
12.0
 21
9.0
 12
0.0
 22
0.0
 32
0.0
 14
0.0
 24
0.0
 34
0.0
 15
0.0
 25
0.0
 35
0.0
146
0.0
 13
0.0
 23
0.0
 33
0.0
 16
1.0
 26
0.0
 36
0.0
 17
0.0
 27
1.0
 37
0.0
 76
     0
330
6C
  0
LAYOUT
  5
77
102
{ACAD_REACTORS
330
62
102
}
330
62
100
AcDbPlotSettings
  1

  2

  4

  6

 40
0.0
 41
0.0
 42
0.0
 43
0.0
 44
0.0
 45
0.0
 46
0.0
 47
0.0
 48
0.0
 49
0.0
140
0.0
141
0.0
142
1.0
143
1.0
 70
   688
 72
     0
 73
     0
 74
     5
  7

 75
    16
147
1.0
 76
     0
 77
     2
 78
   300
148
0.0
149
0.0
100
AcDbLayout
  1
Layout2
 70
     1
 71
     2
 10
0.0
 20
0.0
 11
12.0
 21
9.0
 12
0.0
 22
0.0
 32
0.0
 14
0.0
 24
0.0
 34
0.0
 15
0.0
 25
0.0
 35
0.0
146
0.0
 13
0.0
 23
0.0
 33
0.0
 16
1.0
 26
0.0
 36
0.0
 17
0.0
 27
1.0
 37
0.0
 76
     0
330
74
  0
LAYOUT
  5
73
102
{ACAD_REACTORS
330
62
102
}
330
62
100
AcDbPlotSettings
  1

  2

  4

  6

 40
0.0
 41
0.0
 42
0.0
 43
0.0
 44
0.0
 45
0.0
 46
0.0
 47
0.0
 48
0.0
 49
0.0
140
0.0
141
0.0
142
1.0
143
1.0
 70
  1712
 72
     0
 73
     0
 74
     0
  7

 75
     0
147
1.0
 76
     0
 77
     2
 78
   300
148
0.0
149
0.0
100
AcDbLayout
  1
Model
 70
     1
 71
     0
 10
0.0
 20
0.0
 11
12.0
 21
9.0
 12
0.0
 22
0.0
 32
0.0
 14
0.0
 24
0.0
 34
0.0
 15
0.0
 25
0.0
 35
0.0
146
0.0
 13
0.0
 23
0.0
 33
0.0
 16
1.0
 26
0.0
 36
0.0
 17
0.0
 27
1.0
 37
0.0
 76
     0
330
70
  0
MATERIAL
  5
19
102
{ACAD_XDICTIONARY
360
1A
102
}
102
{ACAD_REACTORS
330
10
102
}
330
10
100
AcDbMaterial
  1
ByBlock
 72
     0
 43
0.0208333333333333
 43
0.0
 43
0.0
 43
0.0
 43
0.0
 43
0.0208333333333333
 43
0.0
 43
0.0
 43
0.0
 43
0.0
 43
1.0
 43
0.0
 43
0.0
 43
0.0
 43
0.0
 43
1.0
 77
     0
 47
0.0208333333333333
 47
0.0
 47
0.0
 47
0.0
 47
0.0
 47
0.0208333333333333
 47
0.0
 47
0.0
 47
0.0
 47
0.0
 47
1.0
 47
0.0
 47
0.0
 47
0.0
 47
0.0
 47
1.0
171
     0
 49
0.0208333333333333
 49
0.0
 49
0.0
 49
0.0
 49
0.0
 49
0.0208333333333333
 49
0.0
 49
0.0
 49
0.0
 49
0.0
 49
1.0
 49
0.0
 49
0.0
 49
0.0
 49
0.0
 49
1.0
175
     0
142
0.0208333333333333
142
0.0
142
0.0
142
0.0
142
0.0
142
0.0208333333333333
142
0.0
142
0.0
142
0.0
142
0.0
142
1.0
142
0.0
142
0.0
142
0.0
142
0.0
142
1.0
179
     0
144
0.0208333333333333
144
0.0
144
0.0
144
0.0
144
0.0
144
0.0208333333333333
144
0.0
144
0.0
144
0.0
144
0.0
144
1.0
144
0.0
144
0.0
144
0.0
144
0.0
144
1.0
147
0.0208333333333333
147
0.0
147
0.0
147
0.0
147
0.0
147
0.0208333333333333
147
0.0
147
0.0
147
0.0
147
0.0
147
1.0
147
0.0
147
0.0
147
0.0
147
0.0
147
1.0
  0
MATERIAL
  5
11
102
{ACAD_XDICTIONARY
360
12
102
}
102
{ACAD_REACTORS
330
10
102
}
330
10
100
AcDbMaterial
  1
ByLayer
 72
     0
 43
0.0208333333333333
 43
0.0
 43
0.0
 43
0.0
 43
0.0
 43
0.0208333333333333
 43
0.0
 43
0.0
 43
0.0
 43
0.0
 43
1.0
 43
0.0
 43
0.0
 43
0.0
 43
0.0
 43
1.0
 77
     0
 47
0.0208333333333333
 47
0.0
 47
0.0
 47
0.0
 47
0.0
 47
0.0208333333333333
 47
0.0
 47
0.0
 47
0.0
 47
0.0
 47
1.0
 47
0.0
 47
0.0
 47
0.0
 47
0.0
 47
1.0
171
     0
 49
0.0208333333333333
 49
0.0
 49
0.0
 49
0.0
 49
0.0
 49
0.0208333333333333
 49
0.0
 49
0.0
 49
0.0
 49
0.0
 49
1.0
 49
0.0
 49
0.0
 49
0.0
 49
0.0
 49
1.0
175
     0
142
0.0208333333333333
142
0.0
142
0.0
142
0.0
142
0.0
142
0.0208333333333333
142
0.0
142
0.0
142
0.0
142
0.0
142
1.0
142
0.0
142
0.0
142
0.0
142
0.0
142
1.0
179
     0
144
0.0208333333333333
144
0.0
144
0.0
144
0.0
144
0.0
144
0.0208333333333333
144
0.0
144
0.0
144
0.0
144
0.0
144
1.0
144
0.0
144
0.0
144
0.0
144
0.0
144
1.0
147
0.0208333333333333
147
0.0
147
0.0
147
0.0
147
0.0
147
0.0208333333333333
147
0.0
147
0.0
147
0.0
147
0.0
147
1.0
147
0.0
147
0.0
147
0.0
147
0.0
147
1.0
  0
MATERIAL
  5
21
102
{ACAD_XDICTIONARY
360
22
102
}
102
{ACAD_REACTORS
330
10
102
}
330
10
100
AcDbMaterial
  1
Global
 72
     0
 43
0.0208333333333333
 43
0.0
 43
0.0
 43
0.0
 43
0.0
 43
0.0208333333333333
 43
0.0
 43
0.0
 43
0.0
 43
0.0
 43
1.0
 43
0.0
 43
0.0
 43
0.0
 43
0.0
 43
1.0
 77
     0
 47
0.0208333333333333
 47
0.0
 47
0.0
 47
0.0
 47
0.0
 47
0.0208333333333333
 47
0.0
 47
0.0
 47
0.0
 47
0.0
 47
1.0
 47
0.0
 47
0.0
 47
0.0
 47
0.0
 47
1.0
171
     0
 49
0.0208333333333333
 49
0.0
 49
0.0
 49
0.0
 49
0.0
 49
0.0208333333333333
 49
0.0
 49
0.0
 49
0.0
 49
0.0
 49
1.0
 49
0.0
 49
0.0
 49
0.0
 49
0.0
 49
1.0
175
     0
142
0.0208333333333333
142
0.0
142
0.0
142
0.0
142
0.0
142
0.0208333333333333
142
0.0
142
0.0
142
0.0
142
0.0
142
1.0
142
0.0
142
0.0
142
0.0
142
0.0
142
1.0
179
     0
144
0.0208333333333333
144
0.0
144
0.0
144
0.0
144
0.0
144
0.0208333333333333
144
0.0
144
0.0
144
0.0
144
0.0
144
1.0
144
0.0
144
0.0
144
0.0
144
0.0
144
1.0
147
0.0208333333333333
147
0.0
147
0.0
147
0.0
147
0.0
147
0.0208333333333333
147
0.0
147
0.0
147
0.0
147
0.0
147
1.0
147
0.0
147
0.0
147
0.0
147
0.0
147
1.0
  0
MLEADERSTYLE
  5
67
102
{ACAD_REACTORS
330
66
102
}
330
66
100
AcDbMLeaderStyle
179
     2
170
     2
171
     1
172
     0
 90
        2
 40
0.0
 41
0.0
173
     1
 91
-1056964608
340
5B
 92
       -2
290
     1
 42
0.09
291
     1
 43
0.36
  3
Standard
 44
0.18
300

342
55
174
     1
178
     6
175
     1
176
     0
 93
-1056964608
 45
0.18
292
     0
297
     0
 46
0.18
 94
-1056964608
 47
1.0
 49
1.0
140
1.0
293
     1
141
0.0
294
     1
177
     0
142
1.0
295
     1
296
     0
143
0.125
271
     0
272
     9
273
     9
298
     1
  0
MLINESTYLE
  5
60
102
{ACAD_REACTORS
330
5F
102
}
330
5F
100
AcDbMlineStyle
  2
STANDARD
 70
     0
  3

 62
   256
 51
90.0
 52
90.0
 71
     2
 49
0.5
 62
   256
  6
BYLAYER
 49
-0.5
 62
   256
  6
BYLAYER
  0
ACDBPLACEHOLDER
  5
F
102
{ACAD_REACTORS
330
E
102
}
330
E
  0
SCALE
  5
43
102
{ACAD_REACTORS
330
42
102
}
330
42
100
AcDbScale
 70
     0
300
1:1
140
1.0
141
1.0
290
     1
  0
SCALE
  5
44
102
{ACAD_REACTORS
330
42
102
}
330
42
100
AcDbScale
 70
     0
300
1/128" = 1'-0"
140
0.0078125
141
12.0
290
     0
  0
SCALE
  5
45
102
{ACAD_REACTORS
330
42
102
}
330
42
100
AcDbScale
 70
     0
300
1/64" = 1'-0"
140
0.015625
141
12.0
290
     0
  0
SCALE
  5
46
102
{ACAD_REACTORS
330
42
102
}
330
42
100
AcDbScale
 70
     0
300
1/32" = 1'-0"
140
0.03125
141
12.0
290
     0
  0
SCALE
  5
47
102
{ACAD_REACTORS
330
42
102
}
330
42
100
AcDbScale
 70
     0
300
1/16" = 1'-0"
140
0.0625
141
12.0
290
     0
  0
SCALE
  5
48
102
{ACAD_REACTORS
330
42
102
}
330
42
100
AcDbScale
 70
     0
300
3/32" = 1'-0"
140
0.09375
141
12.0
290
     0
  0
SCALE
  5
49
102
{ACAD_REACTORS
330
42
102
}
330
42
100
AcDbScale
 70
     0
300
1/8" = 1'-0"
140
0.125
141
12.0
290
     0
  0
SCALE
  5
4A
102
{ACAD_REACTORS
330
42
102
}
330
42
100
AcDbScale
 70
     0
300
3/16" = 1'-0"
140
0.1875
141
12.0
290
     0
  0
SCALE
  5
4B
102
{ACAD_REACTORS
330
42
102
}
330
42
100
AcDbScale
 70
     0
300
1/4" = 1'-0"
140
0.25
141
12.0
290
     0
  0
SCALE
  5
4C
102
{ACAD_REACTORS
330
42
102
}
330
42
100
AcDbScale
 70
     0
300
3/8" = 1'-0"
140
0.375
141
12.0
290
     0
  0
SCALE
  5
4D
102
{ACAD_REACTORS
330
42
102
}
330
42
100
AcDbScale
 70
     0
300
1/2" = 1'-0"
140
0.5
141
12.0
290
     0
  0
SCALE
  5
4E
102
{ACAD_REACTORS
330
42
102
}
330
42
100
AcDbScale
 70
     0
300
3/4" = 1'-0"
140
0.75
141
12.0
290
     0
  0
SCALE
  5
4F
102
{ACAD_REACTORS
330
42
102
}
330
42
100
AcDbScale
 70
     0
300
1" = 1'-0"
140
1.0
141
12.0
290
     0
  0
SCALE
  5
50
102
{ACAD_REACTORS
330
42
102
}
330
42
100
AcDbScale
 70
     0
300
1-1/2" = 1'-0"
140
1.5
141
12.0
290
     0
  0
SCALE
  5
51
102
{ACAD_REACTORS
330
42
102
}
330
42
100
AcDbScale
 70
     0
300
3" = 1'-0"
140
3.0
141
12.0
290
     0
  0
SCALE
  5
52
102
{ACAD_REACTORS
330
42
102
}
330
42
100
AcDbScale
 70
     0
300
6" = 1'-0"
140
6.0
141
12.0
290
     0
  0
SCALE
  5
53
102
{ACAD_REACTORS
330
42
102
}
330
42
100
AcDbScale
 70
     0
300
1'-0" = 1'-0"
140
12.0
141
12.0
290
     0
  0
ACDBSECTIONVIEWSTYLE
  5
69
102
{ACAD_REACTORS
330
68
102
}
330
68
100
AcDbModelDocViewStyle
 70
     0
  3
Imperial24
290
     1
300
Imperial24
 90
        0
100
AcDbSectionViewStyle
 70
     0
 71
     0
 90
       78
 71
     1
340
55
 62
   256
 40
0.24
340
0
340
0
 62
   256
 40
0.24
300
I, O, Q, S, X, Z
 40
0.48
 90
        3
 40
0.18
 90
        1
 71
     2
340
5D
 90
       25
 62
   256
340
5D
 90
       50
 62
   256
 40
0.24
 40
0.0
 40
0.24
 71
     3
340
55
 62
   256
 40
0.24
 90
        1
 40
0.75
 90
        1
300
%<\AcVar ViewType \f "%tc1">% %<\AcVar ViewSectionStartId>%-%<\AcVar ViewSectionEndId>%\PSCALE %<\AcVar ViewScale \f "%sn">%
 71
     4
 62
   256
 62
   257
300
ANSI31
 40
1.0
 90
        0
290
     0
290
     0
 90
        6
 40
0.0
 40
1.570796326794896
 40
0.2617993877991494
 40
1.308996938995747
 40
-0.2617993877991494
 40
1.832595714594046
  0
TABLESTYLE
  5
65
102
{ACAD_XDICTIONARY
360
CB
102
}
102
{ACAD_REACTORS
330
64
102
}
330
64
100
AcDbTableStyle
280
     0
  3
Standard
 70
     0
 71
     0
 40
0.06
 41
0.06
280
     0
281
     0
  7
Standard
140
0.18
170
     2
 62
     0
 63
     7
283
     0
 90
      512
 91
        0
  1

274
    -2
284
     1
 64
     0
275
    -2
285
     1
 65
     0
276
    -2
286
     1
 66
     0
277
    -2
287
     1
 67
     0
278
    -2
288
     1
 68
     0
279
    -2
289
     1
 69
     0
  7
Standard
140
0.25
170
     5
 62
     0
 63
     7
283
     0
 90
      512
 91
        0
  1

274
    -2
284
     1
 64
     0
275
    -2
285
     1
 65
     0
276
    -2
286
     1
 66
     0
277
    -2
287
     1
 67
     0
278
    -2
288
     1
 68
     0
279
    -2
289
     1
 69
     0
  7
Standard
140
0.18
170
     5
 62
     0
 63
     7
283
     0
 90
      512
 91
        0
  1

274
    -2
284
     1
 64
     0
275
    -2
285
     1
 65
     0
276
    -2
286
     1
 66
     0
277
    -2
287
     1
 67
     0
278
    -2
288
     1
 68
     0
279
    -2
289
     1
 69
     0
  0
VISUALSTYLE
  5
2F
102
{ACAD_REACTORS
330
29
102
}
330
29
100
AcDbVisualStyle
  2
2dWireframe
 70
     4
177
     3
291
     0
 70
    58
 90
        0
176
     1
 90
        2
176
     1
 90
        0
176
     1
 90
        0
176
     1
 40
0.6
176
     1
 40
30.0
176
     1
 62
     7
420
 16777215
176
     1
 90
        1
176
     1
 90
        4
176
     1
 62
     7
176
     1
 62
   257
176
     1
 90
        1
176
     1
 90
        1
176
     1
 40
1.0
176
     1
 90
        0
176
     1
 62
   257
176
     1
 40
1.0
176
     1
 90
        1
176
     1
 90
        6
176
     1
 90
        2
176
     1
 62
     7
176
     1
 90
        5
176
     1
 90
        0
176
     1
 90
        0
176
     1
290
     0
176
     1
 90
        1
176
     1
 40
0.0
176
     1
 90
        0
176
     1
290
     1
176
     1
290
     1
176
     1
290
     0
176
     1
290
     0
176
     1
290
     0
176
     1
290
     0
176
     1
290
     0
176
     1
290
     0
176
     1
290
     0
176
     1
 90
       50
176
     1
 40
0.0
176
     1
 40
1.0
176
     1
 90
        0
176
     1
 62
    18
420
        0
176
     1
 90
       50
176
     1
 90
        3
176
     1
 62
     5
420
      255
176
     1
290
     0
176
     1
 90
       50
176
     1
 90
       50
176
     1
 90
       50
176
     1
290
     0
176
     1
 90
       50
176
     1
 62
   256
176
     0
 40
1.0
176
     0
 90
        2
176
     1
  1
strokes_ogs.tif
176
     1
290
     0
176
     1
 40
1.0
176
     1
 40
1.0
176
     1
  0
VISUALSTYLE
  5
2E
102
{ACAD_REACTORS
330
29
102
}
330
29
100
AcDbVisualStyle
  2
Basic
 70
     7
177
     3
291
     1
 70
    58
 90
        1
176
     1
 90
        0
176
     1
 90
        1
176
     1
 90
        0
176
     1
 40
0.6
176
     1
 40
30.0
176
     1
 62
     7
420
 16777215
176
     1
 90
        0
176
     1
 90
        4
176
     1
 62
     7
176
     1
 62
   257
176
     1
 90
        1
176
     1
 90
        1
176
     1
 40
1.0
176
     1
 90
        8
176
     1
 62
     7
176
     1
 40
1.0
176
     1
 90
        1
176
     1
 90
        6
176
     1
 90
        2
176
     1
 62
     7
176
     1
 90
        5
176
     1
 90
        0
176
     1
 90
        0
176
     1
290
     0
176
     1
 90
        1
176
     1
 40
0.0
176
     1
 90
        0
176
     1
290
     0
176
     1
290
     1
176
     1
290
     1
176
     1
290
     0
176
     1
290
     0
176
     1
290
     0
176
     1
290
     0
176
     1
290
     0
176
     1
290
     0
176
     1
 90
       50
176
     1
 40
0.0
176
     1
 40
1.0
176
     1
 90
        0
176
     1
 62
    18
420
        0
176
     1
 90
       50
176
     1
 90
        3
176
     1
 62
     5
420
      255
176
     1
290
     0
176
     1
 90
       50
176
     1
 90
       50
176
     1
 90
       50
176
     1
290
     0
176
     1
 90
       50
176
     1
 62
   256
176
     0
 40
1.0
176
     0
 90
        2
176
     1
  1
strokes_ogs.tif
176
     1
290
     0
176
     1
 40
1.0
176
     1
 40
1.0
176
     1
  0
VISUALSTYLE
  5
35
102
{ACAD_REACTORS
330
29
102
}
330
29
100
AcDbVisualStyle
  2
Brighten
 70
    12
177
     3
291
     1
 70
    58
 90
        2
176
     1
 90
        2
176
     1
 90
        0
176
     1
 90
        0
176
     1
 40
0.6
176
     1
 40
30.0
176
     1
 62
     7
420
 16777215
176
     1
 90
        1
176
     1
 90
        4
176
     1
 62
     7
176
     1
 62
   257
176
     1
 90
        1
176
     1
 90
        1
176
     1
 40
1.0
176
     1
 90
        8
176
     1
 62
     7
176
     1
 40
1.0
176
     1
 90
        1
176
     1
 90
        6
176
     1
 90
        2
176
     1
 62
     7
176
     1
 90
        5
176
     1
 90
        0
176
     1
 90
        0
176
     1
290
     0
176
     1
 90
        1
176
     1
 40
50.0
176
     1
 90
        0
176
     1
290
     0
176
     1
290
     1
176
     1
290
     1
176
     1
290
     0
176
     1
290
     0
176
     1
290
     0
176
     1
290
     0
176
     1
290
     0
176
     1
290
     0
176
     1
 90
       50
176
     1
 40
0.0
176
     1
 40
1.0
176
     1
 90
        0
176
     1
 62
    18
420
        0
176
     1
 90
       50
176
     1
 90
        3
176
     1
 62
     5
420
      255
176
     1
290
     0
176
     1
 90
       50
176
     1
 90
       50
176
     1
 90
       50
176
     1
290
     0
176
     1
 90
       50
176
     1
 62
   256
176
     0
 40
1.0
176
     0
 90
        2
176
     1
  1
strokes_ogs.tif
176
     1
290
     0
176
     1
 40
1.0
176
     1
 40
1.0
176
     1
  0
VISUALSTYLE
  5
39
102
{ACAD_REACTORS
330
29
102
}
330
29
100
AcDbVisualStyle
  2
ColorChange
 70
    16
177
     3
291
     1
 70
    58
 90
        2
176
     1
 90
        2
176
     1
 90
        3
176
     1
 90
        0
176
     1
 40
0.6
176
     1
 40
30.0
176
     1
 62
     8
420
  8421504
176
     1
 90
        1
176
     1
 90
        4
176
     1
 62
     7
176
     1
 62
   257
176
     1
 90
        1
176
     1
 90
        1
176
     1
 40
1.0
176
     1
 90
        8
176
     1
 62
     8
420
  8421504
176
     1
 40
1.0
176
     1
 90
        1
176
     1
 90
        6
176
     1
 90
        2
176
     1
 62
     7
176
     1
 90
        5
176
     1
 90
        0
176
     1
 90
        0
176
     1
290
     0
176
     1
 90
        1
176
     1
 40
0.0
176
     1
 90
        0
176
     1
290
     0
176
     1
290
     1
176
     1
290
     1
176
     1
290
     0
176
     1
290
     0
176
     1
290
     0
176
     1
290
     0
176
     1
290
     0
176
     1
290
     0
176
     1
 90
       50
176
     1
 40
0.0
176
     1
 40
1.0
176
     1
 90
        0
176
     1
 62
    18
420
        0
176
     1
 90
       50
176
     1
 90
        3
176
     1
 62
     5
420
      255
176
     1
290
     0
176
     1
 90
       50
176
     1
 90
       50
176
     1
 90
       50
176
     1
290
     0
176
     1
 90
       50
176
     1
 62
   256
176
     0
 40
1.0
176
     0
 90
        2
176
     1
  1
strokes_ogs.tif
176
     1
290
     0
176
     1
 40
1.0
176
     1
 40
1.0
176
     1
  0
VISUALSTYLE
  5
32
102
{ACAD_REACTORS
330
29
102
}
330
29
100
AcDbVisualStyle
  2
Conceptual
 70
     9
177
     3
291
     0
 70
    58
 90
        3
176
     1
 90
        2
176
     1
 90
        0
176
     1
 90
        0
176
     1
 40
0.6
176
     1
 40
30.0
176
     1
 62
     7
420
 16777215
176
     1
 90
        2
176
     1
 90
        2
176
     1
 62
     7
176
     1
 62
   257
176
     1
 90
        1
176
     1
 90
        1
176
     1
 40
179.0
176
     1
 90
        8
176
     1
 62
     7
176
     1
 40
1.0
176
     1
 90
        1
176
     1
 90
        6
176
     1
 90
        2
176
     1
 62
     7
176
     1
 90
        3
176
     1
 90
        0
176
     1
 90
        0
176
     1
290
     0
176
     1
 90
        1
176
     1
 40
0.0
176
     1
 90
        0
176
     1
290
     0
176
     1
290
     1
176
     1
290
     1
176
     1
290
     0
176
     1
290
     0
176
     1
290
     0
176
     1
290
     0
176
     1
290
     0
176
     1
290
     0
176
     1
 90
       50
176
     1
 40
0.0
176
     1
 40
1.0
176
     1
 90
        0
176
     1
 62
    18
420
        0
176
     1
 90
       50
176
     1
 90
        3
176
     1
 62
     5
420
      255
176
     1
290
     0
176
     1
 90
       50
176
     1
 90
       50
176
     1
 90
       50
176
     1
290
     0
176
     1
 90
       50
176
     1
 62
   256
176
     0
 40
1.0
176
     0
 90
        2
176
     1
  1
strokes_ogs.tif
176
     1
290
     0
176
     1
 40
1.0
176
     1
 40
1.0
176
     1
  0
VISUALSTYLE
  5
34
102
{ACAD_REACTORS
330
29
102
}
330
29
100
AcDbVisualStyle
  2
Dim
 70
    11
177
     3
291
     1
 70
    58
 90
        2
176
     1
 90
        2
176
     1
 90
        0
176
     1
 90
        0
176
     1
 40
0.6
176
     1
 40
30.0
176
     1
 62
     7
420
 16777215
176
     1
 90
        1
176
     1
 90
        4
176
     1
 62
     7
176
     1
 62
   257
176
     1
 90
        1
176
     1
 90
        1
176
     1
 40
1.0
176
     1
 90
        8
176
     1
 62
     7
176
     1
 40
1.0
176
     1
 90
        1
176
     1
 90
        6
176
     1
 90
        2
176
     1
 62
     7
176
     1
 90
        5
176
     1
 90
        0
176
     1
 90
        0
176
     1
290
     0
176
     1
 90
        1
176
     1
 40
-50.0
176
     1
 90
        0
176
     1
290
     0
176
     1
290
     1
176
     1
290
     1
176
     1
290
     0
176
     1
290
     0
176
     1
290
     0
176
     1
290
     0
176
     1
290
     0
176
     1
290
     0
176
     1
 90
       50
176
     1
 40
0.0
176
     1
 40
1.0
176
     1
 90
        0
176
     1
 62
    18
420
        0
176
     1
 90
       50
176
     1
 90
        3
176
     1
 62
     5
420
      255
176
     1
290
     0
176
     1
 90
       50
176
     1
 90
       50
176
     1
 90
       50
176
     1
290
     0
176
     1
 90
       50
176
     1
 62
   256
176
     0
 40
1.0
176
     0
 90
        2
176
     1
  1
strokes_ogs.tif
176
     1
290
     0
176
     1
 40
1.0
176
     1
 40
1.0
176
     1
  0
VISUALSTYLE
  5
41
102
{ACAD_REACTORS
330
29
102
}
330
29
100
AcDbVisualStyle
  2
EdgeColorOff
 70
    22
177
     3
291
     1
 70
    58
 90
        2
176
     0
 90
        2
176
     0
 90
        0
176
     0
 90
        0
176
     0
 40
0.6
176
     0
 40
30.0
176
     0
 62
     7
420
 16777215
176
     0
 90
        1
176
     0
 90
        4
176
     0
 62
     7
176
     0
 62
   257
176
     0
 90
        1
176
     0
 90
        1
176
     0
 40
1.0
176
     0
 90
        8
176
     2
 62
     7
176
     0
 40
1.0
176
     0
 90
        1
176
     0
 90
        6
176
     0
 90
        2
176
     0
 62
     7
176
     0
 90
        5
176
     0
 90
        0
176
     0
 90
        0
176
     0
290
     0
176
     0
 90
        1
176
     0
 40
0.0
176
     0
 90
        0
176
     0
290
     0
176
     0
290
     1
176
     0
290
     1
176
     0
290
     0
176
     0
290
     0
176
     0
290
     0
176
     0
290
     0
176
     0
290
     0
176
     0
290
     0
176
     0
 90
       50
176
     0
 40
0.0
176
     0
 40
1.0
176
     0
 90
        0
176
     0
 62
    18
420
        0
176
     0
 90
       50
176
     0
 90
        3
176
     0
 62
     5
420
      255
176
     0
290
     0
176
     0
 90
       50
176
     0
 90
       50
176
     0
 90
       50
176
     0
290
     0
176
     0
 90
       50
176
     0
 62
   256
176
     0
 40
1.0
176
     0
 90
        2
176
     0
  1
strokes_ogs.tif
176
     0
290
     0
176
     0
 40
1.0
176
     0
 40
1.0
176
     0
  0
VISUALSTYLE
  5
38
102
{ACAD_REACTORS
330
29
102
}
330
29
100
AcDbVisualStyle
  2
Facepattern
 70
    15
177
     3
291
     1
 70
    58
 90
        2
176
     1
 90
        2
176
     1
 90
        0
176
     1
 90
        0
176
     1
 40
0.6
176
     1
 40
30.0
176
     1
 62
     7
420
 16777215
176
     1
 90
        1
176
     1
 90
        4
176
     1
 62
     7
176
     1
 62
   257
176
     1
 90
        1
176
     1
 90
        1
176
     1
 40
1.0
176
     1
 90
        8
176
     1
 62
     7
176
     1
 40
1.0
176
     1
 90
        1
176
     1
 90
        6
176
     1
 90
        2
176
     1
 62
     7
176
     1
 90
        5
176
     1
 90
        0
176
     1
 90
        0
176
     1
290
     0
176
     1
 90
        1
176
     1
 40
0.0
176
     1
 90
        0
176
     1
290
     0
176
     1
290
     1
176
     1
290
     1
176
     1
290
     0
176
     1
290
     0
176
     1
290
     0
176
     1
290
     0
176
     1
290
     0
176
     1
290
     0
176
     1
 90
       50
176
     1
 40
0.0
176
     1
 40
1.0
176
     1
 90
        0
176
     1
 62
    18
420
        0
176
     1
 90
       50
176
     1
 90
        3
176
     1
 62
     5
420
      255
176
     1
290
     0
176
     1
 90
       50
176
     1
 90
       50
176
     1
 90
       50
176
     1
290
     0
176
     1
 90
       50
176
     1
 62
   256
176
     0
 40
1.0
176
     0
 90
        2
176
     1
  1
strokes_ogs.tif
176
     1
290
     0
176
     1
 40
1.0
176
     1
 40
1.0
176
     1
  0
VISUALSTYLE
  5
2A
102
{ACAD_REACTORS
330
29
102
}
330
29
100
AcDbVisualStyle
  2
Flat
 70
     0
177
     3
291
     1
 70
    58
 90
        2
176
     1
 90
        1
176
     1
 90
        1
176
     1
 90
        2
176
     1
 40
0.6
176
     1
 40
30.0
176
     1
 62
     7
420
 16777215
176
     1
 90
        0
176
     1
 90
        0
176
     1
 62
     7
176
     1
 62
   257
176
     1
 90
        1
176
     1
 90
        1
176
     1
 40
1.0
176
     1
 90
        8
176
     1
 62
     7
176
     1
 40
1.0
176
     1
 90
        1
176
     1
 90
        6
176
     1
 90
        2
176
     1
 62
     7
176
     1
 90
        5
176
     1
 90
        0
176
     1
 90
        0
176
     1
290
     0
176
     1
 90
       13
176
     1
 40
0.0
176
     1
 90
        0
176
     1
290
     0
176
     1
290
     1
176
     1
290
     1
176
     1
290
     0
176
     1
290
     0
176
     1
290
     0
176
     1
290
     0
176
     1
290
     0
176
     1
290
     0
176
     1
 90
       50
176
     1
 40
0.0
176
     1
 40
1.0
176
     1
 90
        0
176
     1
 62
    18
420
        0
176
     1
 90
       50
176
     1
 90
        3
176
     1
 62
     5
420
      255
176
     1
290
     0
176
     1
 90
       50
176
     1
 90
       50
176
     1
 90
       50
176
     1
290
     0
176
     1
 90
       50
176
     1
 62
   256
176
     0
 40
1.0
176
     0
 90
        2
176
     1
  1
strokes_ogs.tif
176
     1
290
     0
176
     1
 40
1.0
176
     1
 40
1.0
176
     1
  0
VISUALSTYLE
  5
2B
102
{ACAD_REACTORS
330
29
102
}
330
29
100
AcDbVisualStyle
  2
FlatWithEdges
 70
     1
177
     3
291
     1
 70
    58
 90
        2
176
     1
 90
        1
176
     1
 90
        1
176
     1
 90
        2
176
     1
 40
0.6
176
     1
 40
30.0
176
     1
 62
     7
420
 16777215
176
     1
 90
        1
176
     1
 90
        0
176
     1
 62
     7
176
     1
 62
   257
176
     1
 90
        1
176
     1
 90
        1
176
     1
 40
1.0
176
     1
 90
        0
176
     1
 62
   257
176
     1
 40
1.0
176
     1
 90
        1
176
     1
 90
        6
176
     1
 90
        2
176
     1
 62
     7
176
     1
 90
        5
176
     1
 90
        0
176
     1
 90
        0
176
     1
290
     0
176
     1
 90
       13
176
     1
 40
0.0
176
     1
 90
        0
176
     1
290
     0
176
     1
290
     1
176
     1
290
     1
176
     1
290
     0
176
     1
290
     0
176
     1
290
     0
176
     1
290
     0
176
     1
290
     0
176
     1
290
     0
176
     1
 90
       50
176
     1
 40
0.0
176
     1
 40
1.0
176
     1
 90
        0
176
     1
 62
    18
420
        0
176
     1
 90
       50
176
     1
 90
        3
176
     1
 62
     5
420
      255
176
     1
290
     0
176
     1
 90
       50
176
     1
 90
       50
176
     1
 90
       50
176
     1
290
     0
176
     1
 90
       50
176
     1
 62
   256
176
     0
 40
1.0
176
     0
 90
        2
176
     1
  1
strokes_ogs.tif
176
     1
290
     0
176
     1
 40
1.0
176
     1
 40
1.0
176
     1
  0
VISUALSTYLE
  5
2C
102
{ACAD_REACTORS
330
29
102
}
330
29
100
AcDbVisualStyle
  2
Gouraud
 70
     2
177
     3
291
     1
 70
    58
 90
        2
176
     1
 90
        2
176
     1
 90
        1
176
     1
 90
        2
176
     1
 40
0.6
176
     1
 40
30.0
176
     1
 62
     7
420
 16777215
176
     1
 90
        0
176
     1
 90
        0
176
     1
 62
     7
176
     1
 62
   257
176
     1
 90
        1
176
     1
 90
        1
176
     1
 40
1.0
176
     1
 90
        0
176
     1
 62
     7
176
     1
 40
1.0
176
     1
 90
        1
176
     1
 90
        6
176
     1
 90
        2
176
     1
 62
     7
176
     1
 90
        5
176
     1
 90
        0
176
     1
 90
        0
176
     1
290
     0
176
     1
 90
       13
176
     1
 40
0.0
176
     1
 90
        0
176
     1
290
     0
176
     1
290
     1
176
     1
290
     1
176
     1
290
     0
176
     1
290
     0
176
     1
290
     0
176
     1
290
     0
176
     1
290
     0
176
     1
290
     0
176
     1
 90
       50
176
     1
 40
0.0
176
     1
 40
1.0
176
     1
 90
        0
176
     1
 62
    18
420
        0
176
     1
 90
       50
176
     1
 90
        3
176
     1
 62
     5
420
      255
176
     1
290
     0
176
     1
 90
       50
176
     1
 90
       50
176
     1
 90
       50
176
     1
290
     0
176
     1
 90
       50
176
     1
 62
   256
176
     0
 40
1.0
176
     0
 90
        2
176
     1
  1
strokes_ogs.tif
176
     1
290
     0
176
     1
 40
1.0
176
     1
 40
1.0
176
     1
  0
VISUALSTYLE
  5
2D
102
{ACAD_REACTORS
330
29
102
}
330
29
100
AcDbVisualStyle
  2
GouraudWithEdges
 70
     3
177
     3
291
     1
 70
    58
 90
        2
176
     1
 90
        2
176
     1
 90
        1
176
     1
 90
        2
176
     1
 40
0.6
176
     1
 40
30.0
176
     1
 62
     7
420
 16777215
176
     1
 90
        1
176
     1
 90
        0
176
     1
 62
     7
176
     1
 62
   257
176
     1
 90
        1
176
     1
 90
        1
176
     1
 40
1.0
176
     1
 90
        0
176
     1
 62
   257
176
     1
 40
1.0
176
     1
 90
        1
176
     1
 90
        6
176
     1
 90
        2
176
     1
 62
     7
176
     1
 90
        5
176
     1
 90
        0
176
     1
 90
        0
176
     1
290
     0
176
     1
 90
       13
176
     1
 40
0.0
176
     1
 90
        0
176
     1
290
     0
176
     1
290
     1
176
     1
290
     1
176
     1
290
     0
176
     1
290
     0
176
     1
290
     0
176
     1
290
     0
176
     1
290
     0
176
     1
290
     0
176
     1
 90
       50
176
     1
 40
0.0
176
     1
 40
1.0
176
     1
 90
        0
176
     1
 62
    18
420
        0
176
     1
 90
       50
176
     1
 90
        3
176
     1
 62
     5
420
      255
176
     1
290
     0
176
     1
 90
       50
176
     1
 90
       50
176
     1
 90
       50
176
     1
290
     0
176
     1
 90
       50
176
     1
 62
   256
176
     0
 40
1.0
176
     0
 90
        2
176
     1
  1
strokes_ogs.tif
176
     1
290
     0
176
     1
 40
1.0
176
     1
 40
1.0
176
     1
  0
VISUALSTYLE
  5
31
102
{ACAD_REACTORS
330
29
102
}
330
29
100
AcDbVisualStyle
  2
Hidden
 70
     6
177
     3
291
     0
 70
    58
 90
        1
176
     1
 90
        2
176
     1
 90
        2
176
     1
 90
        0
176
     1
 40
0.6
176
     1
 40
30.0
176
     1
 62
     7
420
 16777215
176
     1
 90
        2
176
     1
 90
        2
176
     1
 62
     7
176
     1
 62
   257
176
     1
 90
        2
176
     1
 90
        1
176
     1
 40
40.0
176
     1
 90
        0
176
     1
 62
   257
176
     1
 40
1.0
176
     1
 90
        1
176
     1
 90
        6
176
     1
 90
        2
176
     1
 62
     7
176
     1
 90
        3
176
     1
 90
        0
176
     1
 90
        0
176
     1
290
     0
176
     1
 90
        1
176
     1
 40
0.0
176
     1
 90
        0
176
     1
290
     0
176
     1
290
     1
176
     1
290
     1
176
     1
290
     0
176
     1
290
     0
176
     1
290
     0
176
     1
290
     0
176
     1
290
     0
176
     1
290
     0
176
     1
 90
       50
176
     1
 40
0.0
176
     1
 40
1.0
176
     1
 90
        0
176
     1
 62
    18
420
        0
176
     1
 90
       50
176
     1
 90
        3
176
     1
 62
     5
420
      255
176
     1
290
     0
176
     1
 90
       50
176
     1
 90
       50
176
     1
 90
       50
176
     1
290
     0
176
     1
 90
       50
176
     1
 62
   256
176
     0
 40
1.0
176
     0
 90
        2
176
     1
  1
strokes_ogs.tif
176
     1
290
     0
176
     1
 40
1.0
176
     1
 40
1.0
176
     1
  0
VISUALSTYLE
  5
3F
102
{ACAD_REACTORS
330
29
102
}
330
29
100
AcDbVisualStyle
  2
JitterOff
 70
    20
177
     3
291
     1
 70
    58
 90
        2
176
     0
 90
        2
176
     0
 90
        0
176
     0
 90
        0
176
     0
 40
0.6
176
     0
 40
30.0
176
     0
 62
     7
420
 16777215
176
     0
 90
        1
176
     0
 90
        4
176
     0
 62
     7
176
     0
 62
   257
176
     0
 90
        1
176
     0
 90
        1
176
     0
 40
1.0
176
     0
 90
       10
176
     2
 62
     7
176
     0
 40
1.0
176
     0
 90
        1
176
     0
 90
        6
176
     0
 90
        2
176
     0
 62
     7
176
     0
 90
        5
176
     0
 90
        0
176
     0
 90
        0
176
     0
290
     0
176
     0
 90
        1
176
     0
 40
0.0
176
     0
 90
        0
176
     0
290
     0
176
     0
290
     1
176
     0
290
     1
176
     0
290
     0
176
     0
290
     0
176
     0
290
     0
176
     0
290
     0
176
     0
290
     0
176
     0
290
     0
176
     0
 90
       50
176
     0
 40
0.0
176
     0
 40
1.0
176
     0
 90
        0
176
     0
 62
    18
420
        0
176
     0
 90
       50
176
     0
 90
        3
176
     0
 62
     5
420
      255
176
     0
290
     0
176
     0
 90
       50
176
     0
 90
       50
176
     0
 90
       50
176
     0
290
     0
176
     0
 90
       50
176
     0
 62
   256
176
     0
 40
1.0
176
     0
 90
        2
176
     0
  1
strokes_ogs.tif
176
     0
290
     0
176
     0
 40
1.0
176
     0
 40
1.0
176
     0
  0
VISUALSTYLE
  5
37
102
{ACAD_REACTORS
330
29
102
}
330
29
100
AcDbVisualStyle
  2
Linepattern
 70
    14
177
     3
291
     1
 70
    58
 90
        2
176
     1
 90
        2
176
     1
 90
        0
176
     1
 90
        0
176
     1
 40
0.6
176
     1
 40
30.0
176
     1
 62
     7
420
 16777215
176
     1
 90
        1
176
     1
 90
        4
176
     1
 62
     7
176
     1
 62
   257
176
     1
 90
        7
176
     1
 90
        7
176
     1
 40
1.0
176
     1
 90
        8
176
     1
 62
     7
176
     1
 40
1.0
176
     1
 90
        1
176
     1
 90
        6
176
     1
 90
        2
176
     1
 62
     7
176
     1
 90
        5
176
     1
 90
        0
176
     1
 90
        0
176
     1
290
     0
176
     1
 90
        1
176
     1
 40
0.0
176
     1
 90
        0
176
     1
290
     0
176
     1
290
     1
176
     1
290
     1
176
     1
290
     0
176
     1
290
     0
176
     1
290
     0
176
     1
290
     0
176
     1
290
     0
176
     1
290
     0
176
     1
 90
       50
176
     1
 40
0.0
176
     1
 40
1.0
176
     1
 90
        0
176
     1
 62
    18
420
        0
176
     1
 90
       50
176
     1
 90
        3
176
     1
 62
     5
420
      255
176
     1
290
     0
176
     1
 90
       50
176
     1
 90
       50
176
     1
 90
       50
176
     1
290
     0
176
     1
 90
       50
176
     1
 62
   256
176
     0
 40
1.0
176
     0
 90
        2
176
     1
  1
strokes_ogs.tif
176
     1
290
     0
176
     1
 40
1.0
176
     1
 40
1.0
176
     1
  0
VISUALSTYLE
  5
40
102
{ACAD_REACTORS
330
29
102
}
330
29
100
AcDbVisualStyle
  2
OverhangOff
 70
    21
177
     3
291
     1
 70
    58
 90
        2
176
     0
 90
        2
176
     0
 90
        0
176
     0
 90
        0
176
     0
 40
0.6
176
     0
 40
30.0
176
     0
 62
     7
420
 16777215
176
     0
 90
        1
176
     0
 90
        4
176
     0
 62
     7
176
     0
 62
   257
176
     0
 90
        1
176
     0
 90
        1
176
     0
 40
1.0
176
     0
 90
        9
176
     2
 62
     7
176
     0
 40
1.0
176
     0
 90
        1
176
     0
 90
        6
176
     0
 90
        2
176
     0
 62
     7
176
     0
 90
        5
176
     0
 90
        0
176
     0
 90
        0
176
     0
290
     0
176
     0
 90
        1
176
     0
 40
0.0
176
     0
 90
        0
176
     0
290
     0
176
     0
290
     1
176
     0
290
     1
176
     0
290
     0
176
     0
290
     0
176
     0
290
     0
176
     0
290
     0
176
     0
290
     0
176
     0
290
     0
176
     0
 90
       50
176
     0
 40
0.0
176
     0
 40
1.0
176
     0
 90
        0
176
     0
 62
    18
420
        0
176
     0
 90
       50
176
     0
 90
        3
176
     0
 62
     5
420
      255
176
     0
290
     0
176
     0
 90
       50
176
     0
 90
       50
176
     0
 90
       50
176
     0
290
     0
176
     0
 90
       50
176
     0
 62
   256
176
     0
 40
1.0
176
     0
 90
        2
176
     0
  1
strokes_ogs.tif
176
     0
290
     0
176
     0
 40
1.0
176
     0
 40
1.0
176
     0
  0
VISUALSTYLE
  5
33
102
{ACAD_REACTORS
330
29
102
}
330
29
100
AcDbVisualStyle
  2
Realistic
 70
     8
177
     3
291
     0
 70
    58
 90
        2
176
     1
 90
        3
176
     1
 90
        0
176
     1
 90
        2
176
     1
 40
0.6
176
     1
 40
30.0
176
     1
 62
     7
420
 16777215
176
     1
 90
        0
176
     1
 90
        0
176
     1
 62
     7
176
     1
 62
   257
176
     1
 90
        1
176
     1
 90
        1
176
     1
 40
1.0
176
     1
 90
        8
176
     1
 62
   257
176
     1
 40
1.0
176
     1
 90
        1
176
     1
 90
        6
176
     1
 90
        2
176
     1
 62
     7
176
     1
 90
        3
176
     1
 90
        0
176
     1
 90
        0
176
     1
290
     0
176
     1
 90
       13
176
     1
 40
0.0
176
     1
 90
        0
176
     1
290
     0
176
     1
290
     1
176
     1
290
     1
176
     1
290
     0
176
     1
290
     0
176
     1
290
     0
176
     1
290
     0
176
     1
290
     0
176
     1
290
     0
176
     1
 90
       50
176
     1
 40
0.0
176
     1
 40
1.0
176
     1
 90
        0
176
     1
 62
    18
420
        0
176
     1
 90
       50
176
     1
 90
        3
176
     1
 62
     5
420
      255
176
     1
290
     0
176
     1
 90
       50
176
     1
 90
       50
176
     1
 90
       50
176
     1
290
     0
176
     1
 90
       50
176
     1
 62
   256
176
     0
 40
1.0
176
     0
 90
        2
176
     1
  1
strokes_ogs.tif
176
     1
290
     0
176
     1
 40
1.0
176
     1
 40
1.0
176
     1
  0
VISUALSTYLE
  5
3E
102
{ACAD_REACTORS
330
29
102
}
330
29
100
AcDbVisualStyle
  2
Shaded
 70
    27
177
     3
291
     0
 70
    58
 90
        2
176
     1
 90
        2
176
     1
 90
        1
176
     1
 90
        2
176
     1
 40
0.6
176
     1
 40
30.0
176
     1
 62
     7
420
 16777215
176
     1
 90
        0
176
     1
 90
        4
176
     1
 62
     7
176
     1
 62
   257
176
     1
 90
        1
176
     1
 90
        1
176
     1
 40
1.0
176
     1
 90
        8
176
     1
 62
   257
176
     1
 40
1.0
176
     1
 90
        1
176
     1
 90
        6
176
     1
 90
        2
176
     1
 62
     8
420
  7895160
176
     1
 90
        3
176
     1
 90
        0
176
     1
 90
        0
176
     1
290
     0
176
     1
 90
        5
176
     1
 40
0.0
176
     1
 90
        0
176
     1
290
     0
176
     1
290
     1
176
     1
290
     1
176
     1
290
     0
176
     1
290
     0
176
     1
290
     0
176
     1
290
     0
176
     1
290
     0
176
     1
290
     0
176
     1
 90
       50
176
     1
 40
0.0
176
     1
 40
1.0
176
     1
 90
        0
176
     1
 62
    18
420
        0
176
     1
 90
       50
176
     1
 90
        3
176
     1
 62
     5
420
      255
176
     1
290
     0
176
     1
 90
       50
176
     1
 90
       50
176
     1
 90
       50
176
     1
290
     0
176
     1
 90
       50
176
     1
 62
   256
176
     0
 40
1.0
176
     0
 90
        2
176
     1
  1
strokes_ogs.tif
176
     1
290
     0
176
     1
 40
1.0
176
     1
 40
1.0
176
     1
  0
VISUALSTYLE
  5
3D
102
{ACAD_REACTORS
330
29
102
}
330
29
100
AcDbVisualStyle
  2
Shaded with edges
 70
    26
177
     3
291
     0
 70
    58
 90
        2
176
     1
 90
        2
176
     1
 90
        1
176
     1
 90
        2
176
     1
 40
0.6
176
     1
 40
30.0
176
     1
 62
     7
420
 16777215
176
     1
 90
        1
176
     1
 90
        2
176
     1
 62
     7
176
     1
 62
   257
176
     1
 90
        2
176
     1
 90
        1
176
     1
 40
1.0
176
     1
 90
        8
176
     1
 62
   257
176
     1
 40
1.0
176
     1
 90
        1
176
     1
 90
        6
176
     1
 90
        2
176
     1
 62
     7
176
     1
 90
        3
176
     1
 90
        0
176
     1
 90
        0
176
     1
290
     0
176
     1
 90
        5
176
     1
 40
0.0
176
     1
 90
        0
176
     1
290
     0
176
     1
290
     1
176
     1
290
     1
176
     1
290
     0
176
     1
290
     0
176
     1
290
     0
176
     1
290
     0
176
     1
290
     0
176
     1
290
     0
176
     1
 90
       50
176
     1
 40
0.0
176
     1
 40
1.0
176
     1
 90
        0
176
     1
 62
    18
420
        0
176
     1
 90
       50
176
     1
 90
        3
176
     1
 62
     5
420
      255
176
     1
290
     0
176
     1
 90
       50
176
     1
 90
       50
176
     1
 90
       50
176
     1
290
     0
176
     1
 90
       50
176
     1
 62
   256
176
     0
 40
1.0
176
     0
 90
        2
176
     1
  1
strokes_ogs.tif
176
     1
290
     0
176
     1
 40
1.0
176
     1
 40
1.0
176
     1
  0
VISUALSTYLE
  5
3A
102
{ACAD_REACTORS
330
29
102
}
330
29
100
AcDbVisualStyle
  2
Shades of Gray
 70
    23
177
     3
291
     0
 70
    58
 90
        2
176
     1
 90
        2
176
     1
 90
        3
176
     1
 90
        0
176
     1
 40
0.6
176
     1
 40
30.0
176
     1
 62
     7
420
 16777215
176
     1
 90
        2
176
     1
 90
        2
176
     1
 62
     7
176
     1
 62
     7
176
     1
 90
        1
176
     1
 90
        1
176
     1
 40
40.0
176
     1
 90
        8
176
     1
 62
     7
176
     1
 40
1.0
176
     1
 90
        1
176
     1
 90
        6
176
     1
 90
        2
176
     1
 62
     7
176
     1
 90
        3
176
     1
 90
        0
176
     1
 90
        0
176
     1
290
     0
176
     1
 90
        1
176
     1
 40
0.0
176
     1
 90
        0
176
     1
290
     0
176
     1
290
     1
176
     1
290
     1
176
     1
290
     0
176
     1
290
     0
176
     1
290
     0
176
     1
290
     0
176
     1
290
     0
176
     1
290
     0
176
     1
 90
       50
176
     1
 40
0.0
176
     1
 40
1.0
176
     1
 90
        0
176
     1
 62
    18
420
        0
176
     1
 90
       50
176
     1
 90
        3
176
     1
 62
     5
420
      255
176
     1
290
     0
176
     1
 90
       50
176
     1
 90
       50
176
     1
 90
       50
176
     1
290
     0
176
     1
 90
       50
176
     1
 62
   256
176
     0
 40
1.0
176
     0
 90
        2
176
     1
  1
strokes_ogs.tif
176
     1
290
     0
176
     1
 40
1.0
176
     1
 40
1.0
176
     1
  0
VISUALSTYLE
  5
3B
102
{ACAD_REACTORS
330
29
102
}
330
29
100
AcDbVisualStyle
  2
Sketchy
 70
    24
177
     3
291
     0
 70
    58
 90
        1
176
     1
 90
        2
176
     1
 90
        2
176
     1
 90
        0
176
     1
 40
0.6
176
     1
 40
30.0
176
     1
 62
     7
420
 16777215
176
     1
 90
        2
176
     1
 90
        2
176
     1
 62
     7
176
     1
 62
     7
176
     1
 90
        1
176
     1
 90
        1
176
     1
 40
40.0
176
     1
 90
       11
176
     1
 62
     7
176
     1
 40
1.0
176
     1
 90
        1
176
     1
 90
        6
176
     1
 90
        2
176
     1
 62
     7
176
     1
 90
        6
176
     1
 90
        0
176
     1
 90
        0
176
     1
290
     0
176
     1
 90
        1
176
     1
 40
0.0
176
     1
 90
        0
176
     1
290
     0
176
     1
290
     1
176
     1
290
     1
176
     1
290
     0
176
     1
290
     0
176
     1
290
     0
176
     1
290
     0
176
     1
290
     0
176
     1
290
     0
176
     1
 90
       50
176
     1
 40
0.0
176
     1
 40
1.0
176
     1
 90
        0
176
     1
 62
    18
420
        0
176
     1
 90
       50
176
     1
 90
        3
176
     1
 62
     5
420
      255
176
     1
290
     0
176
     1
 90
       50
176
     1
 90
       50
176
     1
 90
       50
176
     1
290
     0
176
     1
 90
       50
176
     1
 62
   256
176
     0
 40
1.0
176
     0
 90
        2
176
     1
  1
strokes_ogs.tif
176
     1
290
     0
176
     1
 40
1.0
176
     1
 40
1.0
176
     1
  0
VISUALSTYLE
  5
36
102
{ACAD_REACTORS
330
29
102
}
330
29
100
AcDbVisualStyle
  2
Thicken
 70
    13
177
     3
291
     1
 70
    58
 90
        2
176
     1
 90
        2
176
     1
 90
        0
176
     1
 90
        0
176
     1
 40
0.6
176
     1
 40
30.0
176
     1
 62
     7
420
 16777215
176
     1
 90
        1
176
     1
 90
        4
176
     1
 62
     7
176
     1
 62
   257
176
     1
 90
        1
176
     1
 90
        1
176
     1
 40
1.0
176
     1
 90
       12
176
     1
 62
     7
176
     1
 40
1.0
176
     1
 90
        1
176
     1
 90
        6
176
     1
 90
        2
176
     1
 62
     7
176
     1
 90
        5
176
     1
 90
        0
176
     1
 90
        0
176
     1
290
     0
176
     1
 90
        1
176
     1
 40
0.0
176
     1
 90
        0
176
     1
290
     0
176
     1
290
     1
176
     1
290
     1
176
     1
290
     0
176
     1
290
     0
176
     1
290
     0
176
     1
290
     0
176
     1
290
     0
176
     1
290
     0
176
     1
 90
       50
176
     1
 40
0.0
176
     1
 40
1.0
176
     1
 90
        0
176
     1
 62
    18
420
        0
176
     1
 90
       50
176
     1
 90
        3
176
     1
 62
     5
420
      255
176
     1
290
     0
176
     1
 90
       50
176
     1
 90
       50
176
     1
 90
       50
176
     1
290
     0
176
     1
 90
       50
176
     1
 62
   256
176
     0
 40
1.0
176
     0
 90
        2
176
     1
  1
strokes_ogs.tif
176
     1
290
     0
176
     1
 40
1.0
176
     1
 40
1.0
176
     1
  0
VISUALSTYLE
  5
30
102
{ACAD_REACTORS
330
29
102
}
330
29
100
AcDbVisualStyle
  2
Wireframe
 70
     5
177
     3
291
     0
 70
    58
 90
        0
176
     1
 90
        2
176
     1
 90
        0
176
     1
 90
        0
176
     1
 40
0.6
176
     1
 40
30.0
176
     1
 62
     7
420
 16777215
176
     1
 90
        1
176
     1
 90
        4
176
     1
 62
     7
176
     1
 62
   257
176
     1
 90
        1
176
     1
 90
        1
176
     1
 40
1.0
176
     1
 90
        0
176
     1
 62
   257
176
     1
 40
1.0
176
     1
 90
        1
176
     1
 90
        6
176
     1
 90
        2
176
     1
 62
     7
176
     1
 90
        3
176
     1
 90
        0
176
     1
 90
        0
176
     1
290
     0
176
     1
 90
        1
176
     1
 40
0.0
176
     1
 90
        0
176
     1
290
     0
176
     1
290
     1
176
     1
290
     1
176
     1
290
     0
176
     1
290
     0
176
     1
290
     0
176
     1
290
     0
176
     1
290
     0
176
     1
290
     0
176
     1
 90
       50
176
     1
 40
0.0
176
     1
 40
1.0
176
     1
 90
        0
176
     1
 62
    18
420
        0
176
     1
 90
       50
176
     1
 90
        3
176
     1
 62
     5
420
      255
176
     1
290
     0
176
     1
 90
       50
176
     1
 90
       50
176
     1
 90
       50
176
     1
290
     0
176
     1
 90
       50
176
     1
 62
   256
176
     0
 40
1.0
176
     0
 90
        2
176
     1
  1
strokes_ogs.tif
176
     1
290
     0
176
     1
 40
1.0
176
     1
 40
1.0
176
     1
  0
VISUALSTYLE
  5
3C
102
{ACAD_REACTORS
330
29
102
}
330
29
100
AcDbVisualStyle
  2
X-Ray
 70
    25
177
     3
291
     0
 70
    58
 90
        2
176
     1
 90
        2
176
     1
 90
        1
176
     1
 90
        1
176
     1
 40
0.5
176
     1
 40
30.0
176
     1
 62
     7
420
 16777215
176
     1
 90
        1
176
     1
 90
        0
176
     1
 62
     7
176
     1
 62
   257
176
     1
 90
        1
176
     1
 90
        1
176
     1
 40
1.0
176
     1
 90
        8
176
     1
 62
     7
176
     1
 40
1.0
176
     1
 90
        1
176
     1
 90
        6
176
     1
 90
        2
176
     1
 62
     7
176
     1
 90
        3
176
     1
 90
        0
176
     1
 90
        0
176
     1
290
     0
176
     1
 90
       13
176
     1
 40
0.0
176
     1
 90
        0
176
     1
290
     0
176
     1
290
     1
176
     1
290
     1
176
     1
290
     0
176
     1
290
     0
176
     1
290
     0
176
     1
290
     0
176
     1
290
     0
176
     1
290
     0
176
     1
 90
       50
176
     1
 40
0.0
176
     1
 40
1.0
176
     1
 90
        0
176
     1
 62
    18
420
        0
176
     1
 90
       50
176
     1
 90
        3
176
     1
 62
     5
420
      255
176
     1
290
     0
176
     1
 90
       50
176
     1
 90
       50
176
     1
 90
       50
176
     1
290
     0
176
     1
 90
       50
176
     1
 62
   256
176
     0
 40
1.0
176
     0
 90
        2
176
     1
  1
strokes_ogs.tif
176
     1
290
     0
176
     1
 40
1.0
176
     1
 40
1.0
176
     1
  0
DICTIONARYVAR
  5
CA
102
{ACAD_REACTORS
330
C5
102
}
330
C5
100
DictionaryVariables
280
     0
  1
1:1
  0
DICTIONARYVAR
  5
C7
102
{ACAD_REACTORS
330
C5
102
}
330
C5
100
DictionaryVariables
280
     0
  1
STANDARD
  0
DICTIONARYVAR
  5
C6
102
{ACAD_REACTORS
330
C5
102
}
330
C5
100
DictionaryVariables
280
     0
  1
STANDARD
  0
DICTIONARYVAR
  5
C8
102
{ACAD_REACTORS
330
C5
102
}
330
C5
100
DictionaryVariables
280
     0
  1
Imperial24
  0
DICTIONARYVAR
  5
C9
102
{ACAD_REACTORS
330
C5
102
}
330
C5
100
DictionaryVariables
280
     0
  1
Imperial24
  0
DICTIONARY
  5
1A
330
19
100
AcDbDictionary
280
     1
281
     1
  3
BUMPTILE
360
1C
  3
DIFFUSETILE
360
1B
  3
OPACITYTILE
360
1F
  3
REFLECTIONTILE
360
1E
  3
REFRACTIONTILE
360
20
  3
SPECULARTILE
360
1D
  0
DICTIONARY
  5
12
330
11
100
AcDbDictionary
280
     1
281
     1
  3
BUMPTILE
360
14
  3
DIFFUSETILE
360
13
  3
OPACITYTILE
360
17
  3
REFLECTIONTILE
360
16
  3
REFRACTIONTILE
360
18
  3
SPECULARTILE
360
15
  0
DICTIONARY
  5
22
330
21
100
AcDbDictionary
280
     1
281
     1
  3
BUMPTILE
360
24
  3
DIFFUSETILE
360
23
  3
OPACITYTILE
360
27
  3
REFLECTIONTILE
360
26
  3
REFRACTIONTILE
360
28
  3
SPECULARTILE
360
25
  0
DICTIONARY
  5
CB
330
65
100
AcDbDictionary
280
     1
281
     1
  3
ACAD_ROUNDTRIP_2008_TABLESTYLE_CELLSTYLEMAP
360
CC
  0
XRECORD
  5
1C
102
{ACAD_REACTORS
330
1A
102
}
330
1A
100
AcDbXrecord
280
     1
270
     1
271
     1
  0
XRECORD
  5
1B
102
{ACAD_REACTORS
330
1A
102
}
330
1A
100
AcDbXrecord
280
     1
270
     1
271
     1
  0
XRECORD
  5
1F
102
{ACAD_REACTORS
330
1A
102
}
330
1A
100
AcDbXrecord
280
     1
270
     1
271
     1
  0
XRECORD
  5
1E
102
{ACAD_REACTORS
330
1A
102
}
330
1A
100
AcDbXrecord
280
     1
270
     1
271
     1
  0
XRECORD
  5
20
102
{ACAD_REACTORS
330
1A
102
}
330
1A
100
AcDbXrecord
280
     1
270
     1
271
     1
  0
XRECORD
  5
1D
102
{ACAD_REACTORS
330
1A
102
}
330
1A
100
AcDbXrecord
280
     1
270
     1
271
     1
  0
XRECORD
  5
14
102
{ACAD_REACTORS
330
12
102
}
330
12
100
AcDbXrecord
280
     1
270
     1
271
     1
  0
XRECORD
  5
13
102
{ACAD_REACTORS
330
12
102
}
330
12
100
AcDbXrecord
280
     1
270
     1
271
     1
  0
XRECORD
  5
17
102
{ACAD_REACTORS
330
12
102
}
330
12
100
AcDbXrecord
280
     1
270
     1
271
     1
  0
XRECORD
  5
16
102
{ACAD_REACTORS
330
12
102
}
330
12
100
AcDbXrecord
280
     1
270
     1
271
     1
  0
XRECORD
  5
18
102
{ACAD_REACTORS
330
12
102
}
330
12
100
AcDbXrecord
280
     1
270
     1
271
     1
  0
XRECORD
  5
15
102
{ACAD_REACTORS
330
12
102
}
330
12
100
AcDbXrecord
280
     1
270
     1
271
     1
  0
XRECORD
  5
24
102
{ACAD_REACTORS
330
22
102
}
330
22
100
AcDbXrecord
280
     1
270
     1
271
     1
  0
XRECORD
  5
23
102
{ACAD_REACTORS
330
22
102
}
330
22
100
AcDbXrecord
280
     1
270
     1
271
     1
  0
XRECORD
  5
27
102
{ACAD_REACTORS
330
22
102
}
330
22
100
AcDbXrecord
280
     1
270
     1
271
     1
  0
XRECORD
  5
26
102
{ACAD_REACTORS
330
22
102
}
330
22
100
AcDbXrecord
280
     1
270
     1
271
     1
  0
XRECORD
  5
28
102
{ACAD_REACTORS
330
22
102
}
330
22
100
AcDbXrecord
280
     1
270
     1
271
     1
  0
XRECORD
  5
25
102
{ACAD_REACTORS
330
22
102
}
330
22
100
AcDbXrecord
280
     1
270
     1
271
     1
  0
CELLSTYLEMAP
  5
CC
102
{ACAD_REACTORS
330
CB
102
}
330
CB
100
AcDbCellStyleMap
 90
        3
300
CELLSTYLE
  1
TABLEFORMAT_BEGIN
 90
        5
170
     1
 91
        0
 92
    32768
 62
   257
 93
        1
300
CONTENTFORMAT
  1
CONTENTFORMAT_BEGIN
 90
        0
 91
        0
 92
      512
 93
        0
300

 40
0.0
140
1.0
 94
        5
 62
     0
340
55
144
0.25
309
CONTENTFORMAT_END
171
     0
 94
        0
309
TABLEFORMAT_END
  1
CELLSTYLE_BEGIN
 90
        1
 91
        1
300
_TITLE
309
CELLSTYLE_END
300
CELLSTYLE
  1
TABLEFORMAT_BEGIN
 90
        5
170
     1
 91
        0
 92
        0
 62
   257
 93
        1
300
CONTENTFORMAT
  1
CONTENTFORMAT_BEGIN
 90
        0
 91
        0
 92
      512
 93
        0
300

 40
0.0
140
1.0
 94
        5
 62
     0
340
55
144
0.18
309
CONTENTFORMAT_END
171
     0
 94
        0
309
TABLEFORMAT_END
  1
CELLSTYLE_BEGIN
 90
        2
 91
        1
300
_HEADER
309
CELLSTYLE_END
300
CELLSTYLE
  1
TABLEFORMAT_BEGIN
 90
        5
170
     1
 91
        0
 92
        0
 62
   257
 93
        1
300
CONTENTFORMAT
  1
CONTENTFORMAT_BEGIN
 90
        0
 91
        0
 92
      512
 93
        0
300

 40
0.0
140
1.0
 94
        2
 62
     0
340
55
144
0.18
309
CONTENTFORMAT_END
171
     0
 94
        0
309
TABLEFORMAT_END
  1
CELLSTYLE_BEGIN
 90
        3
 91
        2
300
_DATA
309
CELLSTYLE_END
  0
ENDSEC
  0
EOF
