  0
SECTION
  2
HEADER
  9
$ACADVER
  1
AC1032
  9
$ACADMAINTVER
 90
      329
  9
$DWGCODEPAGE
  3
ANSI_936
  9
$REQUIREDVERSIONS
160
                 0
  9
$INSBASE
 10
0.0
 20
0.0
 30
0.0
  9
$EXTMIN
 10
1.000000000000000E+20
 20
1.000000000000000E+20
 30
1.000000000000000E+20
  9
$EXTMAX
 10
-1.000000000000000E+20
 20
-1.000000000000000E+20
 30
-1.000000000000000E+20
  9
$LIMMIN
 10
0.0
 20
0.0
  9
$LIMMAX
 10
12.0
 20
9.0
  9
$ORTHOMODE
 70
     0
  9
$REGENMODE
 70
     1
  9
$FILLMODE
 70
     1
  9
$QTEXTMODE
 70
     0
  9
$MIRRTEXT
 70
     0
  9
$LTSCALE
 40
1.0
  9
$ATTMODE
 70
     1
  9
$TEXTSIZE
 40
0.2
  9
$TRACEWID
 40
0.05
  9
$TEXTSTYLE
  7
Standard
  9
$CLAYER
  8
0
  9
$CELTYPE
  6
ByLayer
  9
$CECOLOR
 62
   256
  9
$CELTSCALE
 40
1.0
  9
$DISPSILH
 70
     0
  9
$DIMSCALE
 40
1.0
  9
$DIMASZ
 40
0.18
  9
$DIMEXO
 40
0.0625
  9
$DIMDLI
 40
0.38
  9
$DIMRND
 40
0.0
  9
$DIMDLE
 40
0.0
  9
$DIMEXE
 40
0.18
  9
$DIMTP
 40
0.0
  9
$DIMTM
 40
0.0
  9
$DIMTXT
 40
0.18
  9
$DIMCEN
 40
0.09
  9
$DIMTSZ
 40
0.0
  9
$DIMTOL
 70
     0
  9
$DIMLIM
 70
     0
  9
$DIMTIH
 70
     1
  9
$DIMTOH
 70
     1
  9
$DIMSE1
 70
     0
  9
$DIMSE2
 70
     0
  9
$DIMTAD
 70
     0
  9
$DIMZIN
 70
     0
  9
$DIMBLK
  1

  9
$DIMASO
 70
     1
  9
$DIMSHO
 70
     1
  9
$DIMPOST
  1

  9
$DIMAPOST
  1

  9
$DIMALT
 70
     0
  9
$DIMALTD
 70
     2
  9
$DIMALTF
 40
25.4
  9
$DIMLFAC
 40
1.0
  9
$DIMTOFL
 70
     0
  9
$DIMTVP
 40
0.0
  9
$DIMTIX
 70
     0
  9
$DIMSOXD
 70
     0
  9
$DIMSAH
 70
     0
  9
$DIMBLK1
  1

  9
$DIMBLK2
  1

  9
$DIMSTYLE
  2
Standard
  9
$DIMCLRD
 70
     0
  9
$DIMCLRE
 70
     0
  9
$DIMCLRT
 70
     0
  9
$DIMTFAC
 40
1.0
  9
$DIMGAP
 40
0.09
  9
$DIMJUST
 70
     0
  9
$DIMSD1
 70
     0
  9
$DIMSD2
 70
     0
  9
$DIMTOLJ
 70
     1
  9
$DIMTZIN
 70
     0
  9
$DIMALTZ
 70
     0
  9
$DIMALTTZ
 70
     0
  9
$DIMUPT
 70
     0
  9
$DIMDEC
 70
     4
  9
$DIMTDEC
 70
     4
  9
$DIMALTU
 70
     2
  9
$DIMALTTD
 70
     2
  9
$DIMTXSTY
  7
Standard
  9
$DIMAUNIT
 70
     0
  9
$DIMADEC
 70
     0
  9
$DIMALTRND
 40
0.0
  9
$DIMAZIN
 70
     0
  9
$DIMDSEP
 70
    46
  9
$DIMATFIT
 70
     3
  9
$DIMFRAC
 70
     0
  9
$DIMLDRBLK
  1

  9
$DIMLUNIT
 70
     2
  9
$DIMLWD
 70
    -2
  9
$DIMLWE
 70
    -2
  9
$DIMTMOVE
 70
     0
  9
$DIMFXL
 40
1.0
  9
$DIMFXLON
 70
     0
  9
$DIMJOGANG
 40
0.7853981633974483
  9
$DIMTFILL
 70
     0
  9
$DIMTFILLCLR
 70
     0
  9
$DIMARCSYM
 70
     0
  9
$DIMLTYPE
  6

  9
$DIMLTEX1
  6

  9
$DIMLTEX2
  6

  9
$DIMTXTDIRECTION
 70
     0
  9
$LUNITS
 70
     2
  9
$LUPREC
 70
     4
  9
$SKETCHINC
 40
0.1
  9
$FILLETRAD
 40
0.0
  9
$AUNITS
 70
     0
  9
$AUPREC
 70
     0
  9
$MENU
  1
.
  9
$ELEVATION
 40
0.0
  9
$PELEVATION
 40
0.0
  9
$THICKNESS
 40
0.0
  9
$LIMCHECK
 70
     0
  9
$CHAMFERA
 40
0.0
  9
$CHAMFERB
 40
0.0
  9
$CHAMFERC
 40
0.0
  9
$CHAMFERD
 40
0.0
  9
$SKPOLY
 70
     0
  9
$TDCREATE
 40
2460886.733784722
  9
$TDUCREATE
 40
2460886.400451389
  9
$TDUPDATE
 40
2460886.733784722
  9
$TDUUPDATE
 40
2460886.400451389
  9
$TDINDWG
 40
0.0000000000
  9
$TDUSRTIMER
 40
0.0000000000
  9
$USRTIMER
 70
     1
  9
$ANGBASE
 50
0.0
  9
$ANGDIR
 70
     0
  9
$PDMODE
 70
     0
  9
$PDSIZE
 40
0.0
  9
$PLINEWID
 40
0.0
  9
$SPLFRAME
 70
     0
  9
$SPLINETYPE
 70
     6
  9
$SPLINESEGS
 70
     8
  9
$HANDSEED
  5
E0
  9
$SURFTAB1
 70
     6
  9
$SURFTAB2
 70
     6
  9
$SURFTYPE
 70
     6
  9
$SURFU
 70
     6
  9
$SURFV
 70
     6
  9
$UCSBASE
  2

  9
$UCSNAME
  2

  9
$UCSORG
 10
0.0
 20
0.0
 30
0.0
  9
$UCSXDIR
 10
1.0
 20
0.0
 30
0.0
  9
$UCSYDIR
 10
0.0
 20
1.0
 30
0.0
  9
$UCSORTHOREF
  2

  9
$UCSORTHOVIEW
 70
     0
  9
$UCSORGTOP
 10
0.0
 20
0.0
 30
0.0
  9
$UCSORGBOTTOM
 10
0.0
 20
0.0
 30
0.0
  9
$UCSORGLEFT
 10
0.0
 20
0.0
 30
0.0
  9
$UCSORGRIGHT
 10
0.0
 20
0.0
 30
0.0
  9
$UCSORGFRONT
 10
0.0
 20
0.0
 30
0.0
  9
$UCSORGBACK
 10
0.0
 20
0.0
 30
0.0
  9
$PUCSBASE
  2

  9
$PUCSNAME
  2

  9
$PUCSORG
 10
0.0
 20
0.0
 30
0.0
  9
$PUCSXDIR
 10
1.0
 20
0.0
 30
0.0
  9
$PUCSYDIR
 10
0.0
 20
1.0
 30
0.0
  9
$PUCSORTHOREF
  2

  9
$PUCSORTHOVIEW
 70
     0
  9
$PUCSORGTOP
 10
0.0
 20
0.0
 30
0.0
  9
$PUCSORGBOTTOM
 10
0.0
 20
0.0
 30
0.0
  9
$PUCSORGLEFT
 10
0.0
 20
0.0
 30
0.0
  9
$PUCSORGRIGHT
 10
0.0
 20
0.0
 30
0.0
  9
$PUCSORGFRONT
 10
0.0
 20
0.0
 30
0.0
  9
$PUCSORGBACK
 10
0.0
 20
0.0
 30
0.0
  9
$USERI1
 70
     0
  9
$USERI2
 70
     0
  9
$USERI3
 70
     0
  9
$USERI4
 70
     0
  9
$USERI5
 70
     0
  9
$USERR1
 40
0.0
  9
$USERR2
 40
0.0
  9
$USERR3
 40
0.0
  9
$USERR4
 40
0.0
  9
$USERR5
 40
0.0
  9
$WORLDVIEW
 70
     1
  9
$SHADEDGE
 70
     3
  9
$SHADEDIF
 70
    70
  9
$TILEMODE
 70
     1
  9
$MAXACTVP
 70
    64
  9
$PINSBASE
 10
0.0
 20
0.0
 30
0.0
  9
$PLIMCHECK
 70
     0
  9
$PEXTMIN
 10
1.000000000000000E+20
 20
1.000000000000000E+20
 30
1.000000000000000E+20
  9
$PEXTMAX
 10
-1.000000000000000E+20
 20
-1.000000000000000E+20
 30
-1.000000000000000E+20
  9
$PLIMMIN
 10
0.0
 20
0.0
  9
$PLIMMAX
 10
12.0
 20
9.0
  9
$UNITMODE
 70
     0
  9
$VISRETAIN
 70
     1
  9
$PLINEGEN
 70
     0
  9
$PSLTSCALE
 70
     1
  9
$TREEDEPTH
 70
  3020
  9
$CMLSTYLE
  2
Standard
  9
$CMLJUST
 70
     0
  9
$CMLSCALE
 40
1.0
  9
$PROXYGRAPHICS
 70
     1
  9
$MEASUREMENT
 70
     0
  9
$CELWEIGHT
370
    -1
  9
$ENDCAPS
280
     0
  9
$JOINSTYLE
280
     0
  9
$LWDISPLAY
290
     1
  9
$INSUNITS
 70
     1
  9
$HYPERLINKBASE
  1

  9
$STYLESHEET
  1

  9
$XEDIT
290
     1
  9
$CEPSNTYPE
380
     0
  9
$PSTYLEMODE
290
     1
  9
$FINGERPRINTGUID
  2
{2D0640ED-242E-1B4B-9605-31112D7F891A}
  9
$VERSIONGUID
  2
{14FF7ACE-AD75-074C-B440-05420DF6EBC4}
  9
$EXTNAMES
290
     1
  9
$PSVPSCALE
 40
0.0
  9
$OLESTARTUP
290
     0
  9
$SORTENTS
280
   127
  9
$INDEXCTL
280
     0
  9
$HIDETEXT
280
     1
  9
$XCLIPFRAME
280
     2
  9
$HALOGAP
280
     0
  9
$OBSCOLOR
 70
   257
  9
$OBSLTYPE
280
     0
  9
$INTERSECTIONDISPLAY
280
     0
  9
$INTERSECTIONCOLOR
 70
   257
  9
$DIMASSOC
280
     2
  9
$PROJECTNAME
  1

  9
$CAMERADISPLAY
290
     0
  9
$LENSLENGTH
 40
50.0
  9
$CAMERAHEIGHT
 40
0.0
  9
$STEPSPERSEC
 40
2.0
  9
$STEPSIZE
 40
6.0
  9
$3DDWFPREC
 40
2.0
  9
$PSOLWIDTH
 40
0.25
  9
$PSOLHEIGHT
 40
4.0
  9
$LOFTANG1
 40
1.570796326794896
  9
$LOFTANG2
 40
1.570796326794896
  9
$LOFTMAG1
 40
0.0
  9
$LOFTMAG2
 40
0.0
  9
$LOFTPARAM
 70
     7
  9
$LOFTNORMALS
280
     1
  9
$LATITUDE
 40
37.795
  9
$LONGITUDE
 40
-122.394
  9
$NORTHDIRECTION
 40
0.0
  9
$TIMEZONE
 70
 -8000
  9
$LIGHTGLYPHDISPLAY
280
     1
  9
$TILEMODELIGHTSYNCH
280
     1
  9
$CMATERIAL
347
11
  9
$SOLIDHIST
280
     0
  9
$SHOWHIST
280
     1
  9
$DWFFRAME
280
     2
  9
$DGNFRAME
280
     0
  9
$REALWORLDSCALE
290
     1
  9
$INTERFERECOLOR
 62
     1
  9
$INTERFEREOBJVS
345
33
  9
$INTERFEREVPVS
346
30
  9
$CSHADOW
280
     0
  9
$SHADOWPLANELOCATION
 40
0.0
  0
ENDSEC
  0
SECTION
  2
CLASSES
  0
CLASS
  1
ACDBDICTIONARYWDFLT
  2
AcDbDictionaryWithDefault
  3
ObjectDBX Classes
 90
        0
 91
        1
280
     0
281
     0
  0
CLASS
  1
MATERIAL
  2
AcDbMaterial
  3
ObjectDBX Classes
 90
     1153
 91
        3
280
     0
281
     0
  0
CLASS
  1
VISUALSTYLE
  2
AcDbVisualStyle
  3
ObjectDBX Classes
 90
     4095
 91
       24
280
     0
281
     0
  0
CLASS
  1
SCALE
  2
AcDbScale
  3
ObjectDBX Classes
 90
     1153
 91
       17
280
     0
281
     0
  0
CLASS
  1
TABLESTYLE
  2
AcDbTableStyle
  3
ObjectDBX Classes
 90
     4095
 91
        1
280
     0
281
     0
  0
CLASS
  1
MLEADERSTYLE
  2
AcDbMLeaderStyle
  3
ACDB_MLEADERSTYLE_CLASS
 90
     4095
 91
        1
280
     0
281
     0
  0
CLASS
  1
ACDBSECTIONVIEWSTYLE
  2
AcDbSectionViewStyle
  3
ObjectDBX Classes
 90
     1025
 91
        1
280
     0
281
     0
  0
CLASS
  1
ACDBDETAILVIEWSTYLE
  2
AcDbDetailViewStyle
  3
ObjectDBX Classes
 90
     1025
 91
        1
280
     0
281
     0
  0
CLASS
  1
DICTIONARYVAR
  2
AcDbDictionaryVar
  3
ObjectDBX Classes
 90
        0
 91
        5
280
     0
281
     0
  0
CLASS
  1
CELLSTYLEMAP
  2
AcDbCellStyleMap
  3
ObjectDBX Classes
 90
     1152
 91
        1
280
     0
281
     0
  0
ENDSEC
  0
SECTION
  2
TABLES
  0
TABLE
  2
VPORT
  5
8
330
0
100
AcDbSymbolTable
 70
     1
  0
VPORT
  5
57
330
8
100
AcDbSymbolTableRecord
100
AcDbViewportTableRecord
  2
*Active
 70
     0
 10
0.0
 20
0.0
 11
1.0
 21
1.0
 12
0.0
 22
0.0
 13
0.0
 23
0.0
 14
1.0
 24
1.0
 15
0.0
 25
0.0
 16
0.0
 26
0.0
 36
1.0
 17
9.520833333333332
 27
13.77777777777777
 37
0.0
 40
28.10666666666667
 41
1.229334677419354
 42
50.0
 43
0.0
 44
0.0
 50
0.0
 51
0.0
 71
     0
 72
   100
 73
     1
 74
     1
 75
     0
 76
     0
 77
     0
 78
     0
281
     0
 65
     1
110
0.0
120
0.0
130
0.0
111
1.0
121
0.0
131
0.0
112
0.0
122
1.0
132
0.0
 79
     0
146
0.0
 60
     3
 61
     5
292
     1
282
     1
141
0.0
142
0.0
 63
   250
421
  3355443
  0
ENDTAB
  0
TABLE
  2
LTYPE
  5
5
330
0
100
AcDbSymbolTable
 70
     1
  0
LTYPE
  5
5B
330
5
100
AcDbSymbolTableRecord
100
AcDbLinetypeTableRecord
  2
ByBlock
 70
     0
  3

 72
    65
 73
     0
 40
0.0
  0
LTYPE
  5
5C
330
5
100
AcDbSymbolTableRecord
100
AcDbLinetypeTableRecord
  2
ByLayer
 70
     0
  3

 72
    65
 73
     0
 40
0.0
  0
LTYPE
  5
5D
330
5
100
AcDbSymbolTableRecord
100
AcDbLinetypeTableRecord
  2
Continuous
 70
     0
  3
Solid line
 72
    65
 73
     0
 40
0.0
  0
ENDTAB
  0
TABLE
  2
LAYER
  5
2
330
0
100
AcDbSymbolTable
 70
     3
  0
LAYER
  5
54
330
2
100
AcDbSymbolTableRecord
100
AcDbLayerTableRecord
  2
0
 70
     0
 62
     7
  6
Continuous
370
    -3
390
F
347
21
348
0
  0
LAYER
  5
78
330
2
100
AcDbSymbolTableRecord
100
AcDbLayerTableRecord
  2
Layer 1
 70
     0
 62
     7
  6
Continuous
370
     0
390
F
347
21
348
0
  0
LAYER
  5
9D
330
2
100
AcDbSymbolTableRecord
100
AcDbLayerTableRecord
  2
Layer 2
 70
     0
 62
     7
  6
Continuous
370
     0
390
F
347
21
348
0
  0
ENDTAB
  0
TABLE
  2
STYLE
  5
3
330
0
100
AcDbSymbolTable
 70
     2
  0
STYLE
  5
55
330
3
100
AcDbSymbolTableRecord
100
AcDbTextStyleTableRecord
  2
Standard
 70
     0
 40
0.0
 41
1.0
 50
0.0
 71
     0
 42
0.2
  3
txt
  4

  0
STYLE
  5
5A
330
3
100
AcDbSymbolTableRecord
100
AcDbTextStyleTableRecord
  2
Annotative
 70
     0
 40
0.0
 41
1.0
 50
0.0
 71
     0
 42
0.2
  3
txt
  4

1001
AcadAnnotative
1000
AnnotativeData
1002
{
1070
     1
1070
     1
1002
}
  0
ENDTAB
  0
TABLE
  2
VIEW
  5
6
330
0
100
AcDbSymbolTable
 70
     0
  0
ENDTAB
  0
TABLE
  2
UCS
  5
7
330
0
100
AcDbSymbolTable
 70
     0
  0
ENDTAB
  0
TABLE
  2
APPID
  5
9
330
0
100
AcDbSymbolTable
 70
     2
  0
APPID
  5
56
330
9
100
AcDbSymbolTableRecord
100
AcDbRegAppTableRecord
  2
ACAD
 70
     0
  0
APPID
  5
5E
330
9
100
AcDbSymbolTableRecord
100
AcDbRegAppTableRecord
  2
AcadAnnotative
 70
     0
  0
ENDTAB
  0
TABLE
  2
DIMSTYLE
  5
A
330
0
100
AcDbSymbolTable
 70
     2
100
AcDbDimStyleTable
 71
     0
  0
DIMSTYLE
105
58
330
A
100
AcDbSymbolTableRecord
100
AcDbDimStyleTableRecord
  2
Standard
 70
     0
340
55
  0
DIMSTYLE
105
59
330
A
100
AcDbSymbolTableRecord
100
AcDbDimStyleTableRecord
  2
Annotative
 70
     0
340
55
1001
AcadAnnotative
1000
AnnotativeData
1002
{
1070
     1
1070
     1
1002
}
  0
ENDTAB
  0
TABLE
  2
BLOCK_RECORD
  5
1
330
0
100
AcDbSymbolTable
 70
     2
  0
BLOCK_RECORD
  5
70
330
1
100
AcDbSymbolTableRecord
100
AcDbBlockTableRecord
  2
*Model_Space
340
73
 70
     0
280
     1
281
     0
  0
BLOCK_RECORD
  5
6C
330
1
100
AcDbSymbolTableRecord
100
AcDbBlockTableRecord
  2
*Paper_Space
340
6F
 70
     0
280
     1
281
     0
  0
BLOCK_RECORD
  5
74
330
1
100
AcDbSymbolTableRecord
100
AcDbBlockTableRecord
  2
*Paper_Space0
340
77
 70
     0
280
     1
281
     0
  0
BLOCK_RECORD
  5
9E
330
1
100
AcDbSymbolTableRecord
100
AcDbBlockTableRecord
  2
Block_0
340
0
102
{BLKREFS
331
9F
102
}
 70
     0
280
     1
281
     0
  0
ENDTAB
  0
ENDSEC
  0
SECTION
  2
BLOCKS
  0
BLOCK
  5
71
330
70
100
AcDbEntity
  8
0
100
AcDbBlockBegin
  2
*Model_Space
 70
     0
 10
0.0
 20
0.0
 30
0.0
  3
*Model_Space
  1

  0
ENDBLK
  5
72
330
70
100
AcDbEntity
  8
0
100
AcDbBlockEnd
  0
BLOCK
  5
6D
330
6C
100
AcDbEntity
 67
     1
  8
0
100
AcDbBlockBegin
  2
*Paper_Space
 70
     0
 10
0.0
 20
0.0
 30
0.0
  3
*Paper_Space
  1

  0
ENDBLK
  5
6E
330
6C
100
AcDbEntity
 67
     1
  8
0
100
AcDbBlockEnd
  0
BLOCK
  5
75
330
74
100
AcDbEntity
 67
     1
  8
0
100
AcDbBlockBegin
  2
*Paper_Space0
 70
     0
 10
0.0
 20
0.0
 30
0.0
  3
*Paper_Space0
  1

  0
ENDBLK
  5
76
330
74
100
AcDbEntity
 67
     1
  8
0
100
AcDbBlockEnd
  0
BLOCK
  5
A0
330
9E
100
AcDbEntity
  8
0
100
AcDbBlockBegin
  2
Block_0
 70
     0
 10
0.0
 20
0.0
 30
0.0
  3
Block_0
  1

  0
SPLINE
  5
A2
330
9E
100
AcDbEntity
  8
Layer 2
100
AcDbSpline
210
0.0
220
0.0
230
1.0
 70
     9
 71
     3
 72
    17
 73
    13
 74
     0
 42
0.0000000001
 43
0.0000000001
 40
0.0
 40
0.0
 40
0.0
 40
0.0
 40
1.0
 40
1.0
 40
1.0
 40
2.0
 40
2.0
 40
2.0
 40
3.0
 40
3.0
 40
3.0
 40
4.0
 40
4.0
 40
4.0
 40
4.0
 10
-6.128112935957814
 20
1.39016750847827
 30
0.0
 10
-6.354067625837033
 20
1.39016750847827
 30
0.0
 10
-6.537943555522057
 20
1.20629124703982
 30
0.0
 10
-6.537943555522057
 20
0.9802504671772567
 30
0.0
 10
-6.537943555522057
 20
0.7542548057645793
 30
0.0
 10
-6.354067625837033
 20
0.5703785443263314
 30
0.0
 10
-6.128112935957814
 20
0.5703785443263314
 30
0.0
 10
-5.902072985478449
 20
0.5703785443263314
 30
0.0
 10
-5.718197055793439
 20
0.7542548057645793
 30
0.0
 10
-5.718197055793439
 20
0.9802504671772567
 30
0.0
 10
-5.718197055793439
 20
1.20629124703982
 30
0.0
 10
-5.902072985478449
 20
1.39016750847827
 30
0.0
 10
-6.128112935957814
 20
1.39016750847827
 30
0.0
  0
SPLINE
  5
A3
330
9E
100
AcDbEntity
  8
Layer 2
100
AcDbSpline
210
0.0
220
0.0
230
1.0
 70
     9
 71
     3
 72
    17
 73
    13
 74
     0
 42
0.0000000001
 43
0.0000000001
 40
0.0
 40
0.0
 40
0.0
 40
0.0
 40
1.0
 40
1.0
 40
1.0
 40
2.0
 40
2.0
 40
2.0
 40
3.0
 40
3.0
 40
3.0
 40
4.0
 40
4.0
 40
4.0
 40
4.0
 10
-6.128112935957814
 20
0.5470576137922004
 30
0.0
 10
-6.366942805840986
 20
0.5470576137922004
 30
0.0
 10
-6.561263739611136
 20
0.7413801233904502
 30
0.0
 10
-6.561263739611136
 20
0.9802504671772567
 30
0.0
 10
-6.561263739611136
 20
1.21916592941395
 30
0.0
 10
-6.366942805840986
 20
1.413530903435786
 30
0.0
 10
-6.128112935957814
 20
1.413530903435786
 30
0.0
 10
-5.889240601651193
 20
1.413530903435786
 30
0.0
 10
-5.694876954642672
 20
1.21916592941395
 30
0.0
 10
-5.694876954642672
 20
0.9802504671772567
 30
0.0
 10
-5.694876954642672
 20
0.7413801233904502
 30
0.0
 10
-5.889240601651193
 20
0.5470576137922004
 30
0.0
 10
-6.128112935957814
 20
0.5470576137922004
 30
0.0
  0
HATCH
  5
A4
330
9E
100
AcDbEntity
  8
Layer 2
 62
   250
420
  2170655
440
 33554687
100
AcDbHatch
 10
0.0
 20
0.0
 30
0.0
210
0.0
220
0.0
230
1.0
  2
SOLID
 70
     1
 71
     1
 91
        2
 92
        1
 93
        2
 72
     4
 94
        3
 73
     0
 74
     0
 95
       17
 96
       13
 40
0.0
 40
0.0
 40
0.0
 40
0.0
 40
1.0
 40
1.0
 40
1.0
 40
2.0
 40
2.0
 40
2.0
 40
3.0
 40
3.0
 40
3.0
 40
4.0
 40
4.0
 40
4.0
 40
4.0
 10
-6.128112935957814
 20
1.39016750847827
 10
-6.354067625837033
 20
1.39016750847827
 10
-6.537943555522057
 20
1.20629124703982
 10
-6.537943555522057
 20
0.9802504671772567
 10
-6.537943555522057
 20
0.7542548057645793
 10
-6.354067625837033
 20
0.5703785443263314
 10
-6.128112935957814
 20
0.5703785443263314
 10
-5.902072985478449
 20
0.5703785443263314
 10
-5.718197055793439
 20
0.7542548057645793
 10
-5.718197055793439
 20
0.9802504671772567
 10
-5.718197055793439
 20
1.20629124703982
 10
-5.902072985478449
 20
1.39016750847827
 10
-6.128112935957814
 20
1.39016750847827
 97
        0
 72
     1
 10
-6.128112935957814
 20
1.39016750847827
 11
-6.128112935957814
 21
1.39016750847827
 97
        0
 92
        1
 93
        2
 72
     4
 94
        3
 73
     0
 74
     0
 95
       17
 96
       13
 40
0.0
 40
0.0
 40
0.0
 40
0.0
 40
1.0
 40
1.0
 40
1.0
 40
2.0
 40
2.0
 40
2.0
 40
3.0
 40
3.0
 40
3.0
 40
4.0
 40
4.0
 40
4.0
 40
4.0
 10
-6.128112935957814
 20
0.5470576137922004
 10
-6.366942805840986
 20
0.5470576137922004
 10
-6.561263739611136
 20
0.7413801233904502
 10
-6.561263739611136
 20
0.9802504671772567
 10
-6.561263739611136
 20
1.21916592941395
 10
-6.366942805840986
 20
1.413530903435786
 10
-6.128112935957814
 20
1.413530903435786
 10
-5.889240601651193
 20
1.413530903435786
 10
-5.694876954642672
 20
1.21916592941395
 10
-5.694876954642672
 20
0.9802504671772567
 10
-5.694876954642672
 20
0.7413801233904502
 10
-5.889240601651193
 20
0.5470576137922004
 10
-6.128112935957814
 20
0.5470576137922004
 97
        0
 72
     1
 10
-6.128112935957814
 20
0.5470576137922003
 11
-6.128112935957814
 21
0.5470576137922004
 97
        0
 75
     2
 76
     1
 98
        1
 10
0.0
 20
0.0
450
        0
451
        0
460
0.0
461
0.0
452
        0
462
0.0
453
        0
470

  0
LWPOLYLINE
  5
A5
330
9E
100
AcDbEntity
  8
Layer 2
100
AcDbPolyline
 90
        8
 70
     1
 43
0.0
 10
-6.317513553479758
 20
1.007878882661493
 10
-6.317513553479758
 20
1.172826627362686
 10
-6.366115164276101
 20
1.172826627362686
 10
-6.366115164276101
 20
0.7971863378367187
 10
-6.317513553479758
 20
0.7971863378367187
 10
-6.317513553479758
 20
0.9636681098338613
 10
-6.263582823421566
 20
0.9636681098338613
 10
-6.263582823421566
 20
1.007878882661493
  0
HATCH
  5
A6
330
9E
100
AcDbEntity
  8
Layer 2
 62
   250
420
  2170655
440
 33554687
100
AcDbHatch
 10
0.0
 20
0.0
 30
0.0
210
0.0
220
0.0
230
1.0
  2
SOLID
 70
     1
 71
     1
 91
        1
 92
        1
 93
        8
 72
     1
 10
-6.317513553479758
 20
1.007878882661493
 11
-6.317513553479758
 21
1.172826627362686
 72
     1
 10
-6.317513553479758
 20
1.172826627362686
 11
-6.366115164276101
 21
1.172826627362686
 72
     1
 10
-6.366115164276101
 20
1.172826627362686
 11
-6.366115164276101
 21
0.7971863378367187
 72
     1
 10
-6.366115164276101
 20
0.7971863378367187
 11
-6.317513553479758
 21
0.7971863378367187
 72
     1
 10
-6.317513553479758
 20
0.7971863378367187
 11
-6.317513553479758
 21
0.9636681098338613
 72
     1
 10
-6.317513553479758
 20
0.9636681098338613
 11
-6.263582823421566
 21
0.9636681098338613
 72
     1
 10
-6.263582823421566
 20
0.9636681098338613
 11
-6.263582823421566
 21
1.007878882661493
 72
     1
 10
-6.263582823421566
 20
1.007878882661493
 11
-6.317513553479758
 21
1.007878882661493
 97
        1
330
A5
 75
     2
 76
     1
 98
        1
 10
0.0
 20
0.0
450
        0
451
        0
460
0.0
461
0.0
452
        0
462
0.0
453
        0
470

  0
LWPOLYLINE
  5
A7
330
9E
100
AcDbEntity
  8
Layer 2
100
AcDbPolyline
 90
        8
 70
     1
 43
0.0
 10
-5.938025257335159
 20
1.007878882661493
 10
-5.938025257335159
 20
1.172826627362686
 10
-5.889466193900602
 20
1.172826627362686
 10
-5.889466193900602
 20
0.7971863378367187
 10
-5.938025257335159
 20
0.7971863378367187
 10
-5.938025257335159
 20
0.9636681098338613
 10
-5.991870643854907
 20
0.9636681098338613
 10
-5.991870643854907
 20
1.007878882661493
  0
HATCH
  5
A8
330
9E
100
AcDbEntity
  8
Layer 2
 62
   250
420
  2170655
440
 33554687
100
AcDbHatch
 10
0.0
 20
0.0
 30
0.0
210
0.0
220
0.0
230
1.0
  2
SOLID
 70
     1
 71
     1
 91
        1
 92
        1
 93
        8
 72
     1
 10
-5.938025257335159
 20
1.007878882661493
 11
-5.938025257335159
 21
1.172826627362686
 72
     1
 10
-5.938025257335159
 20
1.172826627362686
 11
-5.889466193900602
 21
1.172826627362686
 72
     1
 10
-5.889466193900602
 20
1.172826627362686
 11
-5.889466193900602
 21
0.7971863378367187
 72
     1
 10
-5.889466193900602
 20
0.7971863378367187
 11
-5.938025257335159
 21
0.7971863378367187
 72
     1
 10
-5.938025257335159
 20
0.7971863378367187
 11
-5.938025257335159
 21
0.9636681098338613
 72
     1
 10
-5.938025257335159
 20
0.9636681098338613
 11
-5.991870643854907
 21
0.9636681098338613
 72
     1
 10
-5.991870643854907
 20
0.9636681098338613
 11
-5.991870643854907
 21
1.007878882661493
 72
     1
 10
-5.991870643854907
 20
1.007878882661493
 11
-5.938025257335159
 21
1.007878882661493
 97
        1
330
A7
 75
     2
 76
     1
 98
        1
 10
0.0
 20
0.0
450
        0
451
        0
460
0.0
461
0.0
452
        0
462
0.0
453
        0
470

  0
SPLINE
  5
A9
330
9E
100
AcDbEntity
  8
Layer 2
100
AcDbSpline
210
0.0
220
0.0
230
1.0
 70
     9
 71
     3
 72
   155
 73
   151
 74
     0
 42
0.0000000001
 43
0.0000000001
 40
0.0
 40
0.0
 40
0.0
 40
0.0
 40
1.0
 40
1.0
 40
1.0
 40
2.0
 40
2.0
 40
2.0
 40
3.0
 40
3.0
 40
3.0
 40
4.0
 40
4.0
 40
4.0
 40
5.0
 40
5.0
 40
5.0
 40
6.0
 40
6.0
 40
6.0
 40
7.0
 40
7.0
 40
7.0
 40
8.0
 40
8.0
 40
8.0
 40
9.0
 40
9.0
 40
9.0
 40
10.0
 40
10.0
 40
10.0
 40
11.0
 40
11.0
 40
11.0
 40
12.0
 40
12.0
 40
12.0
 40
13.0
 40
13.0
 40
13.0
 40
14.0
 40
14.0
 40
14.0
 40
15.0
 40
15.0
 40
15.0
 40
16.0
 40
16.0
 40
16.0
 40
17.0
 40
17.0
 40
17.0
 40
18.0
 40
18.0
 40
18.0
 40
19.0
 40
19.0
 40
19.0
 40
20.0
 40
20.0
 40
20.0
 40
21.0
 40
21.0
 40
21.0
 40
22.0
 40
22.0
 40
22.0
 40
23.0
 40
23.0
 40
23.0
 40
24.0
 40
24.0
 40
24.0
 40
25.0
 40
25.0
 40
25.0
 40
26.0
 40
26.0
 40
26.0
 40
27.0
 40
27.0
 40
27.0
 40
28.0
 40
28.0
 40
28.0
 40
29.0
 40
29.0
 40
29.0
 40
30.0
 40
30.0
 40
30.0
 40
31.0
 40
31.0
 40
31.0
 40
32.0
 40
32.0
 40
32.0
 40
33.0
 40
33.0
 40
33.0
 40
34.0
 40
34.0
 40
34.0
 40
35.0
 40
35.0
 40
35.0
 40
36.0
 40
36.0
 40
36.0
 40
37.0
 40
37.0
 40
37.0
 40
38.0
 40
38.0
 40
38.0
 40
39.0
 40
39.0
 40
39.0
 40
40.0
 40
40.0
 40
40.0
 40
41.0
 40
41.0
 40
41.0
 40
42.0
 40
42.0
 40
42.0
 40
43.0
 40
43.0
 40
43.0
 40
44.0
 40
44.0
 40
44.0
 40
45.0
 40
45.0
 40
45.0
 40
46.0
 40
46.0
 40
46.0
 40
47.0
 40
47.0
 40
47.0
 40
48.0
 40
48.0
 40
48.0
 40
49.0
 40
49.0
 40
49.0
 40
50.0
 40
50.0
 40
50.0
 40
50.0
 10
-6.000414203855598
 20
0.9379107830064487
 30
0.0
 10
-6.00753404453538
 20
0.9521071705592021
 30
0.0
 10
-6.017339511181072
 20
0.9641723748620227
 30
0.0
 10
-6.029276658706925
 20
0.9740639314909206
 30
0.0
 10
-6.04083029940879
 20
0.9835706542830596
 30
0.0
 10
-6.053961178274865
 20
0.9912434447888546
 30
0.0
 10
-6.068669627058448
 20
0.9969575637645043
 30
0.0
 10
-6.082440043363917
 20
1.002244384479657
 30
0.0
 10
-6.096722023270128
 20
1.006421822132955
 30
0.0
 10
-6.110790934614341
 20
1.010344473245949
 30
0.0
 10
-6.122216518539377
 20
1.013542575134301
 30
0.0
 10
-6.130956310621741
 20
1.016610629726099
 30
0.0
 10
-6.145195660227892
 20
1.021385223333785
 30
0.0
 10
-6.157346125130743
 20
1.025180481176372
 30
0.0
 10
-6.168601270793815
 20
1.029742752667087
 30
0.0
 10
-6.178577341578121
 20
1.035284359922697
 30
0.0
 10
-6.187743436661182
 20
1.040656109484618
 30
0.0
 10
-6.195374675065092
 20
1.047519421919054
 30
0.0
 10
-6.201002206427435
 20
1.055364724144939
 30
0.0
 10
-6.206203517727481
 20
1.062825192533409
 30
0.0
 10
-6.208761501608212
 20
1.072674284739226
 30
0.0
 10
-6.208761501608212
 20
1.084566977321704
 30
0.0
 10
-6.208761501608212
 20
1.092709530511481
 30
0.0
 10
-6.207269358167473
 20
1.100724690431004
 30
0.0
 10
-6.204242358047685
 20
1.108315206116382
 30
0.0
 10
-6.201258071166193
 20
1.11564828123485
 30
0.0
 10
-6.196568406405313
 20
1.122554058092772
 30
0.0
 10
-6.190216159941781
 20
1.128565428032364
 30
0.0
 10
-6.183693226401348
 20
1.134704191242159
 30
0.0
 10
-6.175209299057731
 20
1.139691106966968
 30
0.0
 10
-6.165233228273374
 20
1.143486364809506
 30
0.0
 10
-6.154660167411457
 20
1.147366551499165
 30
0.0
 10
-6.14191296124597
 20
1.149242948208843
 30
0.0
 10
-6.127289938939181
 20
1.149242948208843
 30
0.0
 10
-6.113860482095964
 20
1.149242948208843
 30
0.0
 10
-6.102349637570821
 20
1.147878778606582
 30
0.0
 10
-6.092501457686694
 20
1.14532029709585
 30
0.0
 10
-6.082781085764432
 20
1.14250702904466
 30
0.0
 10
-6.074211814882346
 20
1.139308927156257
 30
0.0
 10
-6.067006879479107
 20
1.135131489502706
 30
0.0
 10
-6.060313507676735
 20
1.131251302813299
 30
0.0
 10
-6.054131699475141
 20
1.126689031322686
 30
0.0
 10
-6.049058444951975
 20
1.121956902138334
 30
0.0
 10
-6.043729325690137
 20
1.116712545846616
 30
0.0
 10
-6.039636485130182
 20
1.112152928382607
 30
0.0
 10
-6.036524307348549
 20
1.108100229972958
 30
0.0
 10
-6.036524307348549
 20
1.108100229972958
 30
0.0
 10
-6.030342582085292
 20
1.099702890242673
 30
0.0
 10
-6.030342582085292
 20
1.099702890242673
 30
0.0
 10
-6.030342582085292
 20
1.099702890242673
 30
0.0
 10
-5.995511470532719
 20
1.129332441680288
 30
0.0
 10
-5.995511470532719
 20
1.129332441680288
 30
0.0
 10
-5.995511470532719
 20
1.129332441680288
 30
0.0
 10
-6.000840589794657
 20
1.136750445645475
 30
0.0
 10
-6.000840589794657
 20
1.136750445645475
 30
0.0
 10
-6.005103785678152
 20
1.142591957891429
 30
0.0
 10
-6.010859373817374
 20
1.148985507641731
 30
0.0
 10
-6.0180643092206
 20
1.156063796219793
 30
0.0
 10
-6.025141353723622
 20
1.162969573077614
 30
0.0
 10
-6.03388114580596
 20
1.169193265134329
 30
0.0
 10
-6.044198258990856
 20
1.175034777380233
 30
0.0
 10
-6.053961178274865
 20
1.180406526942255
 30
0.0
 10
-6.065983669339137
 20
1.185138656126506
 30
0.0
 10
-6.07962627768269
 20
1.189103771662732
 30
0.0
 10
-6.093098281887679
 20
1.192771636235268
 30
0.0
 10
-6.108787227572823
 20
1.194602914494907
 30
0.0
 10
-6.12605349436055
 20
1.194602914494907
 30
0.0
 10
-6.146218870367899
 20
1.194602914494907
 30
0.0
 10
-6.164593773772367
 20
1.191789646443718
 30
0.0
 10
-6.180581048619678
 20
1.186248039188108
 30
0.0
 10
-6.196568406405313
 20
1.180706431932498
 30
0.0
 10
-6.21042416624924
 20
1.172818665283229
 30
0.0
 10
-6.221764489574082
 20
1.162969573077614
 30
0.0
 10
-6.233275334099238
 20
1.153208063745119
 30
0.0
 10
-6.242143017081779
 20
1.14122778828937
 30
0.0
 10
-6.248154304083122
 20
1.127968272078128
 30
0.0
 10
-6.254037700184211
 20
1.114496433749865
 30
0.0
 10
-6.257064617365724
 20
1.100342510620243
 30
0.0
 10
-6.257064617365724
 20
1.085803753653812
 30
0.0
 10
-6.257064617365724
 20
1.064744053666572
 30
0.0
 10
-6.2530571203443
 20
1.047052313261524
 30
0.0
 10
-6.244956782762995
 20
1.032940854555439
 30
0.0
 10
-6.236771267519846
 20
1.019423897777288
 30
0.0
 10
-6.226283550196322
 20
1.008128361148995
 30
0.0
 10
-6.213536344030885
 20
0.9995160452752365
 30
0.0
 10
-6.201428592366457
 20
0.9909886582483471
 30
0.0
 10
-6.187146529521871
 20
0.9842527390840636
 30
0.0
 10
-6.171329692936524
 20
0.9790083827923959
 30
0.0
 10
-6.157218234230539
 20
0.9742337891846091
 30
0.0
 10
-6.148009425909094
 20
0.9709082940260536
 30
0.0
 10
-6.131169462122088
 20
0.9657064021577701
 30
0.0
 10
-6.119147053996104
 20
0.962083656035222
 30
0.0
 10
-6.107124479993495
 20
0.9583308626158668
 30
0.0
 10
-6.095570922230004
 20
0.9540684961157491
 30
0.0
 10
-6.084529093943893
 20
0.9501033805792706
 30
0.0
 10
-6.074638200821355
 20
0.9449890715844098
 30
0.0
 10
-6.06619690377781
 20
0.9388476543480111
 30
0.0
 10
-6.057883497634482
 20
0.9324965690210925
 30
0.0
 10
-6.051232673193807
 20
0.9249087073621163
 30
0.0
 10
-6.04641511753276
 20
0.9163388559117922
 30
0.0
 10
-6.041512384209871
 20
0.9078114688849533
 30
0.0
 10
-6.038997030629148
 20
0.8968131832205521
 30
0.0
 10
-6.038997030629148
 20
0.8842782162337496
 30
0.0
 10
-6.038997030629148
 20
0.8724253340480016
 30
0.0
 10
-6.041256519471162
 20
0.8617242993474922
 30
0.0
 10
-6.045647772131511
 20
0.8524750171226161
 30
0.0
 10
-6.050337436892378
 20
0.843350474141491
 30
0.0
 10
-6.056519162155622
 20
0.8358900057527181
 30
0.0
 10
-6.064278374398099
 20
0.8302210052269048
 30
0.0
 10
-6.072421259341189
 20
0.8240371235670206
 30
0.0
 10
-6.082525303964012
 20
0.8193049943829212
 30
0.0
 10
-6.093908257588989
 20
0.816279404214659
 30
0.0
 10
-6.105461815352478
 20
0.813123766749489
 30
0.0
 10
-6.118592777156865
 20
0.8112898344633979
 30
0.0
 10
-6.133045278263415
 20
0.8112898344633979
 30
0.0
 10
-6.158028209931836
 20
0.8112898344633979
 30
0.0
 10
-6.179174165779108
 20
0.8161944753677895
 30
0.0
 10
-6.196099473104582
 20
0.825316364322513
 30
0.0
 10
-6.212513133890916
 20
0.8344409073035876
 30
0.0
 10
-6.226923087635718
 20
0.846121277769296
 30
0.0
 10
-6.239030839300122
 20
0.8601478076284113
 30
0.0
 10
-6.239030839300122
 20
0.8601478076284113
 30
0.0
 10
-6.27407510235303
 20
0.8264257473841148
 30
0.0
 10
-6.27407510235303
 20
0.8264257473841148
 30
0.0
 10
-6.268532914529132
 20
0.8194350416795764
 30
0.0
 10
-6.261839459788397
 20
0.812526610795304
 30
0.0
 10
-6.253867178983909
 20
0.8059180849014257
 30
0.0
 10
-6.244743631262647
 20
0.7983302232425002
 30
0.0
 10
-6.233914954476921
 20
0.7914244463845787
 30
0.0
 10
-6.221551338073746
 20
0.7854130764450372
 30
0.0
 10
-6.209741998509811
 20
0.7794866353522644
 30
0.0
 10
-6.196227364004799
 20
0.7747545061679628
 30
0.0
 10
-6.181135242520566
 20
0.7707893906316864
 30
0.0
 10
-6.166171094874887
 20
0.7673789666260593
 30
0.0
 10
-6.149927955288843
 20
0.7654176410697648
 30
0.0
 10
-6.133045278263415
 20
0.7654176410697648
 30
0.0
 10
-6.113519439695399
 20
0.7654176410697648
 30
0.0
 10
-6.094803576828717
 20
0.7680185870038309
 30
0.0
 10
-6.077494596802605
 20
0.7734752654126725
 30
0.0
 10
-6.060057642937977
 20
0.7788894793980287
 30
0.0
 10
-6.044837796430252
 20
0.7866923172004287
 30
0.0
 10
-6.031706834625816
 20
0.7968386603699349
 30
0.0
 10
-6.018831654621824
 20
0.8070274679630781
 30
0.0
 10
-6.008471911136868
 20
0.819519970526446
 30
0.0
 10
-6.000712781832715
 20
0.8341410023133448
 30
0.0
 10
-5.99295340371365
 20
0.8490645931171405
 30
0.0
 10
-5.989159058192537
 20
0.8659043910274956
 30
0.0
 10
-5.989159058192537
 20
0.8842782162337496
 30
0.0
 10
-5.989159058192537
 20
0.9052954517975548
 30
0.0
 10
-5.992910856351904
 20
0.9234144904631495
 30
0.0
 10
-6.000414203855598
 20
0.9379107830064487
 30
0.0
  0
HATCH
  5
AA
330
9E
100
AcDbEntity
  8
Layer 2
 62
   250
420
  2170655
440
 33554687
100
AcDbHatch
 10
0.0
 20
0.0
 30
0.0
210
0.0
220
0.0
230
1.0
  2
SOLID
 70
     1
 71
     1
 91
        1
 92
        1
 93
        2
 72
     4
 94
        3
 73
     0
 74
     0
 95
      155
 96
      151
 40
0.0
 40
0.0
 40
0.0
 40
0.0
 40
1.0
 40
1.0
 40
1.0
 40
2.0
 40
2.0
 40
2.0
 40
3.0
 40
3.0
 40
3.0
 40
4.0
 40
4.0
 40
4.0
 40
5.0
 40
5.0
 40
5.0
 40
6.0
 40
6.0
 40
6.0
 40
7.0
 40
7.0
 40
7.0
 40
8.0
 40
8.0
 40
8.0
 40
9.0
 40
9.0
 40
9.0
 40
10.0
 40
10.0
 40
10.0
 40
11.0
 40
11.0
 40
11.0
 40
12.0
 40
12.0
 40
12.0
 40
13.0
 40
13.0
 40
13.0
 40
14.0
 40
14.0
 40
14.0
 40
15.0
 40
15.0
 40
15.0
 40
16.0
 40
16.0
 40
16.0
 40
17.0
 40
17.0
 40
17.0
 40
18.0
 40
18.0
 40
18.0
 40
19.0
 40
19.0
 40
19.0
 40
20.0
 40
20.0
 40
20.0
 40
21.0
 40
21.0
 40
21.0
 40
22.0
 40
22.0
 40
22.0
 40
23.0
 40
23.0
 40
23.0
 40
24.0
 40
24.0
 40
24.0
 40
25.0
 40
25.0
 40
25.0
 40
26.0
 40
26.0
 40
26.0
 40
27.0
 40
27.0
 40
27.0
 40
28.0
 40
28.0
 40
28.0
 40
29.0
 40
29.0
 40
29.0
 40
30.0
 40
30.0
 40
30.0
 40
31.0
 40
31.0
 40
31.0
 40
32.0
 40
32.0
 40
32.0
 40
33.0
 40
33.0
 40
33.0
 40
34.0
 40
34.0
 40
34.0
 40
35.0
 40
35.0
 40
35.0
 40
36.0
 40
36.0
 40
36.0
 40
37.0
 40
37.0
 40
37.0
 40
38.0
 40
38.0
 40
38.0
 40
39.0
 40
39.0
 40
39.0
 40
40.0
 40
40.0
 40
40.0
 40
41.0
 40
41.0
 40
41.0
 40
42.0
 40
42.0
 40
42.0
 40
43.0
 40
43.0
 40
43.0
 40
44.0
 40
44.0
 40
44.0
 40
45.0
 40
45.0
 40
45.0
 40
46.0
 40
46.0
 40
46.0
 40
47.0
 40
47.0
 40
47.0
 40
48.0
 40
48.0
 40
48.0
 40
49.0
 40
49.0
 40
49.0
 40
50.0
 40
50.0
 40
50.0
 40
50.0
 10
-6.000414203855598
 20
0.9379107830064487
 10
-6.00753404453538
 20
0.9521071705592021
 10
-6.017339511181072
 20
0.9641723748620227
 10
-6.029276658706925
 20
0.9740639314909206
 10
-6.04083029940879
 20
0.9835706542830596
 10
-6.053961178274865
 20
0.9912434447888546
 10
-6.068669627058448
 20
0.9969575637645043
 10
-6.082440043363917
 20
1.002244384479657
 10
-6.096722023270128
 20
1.006421822132955
 10
-6.110790934614341
 20
1.010344473245949
 10
-6.122216518539377
 20
1.013542575134301
 10
-6.130956310621741
 20
1.016610629726099
 10
-6.145195660227892
 20
1.021385223333785
 10
-6.157346125130743
 20
1.025180481176372
 10
-6.168601270793815
 20
1.029742752667087
 10
-6.178577341578121
 20
1.035284359922697
 10
-6.187743436661182
 20
1.040656109484618
 10
-6.195374675065092
 20
1.047519421919054
 10
-6.201002206427435
 20
1.055364724144939
 10
-6.206203517727481
 20
1.062825192533409
 10
-6.208761501608212
 20
1.072674284739226
 10
-6.208761501608212
 20
1.084566977321704
 10
-6.208761501608212
 20
1.092709530511481
 10
-6.207269358167473
 20
1.100724690431004
 10
-6.204242358047685
 20
1.108315206116382
 10
-6.201258071166193
 20
1.11564828123485
 10
-6.196568406405313
 20
1.122554058092772
 10
-6.190216159941781
 20
1.128565428032364
 10
-6.183693226401348
 20
1.134704191242159
 10
-6.175209299057731
 20
1.139691106966968
 10
-6.165233228273374
 20
1.143486364809506
 10
-6.154660167411457
 20
1.147366551499165
 10
-6.14191296124597
 20
1.149242948208843
 10
-6.127289938939181
 20
1.149242948208843
 10
-6.113860482095964
 20
1.149242948208843
 10
-6.102349637570821
 20
1.147878778606582
 10
-6.092501457686694
 20
1.14532029709585
 10
-6.082781085764432
 20
1.14250702904466
 10
-6.074211814882346
 20
1.139308927156257
 10
-6.067006879479107
 20
1.135131489502706
 10
-6.060313507676735
 20
1.131251302813299
 10
-6.054131699475141
 20
1.126689031322686
 10
-6.049058444951975
 20
1.121956902138334
 10
-6.043729325690137
 20
1.116712545846616
 10
-6.039636485130182
 20
1.112152928382607
 10
-6.036524307348549
 20
1.108100229972958
 10
-6.036524307348549
 20
1.108100229972958
 10
-6.030342582085292
 20
1.099702890242673
 10
-6.030342582085292
 20
1.099702890242673
 10
-6.030342582085292
 20
1.099702890242673
 10
-5.995511470532719
 20
1.129332441680288
 10
-5.995511470532719
 20
1.129332441680288
 10
-5.995511470532719
 20
1.129332441680288
 10
-6.000840589794657
 20
1.136750445645475
 10
-6.000840589794657
 20
1.136750445645475
 10
-6.005103785678152
 20
1.142591957891429
 10
-6.010859373817374
 20
1.148985507641731
 10
-6.0180643092206
 20
1.156063796219793
 10
-6.025141353723622
 20
1.162969573077614
 10
-6.03388114580596
 20
1.169193265134329
 10
-6.044198258990856
 20
1.175034777380233
 10
-6.053961178274865
 20
1.180406526942255
 10
-6.065983669339137
 20
1.185138656126506
 10
-6.07962627768269
 20
1.189103771662732
 10
-6.093098281887679
 20
1.192771636235268
 10
-6.108787227572823
 20
1.194602914494907
 10
-6.12605349436055
 20
1.194602914494907
 10
-6.146218870367899
 20
1.194602914494907
 10
-6.164593773772367
 20
1.191789646443718
 10
-6.180581048619678
 20
1.186248039188108
 10
-6.196568406405313
 20
1.180706431932498
 10
-6.21042416624924
 20
1.172818665283229
 10
-6.221764489574082
 20
1.162969573077614
 10
-6.233275334099238
 20
1.153208063745119
 10
-6.242143017081779
 20
1.14122778828937
 10
-6.248154304083122
 20
1.127968272078128
 10
-6.254037700184211
 20
1.114496433749865
 10
-6.257064617365724
 20
1.100342510620243
 10
-6.257064617365724
 20
1.085803753653812
 10
-6.257064617365724
 20
1.064744053666572
 10
-6.2530571203443
 20
1.047052313261524
 10
-6.244956782762995
 20
1.032940854555439
 10
-6.236771267519846
 20
1.019423897777288
 10
-6.226283550196322
 20
1.008128361148995
 10
-6.213536344030885
 20
0.9995160452752365
 10
-6.201428592366457
 20
0.9909886582483471
 10
-6.187146529521871
 20
0.9842527390840636
 10
-6.171329692936524
 20
0.9790083827923959
 10
-6.157218234230539
 20
0.9742337891846091
 10
-6.148009425909094
 20
0.9709082940260536
 10
-6.131169462122088
 20
0.9657064021577701
 10
-6.119147053996104
 20
0.962083656035222
 10
-6.107124479993495
 20
0.9583308626158668
 10
-6.095570922230004
 20
0.9540684961157491
 10
-6.084529093943893
 20
0.9501033805792706
 10
-6.074638200821355
 20
0.9449890715844098
 10
-6.06619690377781
 20
0.9388476543480111
 10
-6.057883497634482
 20
0.9324965690210925
 10
-6.051232673193807
 20
0.9249087073621163
 10
-6.04641511753276
 20
0.9163388559117922
 10
-6.041512384209871
 20
0.9078114688849533
 10
-6.038997030629148
 20
0.8968131832205521
 10
-6.038997030629148
 20
0.8842782162337496
 10
-6.038997030629148
 20
0.8724253340480016
 10
-6.041256519471162
 20
0.8617242993474922
 10
-6.045647772131511
 20
0.8524750171226161
 10
-6.050337436892378
 20
0.843350474141491
 10
-6.056519162155622
 20
0.8358900057527181
 10
-6.064278374398099
 20
0.8302210052269048
 10
-6.072421259341189
 20
0.8240371235670206
 10
-6.082525303964012
 20
0.8193049943829212
 10
-6.093908257588989
 20
0.816279404214659
 10
-6.105461815352478
 20
0.813123766749489
 10
-6.118592777156865
 20
0.8112898344633979
 10
-6.133045278263415
 20
0.8112898344633979
 10
-6.158028209931836
 20
0.8112898344633979
 10
-6.179174165779108
 20
0.8161944753677895
 10
-6.196099473104582
 20
0.825316364322513
 10
-6.212513133890916
 20
0.8344409073035876
 10
-6.226923087635718
 20
0.846121277769296
 10
-6.239030839300122
 20
0.8601478076284113
 10
-6.239030839300122
 20
0.8601478076284113
 10
-6.27407510235303
 20
0.8264257473841148
 10
-6.27407510235303
 20
0.8264257473841148
 10
-6.268532914529132
 20
0.8194350416795764
 10
-6.261839459788397
 20
0.812526610795304
 10
-6.253867178983909
 20
0.8059180849014257
 10
-6.244743631262647
 20
0.7983302232425002
 10
-6.233914954476921
 20
0.7914244463845787
 10
-6.221551338073746
 20
0.7854130764450372
 10
-6.209741998509811
 20
0.7794866353522644
 10
-6.196227364004799
 20
0.7747545061679628
 10
-6.181135242520566
 20
0.7707893906316864
 10
-6.166171094874887
 20
0.7673789666260593
 10
-6.149927955288843
 20
0.7654176410697648
 10
-6.133045278263415
 20
0.7654176410697648
 10
-6.113519439695399
 20
0.7654176410697648
 10
-6.094803576828717
 20
0.7680185870038309
 10
-6.077494596802605
 20
0.7734752654126725
 10
-6.060057642937977
 20
0.7788894793980287
 10
-6.044837796430252
 20
0.7866923172004287
 10
-6.031706834625816
 20
0.7968386603699349
 10
-6.018831654621824
 20
0.8070274679630781
 10
-6.008471911136868
 20
0.819519970526446
 10
-6.000712781832715
 20
0.8341410023133448
 10
-5.99295340371365
 20
0.8490645931171405
 10
-5.989159058192537
 20
0.8659043910274956
 10
-5.989159058192537
 20
0.8842782162337496
 10
-5.989159058192537
 20
0.9052954517975548
 10
-5.992910856351904
 20
0.9234144904631495
 10
-6.000414203855598
 20
0.9379107830064487
 97
        0
 72
     1
 10
-6.000414203855598
 20
0.9379107830064487
 11
-6.000414203855598
 21
0.9379107830064487
 97
        0
 75
     2
 76
     1
 98
        1
 10
0.0
 20
0.0
450
        0
451
        0
460
0.0
461
0.0
452
        0
462
0.0
453
        0
470

  0
SPLINE
  5
AB
330
9E
100
AcDbEntity
  8
Layer 2
100
AcDbSpline
210
0.0
220
0.0
230
1.0
 70
     9
 71
     3
 72
   149
 73
   145
 74
     0
 42
0.0000000001
 43
0.0000000001
 40
0.0
 40
0.0
 40
0.0
 40
0.0
 40
1.0
 40
1.0
 40
1.0
 40
2.0
 40
2.0
 40
2.0
 40
3.0
 40
3.0
 40
3.0
 40
4.0
 40
4.0
 40
4.0
 40
5.0
 40
5.0
 40
5.0
 40
6.0
 40
6.0
 40
6.0
 40
7.0
 40
7.0
 40
7.0
 40
8.0
 40
8.0
 40
8.0
 40
9.0
 40
9.0
 40
9.0
 40
10.0
 40
10.0
 40
10.0
 40
11.0
 40
11.0
 40
11.0
 40
12.0
 40
12.0
 40
12.0
 40
13.0
 40
13.0
 40
13.0
 40
14.0
 40
14.0
 40
14.0
 40
15.0
 40
15.0
 40
15.0
 40
16.0
 40
16.0
 40
16.0
 40
17.0
 40
17.0
 40
17.0
 40
18.0
 40
18.0
 40
18.0
 40
19.0
 40
19.0
 40
19.0
 40
20.0
 40
20.0
 40
20.0
 40
21.0
 40
21.0
 40
21.0
 40
22.0
 40
22.0
 40
22.0
 40
23.0
 40
23.0
 40
23.0
 40
24.0
 40
24.0
 40
24.0
 40
25.0
 40
25.0
 40
25.0
 40
26.0
 40
26.0
 40
26.0
 40
27.0
 40
27.0
 40
27.0
 40
28.0
 40
28.0
 40
28.0
 40
29.0
 40
29.0
 40
29.0
 40
30.0
 40
30.0
 40
30.0
 40
31.0
 40
31.0
 40
31.0
 40
32.0
 40
32.0
 40
32.0
 40
33.0
 40
33.0
 40
33.0
 40
34.0
 40
34.0
 40
34.0
 40
35.0
 40
35.0
 40
35.0
 40
36.0
 40
36.0
 40
36.0
 40
37.0
 40
37.0
 40
37.0
 40
38.0
 40
38.0
 40
38.0
 40
39.0
 40
39.0
 40
39.0
 40
40.0
 40
40.0
 40
40.0
 40
41.0
 40
41.0
 40
41.0
 40
42.0
 40
42.0
 40
42.0
 40
43.0
 40
43.0
 40
43.0
 40
44.0
 40
44.0
 40
44.0
 40
45.0
 40
45.0
 40
45.0
 40
46.0
 40
46.0
 40
46.0
 40
47.0
 40
47.0
 40
47.0
 40
48.0
 40
48.0
 40
48.0
 40
48.0
 10
-5.406730628522899
 20
0.868664578549442
 30
0.0
 10
-5.394154026496051
 20
0.8534862012050881
 30
0.0
 10
-5.379104535311904
 20
0.8411237459386281
 30
0.0
 10
-5.361539856423733
 20
0.8314896298762858
 30
0.0
 10
-5.344017641958922
 20
0.8219377886346642
 30
0.0
 10
-5.322658534611352
 20
0.8171207306035435
 30
0.0
 10
-5.297547794981053
 20
0.8171207306035435
 30
0.0
 10
-5.283095127997878
 20
0.8171207306035435
 30
0.0
 10
-5.269878905593359
 20
0.8188272696195326
 30
0.0
 10
-5.25789912776741
 20
0.8221103003547543
 30
0.0
 10
-5.24587655376485
 20
0.8254357955133603
 30
0.0
 10
-5.235516727341531
 20
0.8303377823913503
 30
0.0
 10
-5.226862278797637
 20
0.8367764505913884
 30
0.0
 10
-5.218165199953697
 20
0.8432549291888133
 30
0.0
 10
-5.211429114912852
 20
0.8513550179551049
 30
0.0
 10
-5.206611725128482
 20
0.8612041101607195
 30
0.0
 10
-5.201836633890833
 20
0.8709656194932652
 30
0.0
 10
-5.19940670678693
 20
0.882348738994829
 30
0.0
 10
-5.19940670678693
 20
0.8952685398187441
 30
0.0
 10
-5.19940670678693
 20
0.9089527002640807
 30
0.0
 10
-5.20209241569124
 20
0.9205906063060512
 30
0.0
 10
-5.207421534953103
 20
0.9301849119714107
 30
0.0
 10
-5.212793284515075
 20
0.9398614924570868
 30
0.0
 10
-5.21995583843323
 20
0.94787665237661
 30
0.0
 10
-5.228780642300724
 20
0.9543153205767996
 30
0.0
 10
-5.237691204398363
 20
0.9607937991739213
 30
0.0
 10
-5.24770982254443
 20
0.9660806198890742
 30
0.0
 10
-5.259007681445837
 20
0.9701306642723213
 30
0.0
 10
-5.270262744170596
 20
0.9741807086553661
 30
0.0
 10
-5.281645697795523
 20
0.9778910376513369
 30
0.0
 10
-5.293071281720522
 20
0.9812165328099935
 30
0.0
 10
-5.307140110126447
 20
0.9849242077793102
 30
0.0
 10
-5.321209104409022
 20
0.9890591810093761
 30
0.0
 10
-5.335235302514825
 20
0.9936639169234744
 30
0.0
 10
-5.349261500620715
 20
0.998311117260755
 30
0.0
 10
-5.361838268524189
 20
1.004407416047317
 30
0.0
 10
-5.372922810048672
 20
1.011995277706091
 30
0.0
 10
-5.384007351573144
 20
1.019543328968085
 30
0.0
 10
-5.39296021221748
 20
1.029177445030376
 30
0.0
 10
-5.399824188158491
 20
1.040815351072397
 30
0.0
 10
-5.406645367922767
 20
1.052455911141022
 30
0.0
 10
-5.410013493381484
 20
1.067461776765134
 30
0.0
 10
-5.410013493381484
 20
1.086008113691428
 30
0.0
 10
-5.410013493381484
 20
1.098540426651778
 30
0.0
 10
-5.407455509500727
 20
1.110563166530962
 30
0.0
 10
-5.402296911439116
 20
1.122031214879295
 30
0.0
 10
-5.397138313377518
 20
1.133456798804445
 30
0.0
 10
-5.389677513235533
 20
1.143433284280313
 30
0.0
 10
-5.379829416289718
 20
1.151960671307405
 30
0.0
 10
-5.37006641406741
 20
1.160488058334294
 30
0.0
 10
-5.358043840064788
 20
1.167223977498375
 30
0.0
 10
-5.343847120758671
 20
1.17216842879975
 30
0.0
 10
-5.32960777115247
 20
1.177200462974395
 30
0.0
 10
-5.313449726289907
 20
1.179671361611857
 30
0.0
 10
-5.295330853500798
 20
1.179671361611857
 30
0.0
 10
-5.279769798715859
 20
1.179671361611857
 30
0.0
 10
-5.266041846833862
 20
1.178009941045704
 30
0.0
 10
-5.254019604584527
 20
1.174641981463663
 30
0.0
 10
-5.241997030581917
 20
1.171401415151876
 30
0.0
 10
-5.23146651708171
 20
1.167223977498375
 30
0.0
 10
-5.222428395837192
 20
1.16219194332368
 30
0.0
 10
-5.213390274592685
 20
1.157247492022507
 30
0.0
 10
-5.20580158355051
 20
1.151748349190332
 30
0.0
 10
-5.199705118887398
 20
1.145864372520741
 30
0.0
 10
-5.193565858047551
 20
1.139937931428019
 30
0.0
 10
-5.188492520586085
 20
1.134226466478771
 30
0.0
 10
-5.184442476202914
 20
1.128639740773324
 30
0.0
 10
-5.184442476202914
 20
1.128639740773324
 30
0.0
 10
-5.203286229969813
 20
1.112609420934328
 30
0.0
 10
-5.203286229969813
 20
1.112609420934328
 30
0.0
 10
-5.206611725128482
 20
1.117044299154738
 30
0.0
 10
-5.210874921012027
 20
1.121776428338838
 30
0.0
 10
-5.216033519073599
 20
1.126720879640263
 30
0.0
 10
-5.221234747435295
 20
1.131752913814857
 30
0.0
 10
-5.227501733298658
 20
1.136357649728905
 30
0.0
 10
-5.234877272840472
 20
1.140577551805639
 30
0.0
 10
-5.242295442682385
 20
1.144797453882625
 30
0.0
 10
-5.251035317703085
 20
1.148380389608089
 30
0.0
 10
-5.261181826749393
 20
1.151066264389075
 30
0.0
 10
-5.271413596395796
 20
1.153879532440264
 30
0.0
 10
-5.283095127997878
 20
1.155243702042626
 30
0.0
 10
-5.296439241302626
 20
1.155243702042626
 30
0.0
 10
-5.311573993086893
 20
1.155243702042626
 30
0.0
 10
-5.324577063991088
 20
1.153239912062695
 30
0.0
 10
-5.335491084315258
 20
1.1491898676796
 30
0.0
 10
-5.346405104639491
 20
1.145139823296353
 30
0.0
 10
-5.355357965283801
 20
1.139725609310996
 30
0.0
 10
-5.362392462425102
 20
1.133117083417118
 30
0.0
 10
-5.369384163389654
 20
1.126466093099755
 30
0.0
 10
-5.374585557628001
 20
1.118963160287598
 30
0.0
 10
-5.377868256609922
 20
1.110648095377781
 30
0.0
 10
-5.381236216191963
 20
1.102335684494366
 30
0.0
 10
-5.382898963771316
 20
1.093723368620607
 30
0.0
 10
-5.382898963771316
 20
1.084856266206391
 30
0.0
 10
-5.382898963771316
 20
1.07159674999515
 30
0.0
 10
-5.379829416289718
 20
1.060598464330799
 30
0.0
 10
-5.373732785749969
 20
1.051858755186635
 30
0.0
 10
-5.367678951386929
 20
1.043203974889492
 30
0.0
 10
-5.359621327043984
 20
1.035998293041277
 30
0.0
 10
-5.349645173321302
 20
1.030286828091978
 30
0.0
 10
-5.339669019598621
 20
1.024572709116329
 30
0.0
 10
-5.328499217474068
 20
1.019840579931976
 30
0.0
 10
-5.316092970770821
 20
1.01613290496266
 30
0.0
 10
-5.303729520244309
 20
1.012465040390275
 30
0.0
 10
-5.291238012940917
 20
1.008969687537778
 30
0.0
 10
-5.278661410914057
 20
1.005601727955839
 30
0.0
 10
-5.265743434733344
 20
1.002276232797183
 30
0.0
 10
-5.252825790305956
 20
0.9980987951436821
 30
0.0
 10
-5.239865349701832
 20
0.9931516898158557
 30
0.0
 10
-5.226947539397782
 20
0.9881647740912487
 30
0.0
 10
-5.215394064572566
 20
0.9815137837738348
 30
0.0
 10
-5.205247389649596
 20
0.9731589084670353
 30
0.0
 10
-5.195100714726663
 20
0.964886307980603
 30
0.0
 10
-5.186744678283262
 20
0.954400249423568
 30
0.0
 10
-5.180264540919526
 20
0.9418652824368159
 30
0.0
 10
-5.173826867979187
 20
0.9292878510268817
 30
0.0
 10
-5.170586799297337
 20
0.9137697582952517
 30
0.0
 10
-5.170586799297337
 20
0.8952685398187441
 30
0.0
 10
-5.170586799297337
 20
0.8794080776733355
 30
0.0
 10
-5.173912128579368
 20
0.8650842968503789
 30
0.0
 10
-5.180562953020019
 20
0.8523370077465035
 30
0.0
 10
-5.187213611584044
 20
0.8395897186426282
 30
0.0
 10
-5.196166472228368
 20
0.8288037550953504
 30
0.0
 10
-5.207421534953103
 20
0.8199339986546823
 30
0.0
 10
-5.21871939385456
 20
0.8110244318170821
 30
0.0
 10
-5.232148767759427
 20
0.8042035838060302
 30
0.0
 10
-5.247624561944272
 20
0.799386525774859
 30
0.0
 10
-5.263185616729262
 20
0.79456946774389
 30
0.0
 10
-5.279769798715859
 20
0.7921808439268463
 30
0.0
 10
-5.297547794981053
 20
0.7921808439268463
 30
0.0
 10
-5.313066053589308
 20
0.7921808439268463
 30
0.0
 10
-5.32747609027241
 20
0.793844918519249
 30
0.0
 10
-5.340777573277073
 20
0.797170413678057
 30
0.0
 10
-5.354079056281748
 20
0.8005383732600471
 30
0.0
 10
-5.366186890884502
 20
0.8048007397601647
 30
0.0
 10
-5.377058115031937
 20
0.810214953745622
 30
0.0
 10
-5.38797213535612
 20
0.815586703307493
 30
0.0
 10
-5.397564782254877
 20
0.8216405376707218
 30
0.0
 10
-5.405920652821603
 20
0.8284613856816728
 30
0.0
 10
-5.414234224841607
 20
0.8353246981160584
 30
0.0
 10
-5.420970144005776
 20
0.8424029866938679
 30
0.0
 10
-5.426128742067336
 20
0.8498209906592061
 30
0.0
 10
-5.426128742067336
 20
0.8498209906592061
 30
0.0
 10
-5.406730628522899
 20
0.868664578549442
 30
0.0
 10
-5.406730628522899
 20
0.868664578549442
 30
0.0
  0
HATCH
  5
AC
330
9E
100
AcDbEntity
  8
Layer 2
 62
   250
420
  2170655
440
 33554687
100
AcDbHatch
 10
0.0
 20
0.0
 30
0.0
210
0.0
220
0.0
230
1.0
  2
SOLID
 70
     1
 71
     1
 91
        1
 92
        1
 93
        1
 72
     4
 94
        3
 73
     0
 74
     0
 95
      149
 96
      145
 40
0.0
 40
0.0
 40
0.0
 40
0.0
 40
1.0
 40
1.0
 40
1.0
 40
2.0
 40
2.0
 40
2.0
 40
3.0
 40
3.0
 40
3.0
 40
4.0
 40
4.0
 40
4.0
 40
5.0
 40
5.0
 40
5.0
 40
6.0
 40
6.0
 40
6.0
 40
7.0
 40
7.0
 40
7.0
 40
8.0
 40
8.0
 40
8.0
 40
9.0
 40
9.0
 40
9.0
 40
10.0
 40
10.0
 40
10.0
 40
11.0
 40
11.0
 40
11.0
 40
12.0
 40
12.0
 40
12.0
 40
13.0
 40
13.0
 40
13.0
 40
14.0
 40
14.0
 40
14.0
 40
15.0
 40
15.0
 40
15.0
 40
16.0
 40
16.0
 40
16.0
 40
17.0
 40
17.0
 40
17.0
 40
18.0
 40
18.0
 40
18.0
 40
19.0
 40
19.0
 40
19.0
 40
20.0
 40
20.0
 40
20.0
 40
21.0
 40
21.0
 40
21.0
 40
22.0
 40
22.0
 40
22.0
 40
23.0
 40
23.0
 40
23.0
 40
24.0
 40
24.0
 40
24.0
 40
25.0
 40
25.0
 40
25.0
 40
26.0
 40
26.0
 40
26.0
 40
27.0
 40
27.0
 40
27.0
 40
28.0
 40
28.0
 40
28.0
 40
29.0
 40
29.0
 40
29.0
 40
30.0
 40
30.0
 40
30.0
 40
31.0
 40
31.0
 40
31.0
 40
32.0
 40
32.0
 40
32.0
 40
33.0
 40
33.0
 40
33.0
 40
34.0
 40
34.0
 40
34.0
 40
35.0
 40
35.0
 40
35.0
 40
36.0
 40
36.0
 40
36.0
 40
37.0
 40
37.0
 40
37.0
 40
38.0
 40
38.0
 40
38.0
 40
39.0
 40
39.0
 40
39.0
 40
40.0
 40
40.0
 40
40.0
 40
41.0
 40
41.0
 40
41.0
 40
42.0
 40
42.0
 40
42.0
 40
43.0
 40
43.0
 40
43.0
 40
44.0
 40
44.0
 40
44.0
 40
45.0
 40
45.0
 40
45.0
 40
46.0
 40
46.0
 40
46.0
 40
47.0
 40
47.0
 40
47.0
 40
48.0
 40
48.0
 40
48.0
 40
48.0
 10
-5.406730628522899
 20
0.868664578549442
 10
-5.394154026496051
 20
0.8534862012050881
 10
-5.379104535311904
 20
0.8411237459386281
 10
-5.361539856423733
 20
0.8314896298762858
 10
-5.344017641958922
 20
0.8219377886346642
 10
-5.322658534611352
 20
0.8171207306035435
 10
-5.297547794981053
 20
0.8171207306035435
 10
-5.283095127997878
 20
0.8171207306035435
 10
-5.269878905593359
 20
0.8188272696195326
 10
-5.25789912776741
 20
0.8221103003547543
 10
-5.24587655376485
 20
0.8254357955133603
 10
-5.235516727341531
 20
0.8303377823913503
 10
-5.226862278797637
 20
0.8367764505913884
 10
-5.218165199953697
 20
0.8432549291888133
 10
-5.211429114912852
 20
0.8513550179551049
 10
-5.206611725128482
 20
0.8612041101607195
 10
-5.201836633890833
 20
0.8709656194932652
 10
-5.19940670678693
 20
0.882348738994829
 10
-5.19940670678693
 20
0.8952685398187441
 10
-5.19940670678693
 20
0.9089527002640807
 10
-5.20209241569124
 20
0.9205906063060512
 10
-5.207421534953103
 20
0.9301849119714107
 10
-5.212793284515075
 20
0.9398614924570868
 10
-5.21995583843323
 20
0.94787665237661
 10
-5.228780642300724
 20
0.9543153205767996
 10
-5.237691204398363
 20
0.9607937991739213
 10
-5.24770982254443
 20
0.9660806198890742
 10
-5.259007681445837
 20
0.9701306642723213
 10
-5.270262744170596
 20
0.9741807086553661
 10
-5.281645697795523
 20
0.9778910376513369
 10
-5.293071281720522
 20
0.9812165328099935
 10
-5.307140110126447
 20
0.9849242077793102
 10
-5.321209104409022
 20
0.9890591810093761
 10
-5.335235302514825
 20
0.9936639169234744
 10
-5.349261500620715
 20
0.998311117260755
 10
-5.361838268524189
 20
1.004407416047317
 10
-5.372922810048672
 20
1.011995277706091
 10
-5.384007351573144
 20
1.019543328968085
 10
-5.39296021221748
 20
1.029177445030376
 10
-5.399824188158491
 20
1.040815351072397
 10
-5.406645367922767
 20
1.052455911141022
 10
-5.410013493381484
 20
1.067461776765134
 10
-5.410013493381484
 20
1.086008113691428
 10
-5.410013493381484
 20
1.098540426651778
 10
-5.407455509500727
 20
1.110563166530962
 10
-5.402296911439116
 20
1.122031214879295
 10
-5.397138313377518
 20
1.133456798804445
 10
-5.389677513235533
 20
1.143433284280313
 10
-5.379829416289718
 20
1.151960671307405
 10
-5.37006641406741
 20
1.160488058334294
 10
-5.358043840064788
 20
1.167223977498375
 10
-5.343847120758671
 20
1.17216842879975
 10
-5.32960777115247
 20
1.177200462974395
 10
-5.313449726289907
 20
1.179671361611857
 10
-5.295330853500798
 20
1.179671361611857
 10
-5.279769798715859
 20
1.179671361611857
 10
-5.266041846833862
 20
1.178009941045704
 10
-5.254019604584527
 20
1.174641981463663
 10
-5.241997030581917
 20
1.171401415151876
 10
-5.23146651708171
 20
1.167223977498375
 10
-5.222428395837192
 20
1.16219194332368
 10
-5.213390274592685
 20
1.157247492022507
 10
-5.20580158355051
 20
1.151748349190332
 10
-5.199705118887398
 20
1.145864372520741
 10
-5.193565858047551
 20
1.139937931428019
 10
-5.188492520586085
 20
1.134226466478771
 10
-5.184442476202914
 20
1.128639740773324
 10
-5.184442476202914
 20
1.128639740773324
 10
-5.203286229969813
 20
1.112609420934328
 10
-5.203286229969813
 20
1.112609420934328
 10
-5.206611725128482
 20
1.117044299154738
 10
-5.210874921012027
 20
1.121776428338838
 10
-5.216033519073599
 20
1.126720879640263
 10
-5.221234747435295
 20
1.131752913814857
 10
-5.227501733298658
 20
1.136357649728905
 10
-5.234877272840472
 20
1.140577551805639
 10
-5.242295442682385
 20
1.144797453882625
 10
-5.251035317703085
 20
1.148380389608089
 10
-5.261181826749393
 20
1.151066264389075
 10
-5.271413596395796
 20
1.153879532440264
 10
-5.283095127997878
 20
1.155243702042626
 10
-5.296439241302626
 20
1.155243702042626
 10
-5.311573993086893
 20
1.155243702042626
 10
-5.324577063991088
 20
1.153239912062695
 10
-5.335491084315258
 20
1.1491898676796
 10
-5.346405104639491
 20
1.145139823296353
 10
-5.355357965283801
 20
1.139725609310996
 10
-5.362392462425102
 20
1.133117083417118
 10
-5.369384163389654
 20
1.126466093099755
 10
-5.374585557628001
 20
1.118963160287598
 10
-5.377868256609922
 20
1.110648095377781
 10
-5.381236216191963
 20
1.102335684494366
 10
-5.382898963771316
 20
1.093723368620607
 10
-5.382898963771316
 20
1.084856266206391
 10
-5.382898963771316
 20
1.07159674999515
 10
-5.379829416289718
 20
1.060598464330799
 10
-5.373732785749969
 20
1.051858755186635
 10
-5.367678951386929
 20
1.043203974889492
 10
-5.359621327043984
 20
1.035998293041277
 10
-5.349645173321302
 20
1.030286828091978
 10
-5.339669019598621
 20
1.024572709116329
 10
-5.328499217474068
 20
1.019840579931976
 10
-5.316092970770821
 20
1.01613290496266
 10
-5.303729520244309
 20
1.012465040390275
 10
-5.291238012940917
 20
1.008969687537778
 10
-5.278661410914057
 20
1.005601727955839
 10
-5.265743434733344
 20
1.002276232797183
 10
-5.252825790305956
 20
0.9980987951436821
 10
-5.239865349701832
 20
0.9931516898158557
 10
-5.226947539397782
 20
0.9881647740912487
 10
-5.215394064572566
 20
0.9815137837738348
 10
-5.205247389649596
 20
0.9731589084670353
 10
-5.195100714726663
 20
0.964886307980603
 10
-5.186744678283262
 20
0.954400249423568
 10
-5.180264540919526
 20
0.9418652824368159
 10
-5.173826867979187
 20
0.9292878510268817
 10
-5.170586799297337
 20
0.9137697582952517
 10
-5.170586799297337
 20
0.8952685398187441
 10
-5.170586799297337
 20
0.8794080776733355
 10
-5.173912128579368
 20
0.8650842968503789
 10
-5.180562953020019
 20
0.8523370077465035
 10
-5.187213611584044
 20
0.8395897186426282
 10
-5.196166472228368
 20
0.8288037550953504
 10
-5.207421534953103
 20
0.8199339986546823
 10
-5.21871939385456
 20
0.8110244318170821
 10
-5.232148767759427
 20
0.8042035838060302
 10
-5.247624561944272
 20
0.799386525774859
 10
-5.263185616729262
 20
0.79456946774389
 10
-5.279769798715859
 20
0.7921808439268463
 10
-5.297547794981053
 20
0.7921808439268463
 10
-5.313066053589308
 20
0.7921808439268463
 10
-5.32747609027241
 20
0.793844918519249
 10
-5.340777573277073
 20
0.797170413678057
 10
-5.354079056281748
 20
0.8005383732600471
 10
-5.366186890884502
 20
0.8048007397601647
 10
-5.377058115031937
 20
0.810214953745622
 10
-5.38797213535612
 20
0.815586703307493
 10
-5.397564782254877
 20
0.8216405376707218
 10
-5.405920652821603
 20
0.8284613856816728
 10
-5.414234224841607
 20
0.8353246981160584
 10
-5.420970144005776
 20
0.8424029866938679
 10
-5.426128742067336
 20
0.8498209906592061
 10
-5.426128742067336
 20
0.8498209906592061
 10
-5.406730628522899
 20
0.868664578549442
 10
-5.406730628522899
 20
0.868664578549442
 97
        0
 97
        1
330
AB
 75
     2
 76
     1
 98
        1
 10
0.0
 20
0.0
450
        0
451
        0
460
0.0
461
0.0
452
        0
462
0.0
453
        0
470

  0
LWPOLYLINE
  5
AD
330
9E
100
AcDbEntity
  8
Layer 2
100
AcDbPolyline
 90
        4
 70
     1
 43
0.0
 10
-5.058645437000071
 20
1.17078037295937
 10
-5.031999840690635
 20
1.17078037295937
 10
-5.031999840690635
 20
0.8010267141293448
 10
-5.058645437000071
 20
0.8010267141293448
  0
HATCH
  5
AE
330
9E
100
AcDbEntity
  8
Layer 2
 62
   250
420
  2170655
440
 33554687
100
AcDbHatch
 10
0.0
 20
0.0
 30
0.0
210
0.0
220
0.0
230
1.0
  2
SOLID
 70
     1
 71
     1
 91
        1
 92
        1
 93
        4
 72
     1
 10
-5.058645437000071
 20
1.17078037295937
 11
-5.031999840690635
 21
1.17078037295937
 72
     1
 10
-5.031999840690635
 20
1.17078037295937
 11
-5.031999840690635
 21
0.8010267141293448
 72
     1
 10
-5.031999840690635
 20
0.8010267141293448
 11
-5.058645437000071
 21
0.8010267141293448
 72
     1
 10
-5.058645437000071
 20
0.8010267141293448
 11
-5.058645437000071
 21
1.17078037295937
 97
        1
330
AD
 75
     2
 76
     1
 98
        1
 10
0.0
 20
0.0
450
        0
451
        0
460
0.0
461
0.0
452
        0
462
0.0
453
        0
470

  0
SPLINE
  5
AF
330
9E
100
AcDbEntity
  8
Layer 2
100
AcDbSpline
210
0.0
220
0.0
230
1.0
 70
    11
 71
     3
 72
   113
 73
   109
 74
     0
 42
0.0000000001
 43
0.0000000001
 40
0.0
 40
0.0
 40
0.0
 40
0.0
 40
1.0
 40
1.0
 40
1.0
 40
2.0
 40
2.0
 40
2.0
 40
3.0
 40
3.0
 40
3.0
 40
4.0
 40
4.0
 40
4.0
 40
5.0
 40
5.0
 40
5.0
 40
6.0
 40
6.0
 40
6.0
 40
7.0
 40
7.0
 40
7.0
 40
8.0
 40
8.0
 40
8.0
 40
9.0
 40
9.0
 40
9.0
 40
10.0
 40
10.0
 40
10.0
 40
11.0
 40
11.0
 40
11.0
 40
12.0
 40
12.0
 40
12.0
 40
13.0
 40
13.0
 40
13.0
 40
14.0
 40
14.0
 40
14.0
 40
15.0
 40
15.0
 40
15.0
 40
16.0
 40
16.0
 40
16.0
 40
17.0
 40
17.0
 40
17.0
 40
18.0
 40
18.0
 40
18.0
 40
19.0
 40
19.0
 40
19.0
 40
20.0
 40
20.0
 40
20.0
 40
21.0
 40
21.0
 40
21.0
 40
22.0
 40
22.0
 40
22.0
 40
23.0
 40
23.0
 40
23.0
 40
24.0
 40
24.0
 40
24.0
 40
25.0
 40
25.0
 40
25.0
 40
26.0
 40
26.0
 40
26.0
 40
27.0
 40
27.0
 40
27.0
 40
28.0
 40
28.0
 40
28.0
 40
29.0
 40
29.0
 40
29.0
 40
30.0
 40
30.0
 40
30.0
 40
31.0
 40
31.0
 40
31.0
 40
32.0
 40
32.0
 40
32.0
 40
33.0
 40
33.0
 40
33.0
 40
34.0
 40
34.0
 40
34.0
 40
35.0
 40
35.0
 40
35.0
 40
36.0
 40
36.0
 40
36.0
 40
36.0
 10
-4.625128958263088
 20
0.9512684981967696
 30
0.0
 10
-4.625128958263088
 20
0.9512684981967696
 30
0.0
 10
-4.723781775934702
 20
0.9512684981967696
 30
0.0
 10
-4.723781775934702
 20
0.9512684981967696
 30
0.0
 10
-4.723781775934702
 20
0.9512684981967696
 30
0.0
 10
-4.723781775934702
 20
0.9762083848734164
 30
0.0
 10
-4.723781775934702
 20
0.9762083848734164
 30
0.0
 10
-4.723781775934702
 20
0.9762083848734164
 30
0.0
 10
-4.598526324007012
 20
0.9762083848734164
 30
0.0
 10
-4.598526324007012
 20
0.9762083848734164
 30
0.0
 10
-4.598526324007012
 20
0.9762083848734164
 30
0.0
 10
-4.598526324007012
 20
0.8376522793244525
 30
0.0
 10
-4.598526324007012
 20
0.8376522793244525
 30
0.0
 10
-4.604793143993788
 20
0.8320655536190567
 30
0.0
 10
-4.612381835035939
 20
0.8266513396336499
 30
0.0
 10
-4.621249600956856
 20
0.8212795900717285
 30
0.0
 10
-4.630117201001072
 20
0.8159078405097563
 30
0.0
 10
-4.640391600947509
 20
0.8110058536318167
 30
0.0
 10
-4.652030502249582
 20
0.806570975411407
 30
0.0
 10
-4.663669237674879
 20
0.8021387512175502
 30
0.0
 10
-4.676800199479341
 20
0.7986433983650537
 30
0.0
 10
-4.691380591486058
 20
0.7960424524309372
 30
0.0
 10
-4.705961149369449
 20
0.7934415064968209
 30
0.0
 10
-4.722332179855659
 20
0.7922047301649147
 30
0.0
 10
-4.740408588221384
 20
0.7922047301649147
 30
0.0
 10
-4.767054184530757
 20
0.7922047301649147
 30
0.0
 10
-4.791440209059942
 20
0.7968943949258321
 30
0.0
 10
-4.813609292108771
 20
0.8063586532943341
 30
0.0
 10
-4.835778541034401
 20
0.8157379828160678
 30
0.0
 10
-4.854750185701479
 20
0.8290399634506936
 30
0.0
 10
-4.87043913138666
 20
0.8462194767483753
 30
0.0
 10
-4.886127911195154
 20
0.8634016440724078
 30
0.0
 10
-4.898321006398077
 20
0.883909306555299
 30
0.0
 10
-4.907018251118706
 20
0.907739810170344
 30
0.0
 10
-4.915715329962633
 20
0.9316154322352758
 30
0.0
 10
-4.920021156146238
 20
0.9577920952439297
 30
0.0
 10
-4.920021156146238
 20
0.9861848703494363
 30
0.0
 10
-4.920021156146238
 20
1.013128547006064
 30
0.0
 10
-4.915715329962633
 20
1.038368338673207
 30
0.0
 10
-4.907018251118706
 20
1.061859126900773
 30
0.0
 10
-4.898321006398077
 20
1.085307450705108
 30
0.0
 10
-4.886127911195154
 20
1.105812459161547
 30
0.0
 10
-4.87043913138666
 20
1.123419270719725
 30
0.0
 10
-4.854750185701479
 20
1.140943807457738
 30
0.0
 10
-4.835778541034401
 20
1.154712896749894
 30
0.0
 10
-4.813609292108771
 20
1.164689382225914
 30
0.0
 10
-4.791440209059942
 20
1.174623403278347
 30
0.0
 10
-4.767054184530757
 20
1.179695247850026
 30
0.0
 10
-4.740408588221384
 20
1.179695247850026
 30
0.0
 10
-4.718623011996428
 20
1.179695247850026
 30
0.0
 10
-4.699864684706325
 20
1.176669657681713
 30
0.0
 10
-4.684133108721109
 20
1.170785681012426
 30
0.0
 10
-4.668444163035915
 20
1.164859239919602
 30
0.0
 10
-4.655227940631385
 20
1.157953463061731
 30
0.0
 10
-4.644527071807525
 20
1.150023231989027
 30
0.0
 10
-4.633826202983716
 20
1.142093000916323
 30
0.0
 10
-4.625427536240206
 20
1.134205234267053
 30
0.0
 10
-4.619331071577094
 20
1.126447514914439
 30
0.0
 10
-4.613191810737248
 20
1.118687141535373
 30
0.0
 10
-4.609056339877282
 20
1.11293321216274
 30
0.0
 10
-4.606839730150378
 20
1.109307812013841
 30
0.0
 10
-4.606839730150378
 20
1.109307812013841
 30
0.0
 10
-4.626791705842391
 20
1.095411329451381
 30
0.0
 10
-4.626791705842391
 20
1.095411329451381
 30
0.0
 10
-4.629008647322671
 20
1.09830952634944
 30
0.0
 10
-4.632675019005179
 20
1.103041655533742
 30
0.0
 10
-4.637876413243538
 20
1.109522788157315
 30
0.0
 10
-4.643077641605196
 20
1.116043731177821
 30
0.0
 10
-4.650197399346603
 20
1.122567328225032
 30
0.0
 10
-4.659192890291036
 20
1.129218318542244
 30
0.0
 10
-4.668273475959002
 20
1.135911773283093
 30
0.0
 10
-4.679272756883253
 20
1.141753285529047
 30
0.0
 10
-4.692190733064042
 20
1.146952523370878
 30
0.0
 10
-4.705151173668165
 20
1.152111950815828
 30
0.0
 10
-4.720285759575769
 20
1.154712896749894
 30
0.0
 10
-4.737637286963616
 20
1.154712896749894
 30
0.0
 10
-4.761682434968848
 20
1.154712896749894
 30
0.0
 10
-4.78321189764007
 20
1.150365601402705
 30
0.0
 10
-4.802226338483907
 20
1.141668356682228
 30
0.0
 10
-4.821283243751129
 20
1.132971111961599
 30
0.0
 10
-4.837355862136923
 20
1.121075765352467
 30
0.0
 10
-4.850444193641262
 20
1.105939852431801
 30
0.0
 10
-4.863617785745733
 20
1.090764129113899
 30
0.0
 10
-4.873636569768462
 20
1.072942341411943
 30
0.0
 10
-4.880713697209785
 20
1.052437332955706
 30
0.0
 10
-4.887705398174388
 20
1.0319721348963
 30
0.0
 10
-4.891201248656657
 20
1.009845516270843
 30
0.0
 10
-4.891201248656657
 20
0.9861848703494363
 30
0.0
 10
-4.891201248656657
 20
0.9625242244280798
 30
0.0
 10
-4.887833289074566
 20
0.9404825346494918
 30
0.0
 10
-4.880969479010243
 20
0.9199324077431153
 30
0.0
 10
-4.874105503069219
 20
0.8994273992869795
 30
0.0
 10
-4.864171979646609
 20
0.8815631471616395
 30
0.0
 10
-4.850998387542138
 20
0.8661724477002127
 30
0.0
 10
-4.837910056037799
 20
0.850824212662423
 30
0.0
 10
-4.822007958852294
 20
0.8388014727830876
 30
0.0
 10
-4.803377522462394
 20
0.830149346512346
 30
0.0
 10
-4.78466149371905
 20
0.8214945662151523
 30
0.0
 10
-4.763728855248788
 20
0.8171021524182277
 30
0.0
 10
-4.740408588221384
 20
0.8171021524182277
 30
0.0
 10
-4.711972353432416
 20
0.8171021524182277
 30
0.0
 10
-4.688609456104927
 20
0.8202577898830945
 30
0.0
 10
-4.670319896238942
 20
0.8265664107868815
 30
0.0
 10
-4.652030502249582
 20
0.8328776857167161
 30
0.0
 10
-4.636981176942084
 20
0.8402532252586196
 30
0.0
 10
-4.625128958263088
 20
0.8487354938357231
 30
0.0
 10
-4.625128958263088
 20
0.8487354938357231
 30
0.0
 10
-4.625128958263088
 20
0.9512684981967696
 30
0.0
 10
-4.625128958263088
 20
0.9512684981967696
 30
0.0
  0
HATCH
  5
B0
330
9E
100
AcDbEntity
  8
Layer 2
 62
   250
420
  2170655
440
 33554687
100
AcDbHatch
 10
0.0
 20
0.0
 30
0.0
210
0.0
220
0.0
230
1.0
  2
SOLID
 70
     1
 71
     1
 91
        1
 92
        1
 93
        1
 72
     4
 94
        3
 73
     0
 74
     0
 95
      113
 96
      109
 40
0.0
 40
0.0
 40
0.0
 40
0.0
 40
1.0
 40
1.0
 40
1.0
 40
2.0
 40
2.0
 40
2.0
 40
3.0
 40
3.0
 40
3.0
 40
4.0
 40
4.0
 40
4.0
 40
5.0
 40
5.0
 40
5.0
 40
6.0
 40
6.0
 40
6.0
 40
7.0
 40
7.0
 40
7.0
 40
8.0
 40
8.0
 40
8.0
 40
9.0
 40
9.0
 40
9.0
 40
10.0
 40
10.0
 40
10.0
 40
11.0
 40
11.0
 40
11.0
 40
12.0
 40
12.0
 40
12.0
 40
13.0
 40
13.0
 40
13.0
 40
14.0
 40
14.0
 40
14.0
 40
15.0
 40
15.0
 40
15.0
 40
16.0
 40
16.0
 40
16.0
 40
17.0
 40
17.0
 40
17.0
 40
18.0
 40
18.0
 40
18.0
 40
19.0
 40
19.0
 40
19.0
 40
20.0
 40
20.0
 40
20.0
 40
21.0
 40
21.0
 40
21.0
 40
22.0
 40
22.0
 40
22.0
 40
23.0
 40
23.0
 40
23.0
 40
24.0
 40
24.0
 40
24.0
 40
25.0
 40
25.0
 40
25.0
 40
26.0
 40
26.0
 40
26.0
 40
27.0
 40
27.0
 40
27.0
 40
28.0
 40
28.0
 40
28.0
 40
29.0
 40
29.0
 40
29.0
 40
30.0
 40
30.0
 40
30.0
 40
31.0
 40
31.0
 40
31.0
 40
32.0
 40
32.0
 40
32.0
 40
33.0
 40
33.0
 40
33.0
 40
34.0
 40
34.0
 40
34.0
 40
35.0
 40
35.0
 40
35.0
 40
36.0
 40
36.0
 40
36.0
 40
36.0
 10
-4.625128958263088
 20
0.9512684981967696
 10
-4.625128958263088
 20
0.9512684981967696
 10
-4.723781775934702
 20
0.9512684981967696
 10
-4.723781775934702
 20
0.9512684981967696
 10
-4.723781775934702
 20
0.9512684981967696
 10
-4.723781775934702
 20
0.9762083848734164
 10
-4.723781775934702
 20
0.9762083848734164
 10
-4.723781775934702
 20
0.9762083848734164
 10
-4.598526324007012
 20
0.9762083848734164
 10
-4.598526324007012
 20
0.9762083848734164
 10
-4.598526324007012
 20
0.9762083848734164
 10
-4.598526324007012
 20
0.8376522793244525
 10
-4.598526324007012
 20
0.8376522793244525
 10
-4.604793143993788
 20
0.8320655536190567
 10
-4.612381835035939
 20
0.8266513396336499
 10
-4.621249600956856
 20
0.8212795900717285
 10
-4.630117201001072
 20
0.8159078405097563
 10
-4.640391600947509
 20
0.8110058536318167
 10
-4.652030502249582
 20
0.806570975411407
 10
-4.663669237674879
 20
0.8021387512175502
 10
-4.676800199479341
 20
0.7986433983650537
 10
-4.691380591486058
 20
0.7960424524309372
 10
-4.705961149369449
 20
0.7934415064968209
 10
-4.722332179855659
 20
0.7922047301649147
 10
-4.740408588221384
 20
0.7922047301649147
 10
-4.767054184530757
 20
0.7922047301649147
 10
-4.791440209059942
 20
0.7968943949258321
 10
-4.813609292108771
 20
0.8063586532943341
 10
-4.835778541034401
 20
0.8157379828160678
 10
-4.854750185701479
 20
0.8290399634506936
 10
-4.87043913138666
 20
0.8462194767483753
 10
-4.886127911195154
 20
0.8634016440724078
 10
-4.898321006398077
 20
0.883909306555299
 10
-4.907018251118706
 20
0.907739810170344
 10
-4.915715329962633
 20
0.9316154322352758
 10
-4.920021156146238
 20
0.9577920952439297
 10
-4.920021156146238
 20
0.9861848703494363
 10
-4.920021156146238
 20
1.013128547006064
 10
-4.915715329962633
 20
1.038368338673207
 10
-4.907018251118706
 20
1.061859126900773
 10
-4.898321006398077
 20
1.085307450705108
 10
-4.886127911195154
 20
1.105812459161547
 10
-4.87043913138666
 20
1.123419270719725
 10
-4.854750185701479
 20
1.140943807457738
 10
-4.835778541034401
 20
1.154712896749894
 10
-4.813609292108771
 20
1.164689382225914
 10
-4.791440209059942
 20
1.174623403278347
 10
-4.767054184530757
 20
1.179695247850026
 10
-4.740408588221384
 20
1.179695247850026
 10
-4.718623011996428
 20
1.179695247850026
 10
-4.699864684706325
 20
1.176669657681713
 10
-4.684133108721109
 20
1.170785681012426
 10
-4.668444163035915
 20
1.164859239919602
 10
-4.655227940631385
 20
1.157953463061731
 10
-4.644527071807525
 20
1.150023231989027
 10
-4.633826202983716
 20
1.142093000916323
 10
-4.625427536240206
 20
1.134205234267053
 10
-4.619331071577094
 20
1.126447514914439
 10
-4.613191810737248
 20
1.118687141535373
 10
-4.609056339877282
 20
1.11293321216274
 10
-4.606839730150378
 20
1.109307812013841
 10
-4.606839730150378
 20
1.109307812013841
 10
-4.626791705842391
 20
1.095411329451381
 10
-4.626791705842391
 20
1.095411329451381
 10
-4.629008647322671
 20
1.09830952634944
 10
-4.632675019005179
 20
1.103041655533742
 10
-4.637876413243538
 20
1.109522788157315
 10
-4.643077641605196
 20
1.116043731177821
 10
-4.650197399346603
 20
1.122567328225032
 10
-4.659192890291036
 20
1.129218318542244
 10
-4.668273475959002
 20
1.135911773283093
 10
-4.679272756883253
 20
1.141753285529047
 10
-4.692190733064042
 20
1.146952523370878
 10
-4.705151173668165
 20
1.152111950815828
 10
-4.720285759575769
 20
1.154712896749894
 10
-4.737637286963616
 20
1.154712896749894
 10
-4.761682434968848
 20
1.154712896749894
 10
-4.78321189764007
 20
1.150365601402705
 10
-4.802226338483907
 20
1.141668356682228
 10
-4.821283243751129
 20
1.132971111961599
 10
-4.837355862136923
 20
1.121075765352467
 10
-4.850444193641262
 20
1.105939852431801
 10
-4.863617785745733
 20
1.090764129113899
 10
-4.873636569768462
 20
1.072942341411943
 10
-4.880713697209785
 20
1.052437332955706
 10
-4.887705398174388
 20
1.0319721348963
 10
-4.891201248656657
 20
1.009845516270843
 10
-4.891201248656657
 20
0.9861848703494363
 10
-4.891201248656657
 20
0.9625242244280798
 10
-4.887833289074566
 20
0.9404825346494918
 10
-4.880969479010243
 20
0.9199324077431153
 10
-4.874105503069219
 20
0.8994273992869795
 10
-4.864171979646609
 20
0.8815631471616395
 10
-4.850998387542138
 20
0.8661724477002127
 10
-4.837910056037799
 20
0.850824212662423
 10
-4.822007958852294
 20
0.8388014727830876
 10
-4.803377522462394
 20
0.830149346512346
 10
-4.78466149371905
 20
0.8214945662151523
 10
-4.763728855248788
 20
0.8171021524182277
 10
-4.740408588221384
 20
0.8171021524182277
 10
-4.711972353432416
 20
0.8171021524182277
 10
-4.688609456104927
 20
0.8202577898830945
 10
-4.670319896238942
 20
0.8265664107868815
 10
-4.652030502249582
 20
0.8328776857167161
 10
-4.636981176942084
 20
0.8402532252586196
 10
-4.625128958263088
 20
0.8487354938357231
 10
-4.625128958263088
 20
0.8487354938357231
 10
-4.625128958263088
 20
0.9512684981967696
 10
-4.625128958263088
 20
0.9512684981967696
 97
        0
 97
        1
330
AF
 75
     2
 76
     1
 98
        1
 10
0.0
 20
0.0
450
        0
451
        0
460
0.0
461
0.0
452
        0
462
0.0
453
        0
470

  0
LWPOLYLINE
  5
B1
330
9E
100
AcDbEntity
  8
Layer 2
100
AcDbPolyline
 90
       10
 70
     1
 43
0.0
 10
-4.472699758759782
 20
1.170793643091782
 10
-4.44494594052522
 20
1.170793643091782
 10
-4.20769355762123
 20
0.8409432721390809
 10
-4.20769355762123
 20
1.170793643091782
 10
-4.181644619636118
 20
1.170793643091782
 10
-4.181644619636118
 20
0.801037330235153
 10
-4.209356305200559
 20
0.801037330235153
 10
-4.446608356351273
 20
1.126455476993896
 10
-4.446608356351273
 20
0.801037330235153
 10
-4.472699758759782
 20
0.801037330235153
  0
HATCH
  5
B2
330
9E
100
AcDbEntity
  8
Layer 2
 62
   250
420
  2170655
440
 33554687
100
AcDbHatch
 10
0.0
 20
0.0
 30
0.0
210
0.0
220
0.0
230
1.0
  2
SOLID
 70
     1
 71
     1
 91
        1
 92
        1
 93
       10
 72
     1
 10
-4.472699758759782
 20
1.170793643091782
 11
-4.44494594052522
 21
1.170793643091782
 72
     1
 10
-4.44494594052522
 20
1.170793643091782
 11
-4.20769355762123
 21
0.8409432721390809
 72
     1
 10
-4.20769355762123
 20
0.8409432721390809
 11
-4.20769355762123
 21
1.170793643091782
 72
     1
 10
-4.20769355762123
 20
1.170793643091782
 11
-4.181644619636118
 21
1.170793643091782
 72
     1
 10
-4.181644619636118
 20
1.170793643091782
 11
-4.181644619636118
 21
0.801037330235153
 72
     1
 10
-4.181644619636118
 20
0.801037330235153
 11
-4.209356305200559
 21
0.801037330235153
 72
     1
 10
-4.209356305200559
 20
0.801037330235153
 11
-4.446608356351273
 21
1.126455476993896
 72
     1
 10
-4.446608356351273
 20
1.126455476993896
 11
-4.446608356351273
 21
0.801037330235153
 72
     1
 10
-4.446608356351273
 20
0.801037330235153
 11
-4.472699758759782
 21
0.801037330235153
 72
     1
 10
-4.472699758759782
 20
0.801037330235153
 11
-4.472699758759782
 21
1.170793643091782
 97
        1
330
B1
 75
     2
 76
     1
 98
        1
 10
0.0
 20
0.0
450
        0
451
        0
460
0.0
461
0.0
452
        0
462
0.0
453
        0
470

  0
SPLINE
  5
B3
330
9E
100
AcDbEntity
  8
Layer 2
100
AcDbSpline
210
0.0
220
0.0
230
1.0
 70
    11
 71
     3
 72
    14
 73
    10
 74
     0
 42
0.0000000001
 43
0.0000000001
 40
0.0
 40
0.0
 40
0.0
 40
0.0
 40
1.0
 40
1.0
 40
1.0
 40
2.0
 40
2.0
 40
2.0
 40
3.0
 40
3.0
 40
3.0
 40
3.0
 10
-3.849040696227689
 20
0.9451801614898158
 30
0.0
 10
-3.849040696227689
 20
0.9451801614898158
 30
0.0
 10
-3.926121586804697
 20
1.136986654000717
 30
0.0
 10
-3.926121586804697
 20
1.136986654000717
 30
0.0
 10
-3.926121586804697
 20
1.136986654000717
 30
0.0
 10
-4.003159349451619
 20
0.9451801614898158
 30
0.0
 10
-4.003159349451619
 20
0.9451801614898158
 30
0.0
 10
-4.003159349451619
 20
0.9451801614898158
 30
0.0
 10
-3.849040696227689
 20
0.9451801614898158
 30
0.0
 10
-3.849040696227689
 20
0.9451801614898158
 30
0.0
  0
SPLINE
  5
B4
330
9E
100
AcDbEntity
  8
Layer 2
100
AcDbSpline
210
0.0
220
0.0
230
1.0
 70
    11
 71
     3
 72
    29
 73
    25
 74
     0
 42
0.0000000001
 43
0.0000000001
 40
0.0
 40
0.0
 40
0.0
 40
0.0
 40
1.0
 40
1.0
 40
1.0
 40
2.0
 40
2.0
 40
2.0
 40
3.0
 40
3.0
 40
3.0
 40
4.0
 40
4.0
 40
4.0
 40
5.0
 40
5.0
 40
5.0
 40
6.0
 40
6.0
 40
6.0
 40
7.0
 40
7.0
 40
7.0
 40
8.0
 40
8.0
 40
8.0
 40
8.0
 10
-3.93827171995421
 20
1.170793643091782
 30
0.0
 10
-3.93827171995421
 20
1.170793643091782
 30
0.0
 10
-3.911668753944809
 20
1.170793643091782
 30
0.0
 10
-3.911668753944809
 20
1.170793643091782
 30
0.0
 10
-3.911668753944809
 20
1.170793643091782
 30
0.0
 10
-3.760321899608634
 20
0.801037330235153
 30
0.0
 10
-3.760321899608634
 20
0.801037330235153
 30
0.0
 10
-3.760321899608634
 20
0.801037330235153
 30
0.0
 10
-3.790846853224302
 20
0.801037330235153
 30
0.0
 10
-3.790846853224302
 20
0.801037330235153
 30
0.0
 10
-3.790846853224302
 20
0.801037330235153
 30
0.0
 10
-3.839064874258319
 20
0.9202402748129163
 30
0.0
 10
-3.839064874258319
 20
0.9202402748129163
 30
0.0
 10
-3.839064874258319
 20
0.9202402748129163
 30
0.0
 10
-4.013135503174263
 20
0.9202402748129163
 30
0.0
 10
-4.013135503174263
 20
0.9202402748129163
 30
0.0
 10
-4.013135503174263
 20
0.9202402748129163
 30
0.0
 10
-4.060798832677429
 20
0.801037330235153
 30
0.0
 10
-4.060798832677429
 20
0.801037330235153
 30
0.0
 10
-4.060798832677429
 20
0.801037330235153
 30
0.0
 10
-4.089618906043634
 20
0.801037330235153
 30
0.0
 10
-4.089618906043634
 20
0.801037330235153
 30
0.0
 10
-4.089618906043634
 20
0.801037330235153
 30
0.0
 10
-3.93827171995421
 20
1.170793643091782
 30
0.0
 10
-3.93827171995421
 20
1.170793643091782
 30
0.0
  0
HATCH
  5
B5
330
9E
100
AcDbEntity
  8
Layer 2
 62
   250
420
  2170655
440
 33554687
100
AcDbHatch
 10
0.0
 20
0.0
 30
0.0
210
0.0
220
0.0
230
1.0
  2
SOLID
 70
     1
 71
     1
 91
        2
 92
        1
 93
        1
 72
     4
 94
        3
 73
     0
 74
     0
 95
       14
 96
       10
 40
0.0
 40
0.0
 40
0.0
 40
0.0
 40
1.0
 40
1.0
 40
1.0
 40
2.0
 40
2.0
 40
2.0
 40
3.0
 40
3.0
 40
3.0
 40
3.0
 10
-3.849040696227689
 20
0.9451801614898158
 10
-3.849040696227689
 20
0.9451801614898158
 10
-3.926121586804697
 20
1.136986654000717
 10
-3.926121586804697
 20
1.136986654000717
 10
-3.926121586804697
 20
1.136986654000717
 10
-4.003159349451619
 20
0.9451801614898158
 10
-4.003159349451619
 20
0.9451801614898158
 10
-4.003159349451619
 20
0.9451801614898158
 10
-3.849040696227689
 20
0.9451801614898158
 10
-3.849040696227689
 20
0.9451801614898158
 97
        0
 97
        1
330
B3
 92
        1
 93
        1
 72
     4
 94
        3
 73
     0
 74
     0
 95
       29
 96
       25
 40
0.0
 40
0.0
 40
0.0
 40
0.0
 40
1.0
 40
1.0
 40
1.0
 40
2.0
 40
2.0
 40
2.0
 40
3.0
 40
3.0
 40
3.0
 40
4.0
 40
4.0
 40
4.0
 40
5.0
 40
5.0
 40
5.0
 40
6.0
 40
6.0
 40
6.0
 40
7.0
 40
7.0
 40
7.0
 40
8.0
 40
8.0
 40
8.0
 40
8.0
 10
-3.93827171995421
 20
1.170793643091782
 10
-3.93827171995421
 20
1.170793643091782
 10
-3.911668753944809
 20
1.170793643091782
 10
-3.911668753944809
 20
1.170793643091782
 10
-3.911668753944809
 20
1.170793643091782
 10
-3.760321899608634
 20
0.801037330235153
 10
-3.760321899608634
 20
0.801037330235153
 10
-3.760321899608634
 20
0.801037330235153
 10
-3.790846853224302
 20
0.801037330235153
 10
-3.790846853224302
 20
0.801037330235153
 10
-3.790846853224302
 20
0.801037330235153
 10
-3.839064874258319
 20
0.9202402748129163
 10
-3.839064874258319
 20
0.9202402748129163
 10
-3.839064874258319
 20
0.9202402748129163
 10
-4.013135503174263
 20
0.9202402748129163
 10
-4.013135503174263
 20
0.9202402748129163
 10
-4.013135503174263
 20
0.9202402748129163
 10
-4.060798832677429
 20
0.801037330235153
 10
-4.060798832677429
 20
0.801037330235153
 10
-4.060798832677429
 20
0.801037330235153
 10
-4.089618906043634
 20
0.801037330235153
 10
-4.089618906043634
 20
0.801037330235153
 10
-4.089618906043634
 20
0.801037330235153
 10
-3.93827171995421
 20
1.170793643091782
 10
-3.93827171995421
 20
1.170793643091782
 97
        0
 97
        1
330
B4
 75
     2
 76
     1
 98
        1
 10
0.0
 20
0.0
450
        0
451
        0
460
0.0
461
0.0
452
        0
462
0.0
453
        0
470

  0
LWPOLYLINE
  5
B6
330
9E
100
AcDbEntity
  8
Layer 2
100
AcDbPolyline
 90
        8
 70
     1
 43
0.0
 10
-3.622357641960926
 20
1.146949869344477
 10
-3.765902985507876
 20
1.146949869344477
 10
-3.765902985507876
 20
1.17078037295937
 10
-3.452167199734478
 20
1.17078037295937
 10
-3.452167199734478
 20
1.146949869344477
 10
-3.59575500770485
 20
1.146949869344477
 10
-3.59575500770485
 20
0.8010691785527797
 10
-3.622357641960926
 20
0.8010691785527797
  0
HATCH
  5
B7
330
9E
100
AcDbEntity
  8
Layer 2
 62
   250
420
  2170655
440
 33554687
100
AcDbHatch
 10
0.0
 20
0.0
 30
0.0
210
0.0
220
0.0
230
1.0
  2
SOLID
 70
     1
 71
     1
 91
        1
 92
        1
 93
        8
 72
     1
 10
-3.622357641960926
 20
1.146949869344477
 11
-3.765902985507876
 21
1.146949869344477
 72
     1
 10
-3.765902985507876
 20
1.146949869344477
 11
-3.765902985507876
 21
1.17078037295937
 72
     1
 10
-3.765902985507876
 20
1.17078037295937
 11
-3.452167199734478
 21
1.17078037295937
 72
     1
 10
-3.452167199734478
 20
1.17078037295937
 11
-3.452167199734478
 21
1.146949869344477
 72
     1
 10
-3.452167199734478
 20
1.146949869344477
 11
-3.59575500770485
 21
1.146949869344477
 72
     1
 10
-3.59575500770485
 20
1.146949869344477
 11
-3.59575500770485
 21
0.8010691785527797
 72
     1
 10
-3.59575500770485
 20
0.8010691785527797
 11
-3.622357641960926
 21
0.8010691785527797
 72
     1
 10
-3.622357641960926
 20
0.8010691785527797
 11
-3.622357641960926
 21
1.146949869344477
 97
        1
330
B6
 75
     2
 76
     1
 98
        1
 10
0.0
 20
0.0
450
        0
451
        0
460
0.0
461
0.0
452
        0
462
0.0
453
        0
470

  0
SPLINE
  5
B8
330
9E
100
AcDbEntity
  8
Layer 2
100
AcDbSpline
210
0.0
220
0.0
230
1.0
 70
    11
 71
     3
 72
    71
 73
    67
 74
     0
 42
0.0000000001
 43
0.0000000001
 40
0.0
 40
0.0
 40
0.0
 40
0.0
 40
1.0
 40
1.0
 40
1.0
 40
2.0
 40
2.0
 40
2.0
 40
3.0
 40
3.0
 40
3.0
 40
4.0
 40
4.0
 40
4.0
 40
5.0
 40
5.0
 40
5.0
 40
6.0
 40
6.0
 40
6.0
 40
7.0
 40
7.0
 40
7.0
 40
8.0
 40
8.0
 40
8.0
 40
9.0
 40
9.0
 40
9.0
 40
10.0
 40
10.0
 40
10.0
 40
11.0
 40
11.0
 40
11.0
 40
12.0
 40
12.0
 40
12.0
 40
13.0
 40
13.0
 40
13.0
 40
14.0
 40
14.0
 40
14.0
 40
15.0
 40
15.0
 40
15.0
 40
16.0
 40
16.0
 40
16.0
 40
17.0
 40
17.0
 40
17.0
 40
18.0
 40
18.0
 40
18.0
 40
19.0
 40
19.0
 40
19.0
 40
20.0
 40
20.0
 40
20.0
 40
21.0
 40
21.0
 40
21.0
 40
22.0
 40
22.0
 40
22.0
 40
22.0
 10
-3.360127884256434
 20
1.170793643091782
 30
0.0
 10
-3.360127884256434
 20
1.170793643091782
 30
0.0
 10
-3.333525250000383
 20
1.170793643091782
 30
0.0
 10
-3.333525250000383
 20
1.170793643091782
 30
0.0
 10
-3.333525250000383
 20
1.170793643091782
 30
0.0
 10
-3.333525250000383
 20
0.962362328813899
 30
0.0
 10
-3.333525250000383
 20
0.962362328813899
 30
0.0
 10
-3.333525250000383
 20
0.9412575103767721
 30
0.0
 10
-3.33186250242103
 20
0.9218592309556848
 30
0.0
 10
-3.328537007262373
 20
0.9041250261270509
 30
0.0
 10
-3.325211843857017
 20
0.8863881672722174
 30
0.0
 10
-3.319200473917375
 20
0.8710850506840618
 30
0.0
 10
-3.310503560950071
 20
0.8581227854367119
 30
0.0
 10
-3.301806316229468
 20
0.8451631742158143
 30
0.0
 10
-3.290124618750711
 20
0.8351442243165617
 30
0.0
 10
-3.275331075243671
 20
0.827938542468347
 30
0.0
 10
-3.260537531736581
 20
0.8207355146465841
 30
0.0
 10
-3.241693612093045
 20
0.8171101144976848
 30
0.0
 10
-3.218757515396241
 20
0.8171101144976848
 30
0.0
 10
-3.195863219616158
 20
0.8171101144976848
 30
0.0
 10
-3.176976835549187
 20
0.8207355146465841
 30
0.0
 10
-3.162225756465507
 20
0.827938542468347
 30
0.0
 10
-3.147475009135165
 20
0.8351442243165617
 30
0.0
 10
-3.135708051056313
 20
0.8451631742158143
 30
0.0
 10
-3.12705393426572
 20
0.8581227854367119
 30
0.0
 10
-3.118313893368394
 20
0.8710850506840618
 30
0.0
 10
-3.112302855182039
 20
0.8863881672722174
 30
0.0
 10
-3.109019824446818
 20
0.9041250261270509
 30
0.0
 10
-3.105694661041461
 20
0.9218592309556848
 30
0.0
 10
-3.104031913462146
 20
0.9412575103767721
 30
0.0
 10
-3.104031913462146
 20
0.962362328813899
 30
0.0
 10
-3.104031913462146
 20
0.962362328813899
 30
0.0
 10
-3.104031913462146
 20
1.170793643091782
 30
0.0
 10
-3.104031913462146
 20
1.170793643091782
 30
0.0
 10
-3.104031913462146
 20
1.170793643091782
 30
0.0
 10
-3.07742894745277
 20
1.170793643091782
 30
0.0
 10
-3.07742894745277
 20
1.170793643091782
 30
0.0
 10
-3.07742894745277
 20
1.170793643091782
 30
0.0
 10
-3.07742894745277
 20
0.9484631922250375
 30
0.0
 10
-3.07742894745277
 20
0.9484631922250375
 30
0.0
 10
-3.07742894745277
 20
0.9266762889868561
 30
0.0
 10
-3.079731315409831
 20
0.906256209377236
 30
0.0
 10
-3.084378183993963
 20
0.8872852282167968
 30
0.0
 10
-3.088982588154661
 20
0.8682266641829857
 30
0.0
 10
-3.096741966273775
 20
0.8516867712630249
 30
0.0
 10
-3.107655654844633
 20
0.8376602414039098
 30
0.0
 10
-3.118527210745405
 20
0.8235912471211577
 30
0.0
 10
-3.133064972452075
 20
0.8125053785835865
 30
0.0
 10
-3.151141546694399
 20
0.8043628253938095
 30
0.0
 10
-3.169260253606845
 20
0.7962627366274672
 30
0.0
 10
-3.191813175233
 20
0.7921702278209876
 30
0.0
 10
-3.218757515396241
 20
0.7921702278209876
 30
0.0
 10
-3.245743988229542
 20
0.7921702278209876
 30
0.0
 10
-3.268296578102396
 20
0.7962627366274672
 30
0.0
 10
-3.286373152344708
 20
0.8043628253938095
 30
0.0
 10
-3.304534987187139
 20
0.8125053785835865
 30
0.0
 10
-3.319029952717086
 20
0.8235912471211577
 30
0.0
 10
-3.329944304794594
 20
0.8376602414039098
 30
0.0
 10
-3.340815528942066
 20
0.8516867712630249
 30
0.0
 10
-3.348574575307831
 20
0.8682266641829857
 30
0.0
 10
-3.353178979468578
 20
0.8872852282167968
 30
0.0
 10
-3.357826179806011
 20
0.906256209377236
 30
0.0
 10
-3.360127884256434
 20
0.9266762889868561
 30
0.0
 10
-3.360127884256434
 20
0.9484631922250375
 30
0.0
 10
-3.360127884256434
 20
0.9484631922250375
 30
0.0
 10
-3.360127884256434
 20
1.170793643091782
 30
0.0
 10
-3.360127884256434
 20
1.170793643091782
 30
0.0
  0
HATCH
  5
B9
330
9E
100
AcDbEntity
  8
Layer 2
 62
   250
420
  2170655
440
 33554687
100
AcDbHatch
 10
0.0
 20
0.0
 30
0.0
210
0.0
220
0.0
230
1.0
  2
SOLID
 70
     1
 71
     1
 91
        1
 92
        1
 93
        1
 72
     4
 94
        3
 73
     0
 74
     0
 95
       71
 96
       67
 40
0.0
 40
0.0
 40
0.0
 40
0.0
 40
1.0
 40
1.0
 40
1.0
 40
2.0
 40
2.0
 40
2.0
 40
3.0
 40
3.0
 40
3.0
 40
4.0
 40
4.0
 40
4.0
 40
5.0
 40
5.0
 40
5.0
 40
6.0
 40
6.0
 40
6.0
 40
7.0
 40
7.0
 40
7.0
 40
8.0
 40
8.0
 40
8.0
 40
9.0
 40
9.0
 40
9.0
 40
10.0
 40
10.0
 40
10.0
 40
11.0
 40
11.0
 40
11.0
 40
12.0
 40
12.0
 40
12.0
 40
13.0
 40
13.0
 40
13.0
 40
14.0
 40
14.0
 40
14.0
 40
15.0
 40
15.0
 40
15.0
 40
16.0
 40
16.0
 40
16.0
 40
17.0
 40
17.0
 40
17.0
 40
18.0
 40
18.0
 40
18.0
 40
19.0
 40
19.0
 40
19.0
 40
20.0
 40
20.0
 40
20.0
 40
21.0
 40
21.0
 40
21.0
 40
22.0
 40
22.0
 40
22.0
 40
22.0
 10
-3.360127884256434
 20
1.170793643091782
 10
-3.360127884256434
 20
1.170793643091782
 10
-3.333525250000383
 20
1.170793643091782
 10
-3.333525250000383
 20
1.170793643091782
 10
-3.333525250000383
 20
1.170793643091782
 10
-3.333525250000383
 20
0.962362328813899
 10
-3.333525250000383
 20
0.962362328813899
 10
-3.333525250000383
 20
0.9412575103767721
 10
-3.33186250242103
 20
0.9218592309556848
 10
-3.328537007262373
 20
0.9041250261270509
 10
-3.325211843857017
 20
0.8863881672722174
 10
-3.319200473917375
 20
0.8710850506840618
 10
-3.310503560950071
 20
0.8581227854367119
 10
-3.301806316229468
 20
0.8451631742158143
 10
-3.290124618750711
 20
0.8351442243165617
 10
-3.275331075243671
 20
0.827938542468347
 10
-3.260537531736581
 20
0.8207355146465841
 10
-3.241693612093045
 20
0.8171101144976848
 10
-3.218757515396241
 20
0.8171101144976848
 10
-3.195863219616158
 20
0.8171101144976848
 10
-3.176976835549187
 20
0.8207355146465841
 10
-3.162225756465507
 20
0.827938542468347
 10
-3.147475009135165
 20
0.8351442243165617
 10
-3.135708051056313
 20
0.8451631742158143
 10
-3.12705393426572
 20
0.8581227854367119
 10
-3.118313893368394
 20
0.8710850506840618
 10
-3.112302855182039
 20
0.8863881672722174
 10
-3.109019824446818
 20
0.9041250261270509
 10
-3.105694661041461
 20
0.9218592309556848
 10
-3.104031913462146
 20
0.9412575103767721
 10
-3.104031913462146
 20
0.962362328813899
 10
-3.104031913462146
 20
0.962362328813899
 10
-3.104031913462146
 20
1.170793643091782
 10
-3.104031913462146
 20
1.170793643091782
 10
-3.104031913462146
 20
1.170793643091782
 10
-3.07742894745277
 20
1.170793643091782
 10
-3.07742894745277
 20
1.170793643091782
 10
-3.07742894745277
 20
1.170793643091782
 10
-3.07742894745277
 20
0.9484631922250375
 10
-3.07742894745277
 20
0.9484631922250375
 10
-3.07742894745277
 20
0.9266762889868561
 10
-3.079731315409831
 20
0.906256209377236
 10
-3.084378183993963
 20
0.8872852282167968
 10
-3.088982588154661
 20
0.8682266641829857
 10
-3.096741966273775
 20
0.8516867712630249
 10
-3.107655654844633
 20
0.8376602414039098
 10
-3.118527210745405
 20
0.8235912471211577
 10
-3.133064972452075
 20
0.8125053785835865
 10
-3.151141546694399
 20
0.8043628253938095
 10
-3.169260253606845
 20
0.7962627366274672
 10
-3.191813175233
 20
0.7921702278209876
 10
-3.218757515396241
 20
0.7921702278209876
 10
-3.245743988229542
 20
0.7921702278209876
 10
-3.268296578102396
 20
0.7962627366274672
 10
-3.286373152344708
 20
0.8043628253938095
 10
-3.304534987187139
 20
0.8125053785835865
 10
-3.319029952717086
 20
0.8235912471211577
 10
-3.329944304794594
 20
0.8376602414039098
 10
-3.340815528942066
 20
0.8516867712630249
 10
-3.348574575307831
 20
0.8682266641829857
 10
-3.353178979468578
 20
0.8872852282167968
 10
-3.357826179806011
 20
0.906256209377236
 10
-3.360127884256434
 20
0.9266762889868561
 10
-3.360127884256434
 20
0.9484631922250375
 10
-3.360127884256434
 20
0.9484631922250375
 10
-3.360127884256434
 20
1.170793643091782
 10
-3.360127884256434
 20
1.170793643091782
 97
        0
 97
        1
330
B8
 75
     2
 76
     1
 98
        1
 10
0.0
 20
0.0
450
        0
451
        0
460
0.0
461
0.0
452
        0
462
0.0
453
        0
470

  0
SPLINE
  5
BA
330
9E
100
AcDbEntity
  8
Layer 2
100
AcDbSpline
210
0.0
220
0.0
230
1.0
 70
     9
 71
     3
 72
    23
 73
    19
 74
     0
 42
0.0000000001
 43
0.0000000001
 40
0.0
 40
0.0
 40
0.0
 40
0.0
 40
1.0
 40
1.0
 40
1.0
 40
2.0
 40
2.0
 40
2.0
 40
3.0
 40
3.0
 40
3.0
 40
4.0
 40
4.0
 40
4.0
 40
5.0
 40
5.0
 40
5.0
 40
6.0
 40
6.0
 40
6.0
 40
6.0
 10
-2.829075103605633
 20
0.9861901784024919
 30
0.0
 10
-2.768110125221167
 20
0.9861901784024919
 30
0.0
 10
-2.737627304275608
 20
1.012794139671743
 30
0.0
 10
-2.737627304275608
 20
1.065999408183643
 30
0.0
 10
-2.737627304275608
 20
1.092600715426593
 30
0.0
 10
-2.745642464195106
 20
1.112596150802018
 30
0.0
 10
-2.761715248457575
 20
1.125855667013208
 30
0.0
 10
-2.777830165390077
 20
1.139200112071269
 30
0.0
 10
-2.80136374979453
 20
1.145851102388532
 30
0.0
 10
-2.832400598764289
 20
1.145851102388532
 30
0.0
 10
-2.832400598764289
 20
1.145851102388532
 30
0.0
 10
-2.924956454142817
 20
1.145851102388532
 30
0.0
 10
-2.924956454142817
 20
1.145851102388532
 30
0.0
 10
-2.924956454142817
 20
1.145851102388532
 30
0.0
 10
-2.924956454142817
 20
0.9861901784024919
 30
0.0
 10
-2.924956454142817
 20
0.9861901784024919
 30
0.0
 10
-2.924956454142817
 20
0.9861901784024919
 30
0.0
 10
-2.829075103605633
 20
0.9861901784024919
 30
0.0
 10
-2.829075103605633
 20
0.9861901784024919
 30
0.0
  0
SPLINE
  5
BB
330
9E
100
AcDbEntity
  8
Layer 2
100
AcDbSpline
210
0.0
220
0.0
230
1.0
 70
    11
 71
     3
 72
    47
 73
    43
 74
     0
 42
0.0000000001
 43
0.0000000001
 40
0.0
 40
0.0
 40
0.0
 40
0.0
 40
1.0
 40
1.0
 40
1.0
 40
2.0
 40
2.0
 40
2.0
 40
3.0
 40
3.0
 40
3.0
 40
4.0
 40
4.0
 40
4.0
 40
5.0
 40
5.0
 40
5.0
 40
6.0
 40
6.0
 40
6.0
 40
7.0
 40
7.0
 40
7.0
 40
8.0
 40
8.0
 40
8.0
 40
9.0
 40
9.0
 40
9.0
 40
10.0
 40
10.0
 40
10.0
 40
11.0
 40
11.0
 40
11.0
 40
12.0
 40
12.0
 40
12.0
 40
13.0
 40
13.0
 40
13.0
 40
14.0
 40
14.0
 40
14.0
 40
14.0
 10
-2.951602216328902
 20
1.170790989065229
 30
0.0
 10
-2.951602216328902
 20
1.170790989065229
 30
0.0
 10
-2.840159645130079
 20
1.170790989065229
 30
0.0
 10
-2.840159645130079
 20
1.170790989065229
 30
0.0
 10
-2.816114828878135
 20
1.170790989065229
 30
0.0
 10
-2.795821147278969
 20
1.168232507554446
 30
0.0
 10
-2.779194334992287
 20
1.163073080109547
 30
0.0
 10
-2.762567522705606
 20
1.157831377844483
 30
0.0
 10
-2.749052888200556
 20
1.150540767149398
 30
0.0
 10
-2.738736023830685
 20
1.141161437627614
 30
0.0
 10
-2.728418495954138
 20
1.131739643682597
 30
0.0
 10
-2.720872766965321
 20
1.120611310721541
 30
0.0
 10
-2.716268362804624
 20
1.107864021617766
 30
0.0
 10
-2.711663958643902
 20
1.095159196937275
 30
0.0
 10
-2.709319126263469
 20
1.081175131501595
 30
0.0
 10
-2.709319126263469
 20
1.065999408183643
 30
0.0
 10
-2.709319126263469
 20
1.041996392848608
 30
0.0
 10
-2.715543481826835
 20
1.020636787870974
 30
0.0
 10
-2.727907264106622
 20
1.002008176124415
 30
0.0
 10
-2.740313510809894
 20
0.9833769103512521
 30
0.0
 10
-2.759967240278039
 20
0.9708844077879348
 30
0.0
 10
-2.786953713111402
 20
0.964575786884451
 30
0.0
 10
-2.786953713111402
 20
0.964575786884451
 30
0.0
 10
-2.698788612763273
 20
0.8010346762087515
 30
0.0
 10
-2.698788612763273
 20
0.8010346762087515
 30
0.0
 10
-2.698788612763273
 20
0.8010346762087515
 30
0.0
 10
-2.729313898132229
 20
0.8010346762087515
 30
0.0
 10
-2.729313898132229
 20
0.8010346762087515
 30
0.0
 10
-2.729313898132229
 20
0.8010346762087515
 30
0.0
 10
-2.815219426700082
 20
0.9612502917255925
 30
0.0
 10
-2.815219426700082
 20
0.9612502917255925
 30
0.0
 10
-2.815219426700082
 20
0.9612502917255925
 30
0.0
 10
-2.924956454142817
 20
0.9612502917255925
 30
0.0
 10
-2.924956454142817
 20
0.9612502917255925
 30
0.0
 10
-2.924956454142817
 20
0.9612502917255925
 30
0.0
 10
-2.924956454142817
 20
0.8010346762087515
 30
0.0
 10
-2.924956454142817
 20
0.8010346762087515
 30
0.0
 10
-2.924956454142817
 20
0.8010346762087515
 30
0.0
 10
-2.951602216328902
 20
0.8010346762087515
 30
0.0
 10
-2.951602216328902
 20
0.8010346762087515
 30
0.0
 10
-2.951602216328902
 20
0.8010346762087515
 30
0.0
 10
-2.951602216328902
 20
1.170790989065229
 30
0.0
 10
-2.951602216328902
 20
1.170790989065229
 30
0.0
  0
HATCH
  5
BC
330
9E
100
AcDbEntity
  8
Layer 2
 62
   250
420
  2170655
440
 33554687
100
AcDbHatch
 10
0.0
 20
0.0
 30
0.0
210
0.0
220
0.0
230
1.0
  2
SOLID
 70
     1
 71
     1
 91
        2
 92
        1
 93
        1
 72
     4
 94
        3
 73
     0
 74
     0
 95
       23
 96
       19
 40
0.0
 40
0.0
 40
0.0
 40
0.0
 40
1.0
 40
1.0
 40
1.0
 40
2.0
 40
2.0
 40
2.0
 40
3.0
 40
3.0
 40
3.0
 40
4.0
 40
4.0
 40
4.0
 40
5.0
 40
5.0
 40
5.0
 40
6.0
 40
6.0
 40
6.0
 40
6.0
 10
-2.829075103605633
 20
0.9861901784024919
 10
-2.768110125221167
 20
0.9861901784024919
 10
-2.737627304275608
 20
1.012794139671743
 10
-2.737627304275608
 20
1.065999408183643
 10
-2.737627304275608
 20
1.092600715426593
 10
-2.745642464195106
 20
1.112596150802018
 10
-2.761715248457575
 20
1.125855667013208
 10
-2.777830165390077
 20
1.139200112071269
 10
-2.80136374979453
 20
1.145851102388532
 10
-2.832400598764289
 20
1.145851102388532
 10
-2.832400598764289
 20
1.145851102388532
 10
-2.924956454142817
 20
1.145851102388532
 10
-2.924956454142817
 20
1.145851102388532
 10
-2.924956454142817
 20
1.145851102388532
 10
-2.924956454142817
 20
0.9861901784024919
 10
-2.924956454142817
 20
0.9861901784024919
 10
-2.924956454142817
 20
0.9861901784024919
 10
-2.829075103605633
 20
0.9861901784024919
 10
-2.829075103605633
 20
0.9861901784024919
 97
        0
 97
        1
330
BA
 92
        1
 93
        1
 72
     4
 94
        3
 73
     0
 74
     0
 95
       47
 96
       43
 40
0.0
 40
0.0
 40
0.0
 40
0.0
 40
1.0
 40
1.0
 40
1.0
 40
2.0
 40
2.0
 40
2.0
 40
3.0
 40
3.0
 40
3.0
 40
4.0
 40
4.0
 40
4.0
 40
5.0
 40
5.0
 40
5.0
 40
6.0
 40
6.0
 40
6.0
 40
7.0
 40
7.0
 40
7.0
 40
8.0
 40
8.0
 40
8.0
 40
9.0
 40
9.0
 40
9.0
 40
10.0
 40
10.0
 40
10.0
 40
11.0
 40
11.0
 40
11.0
 40
12.0
 40
12.0
 40
12.0
 40
13.0
 40
13.0
 40
13.0
 40
14.0
 40
14.0
 40
14.0
 40
14.0
 10
-2.951602216328902
 20
1.170790989065229
 10
-2.951602216328902
 20
1.170790989065229
 10
-2.840159645130079
 20
1.170790989065229
 10
-2.840159645130079
 20
1.170790989065229
 10
-2.816114828878135
 20
1.170790989065229
 10
-2.795821147278969
 20
1.168232507554446
 10
-2.779194334992287
 20
1.163073080109547
 10
-2.762567522705606
 20
1.157831377844483
 10
-2.749052888200556
 20
1.150540767149398
 10
-2.738736023830685
 20
1.141161437627614
 10
-2.728418495954138
 20
1.131739643682597
 10
-2.720872766965321
 20
1.120611310721541
 10
-2.716268362804624
 20
1.107864021617766
 10
-2.711663958643902
 20
1.095159196937275
 10
-2.709319126263469
 20
1.081175131501595
 10
-2.709319126263469
 20
1.065999408183643
 10
-2.709319126263469
 20
1.041996392848608
 10
-2.715543481826835
 20
1.020636787870974
 10
-2.727907264106622
 20
1.002008176124415
 10
-2.740313510809894
 20
0.9833769103512521
 10
-2.759967240278039
 20
0.9708844077879348
 10
-2.786953713111402
 20
0.964575786884451
 10
-2.786953713111402
 20
0.964575786884451
 10
-2.698788612763273
 20
0.8010346762087515
 10
-2.698788612763273
 20
0.8010346762087515
 10
-2.698788612763273
 20
0.8010346762087515
 10
-2.729313898132229
 20
0.8010346762087515
 10
-2.729313898132229
 20
0.8010346762087515
 10
-2.729313898132229
 20
0.8010346762087515
 10
-2.815219426700082
 20
0.9612502917255925
 10
-2.815219426700082
 20
0.9612502917255925
 10
-2.815219426700082
 20
0.9612502917255925
 10
-2.924956454142817
 20
0.9612502917255925
 10
-2.924956454142817
 20
0.9612502917255925
 10
-2.924956454142817
 20
0.9612502917255925
 10
-2.924956454142817
 20
0.8010346762087515
 10
-2.924956454142817
 20
0.8010346762087515
 10
-2.924956454142817
 20
0.8010346762087515
 10
-2.951602216328902
 20
0.8010346762087515
 10
-2.951602216328902
 20
0.8010346762087515
 10
-2.951602216328902
 20
0.8010346762087515
 10
-2.951602216328902
 20
1.170790989065229
 10
-2.951602216328902
 20
1.170790989065229
 97
        0
 97
        1
330
BB
 75
     2
 76
     1
 98
        1
 10
0.0
 20
0.0
450
        0
451
        0
460
0.0
461
0.0
452
        0
462
0.0
453
        0
470

  0
LWPOLYLINE
  5
BD
330
9E
100
AcDbEntity
  8
Layer 2
100
AcDbPolyline
 90
       12
 70
     1
 43
0.0
 10
-2.587948837324966
 20
1.170793643091782
 10
-2.366215210659156
 20
1.170793643091782
 10
-2.366215210659156
 20
1.145853756414933
 10
-2.56134620306894
 20
1.145853756414933
 10
-2.56134620306894
 20
1.006145803380781
 10
-2.408890629177663
 20
1.006145803380781
 10
-2.408890629177663
 20
0.9812059167041347
 10
-2.56134620306894
 20
0.9812059167041347
 10
-2.56134620306894
 20
0.8259772169118503
 10
-2.351847970152789
 20
0.8259772169118503
 10
-2.351847970152789
 20
0.801037330235153
 10
-2.587948837324966
 20
0.801037330235153
  0
HATCH
  5
BE
330
9E
100
AcDbEntity
  8
Layer 2
 62
   250
420
  2170655
440
 33554687
100
AcDbHatch
 10
0.0
 20
0.0
 30
0.0
210
0.0
220
0.0
230
1.0
  2
SOLID
 70
     1
 71
     1
 91
        1
 92
        1
 93
       12
 72
     1
 10
-2.587948837324966
 20
1.170793643091782
 11
-2.366215210659156
 21
1.170793643091782
 72
     1
 10
-2.366215210659156
 20
1.170793643091782
 11
-2.366215210659156
 21
1.145853756414933
 72
     1
 10
-2.366215210659156
 20
1.145853756414933
 11
-2.56134620306894
 21
1.145853756414933
 72
     1
 10
-2.56134620306894
 20
1.145853756414933
 11
-2.56134620306894
 21
1.006145803380781
 72
     1
 10
-2.56134620306894
 20
1.006145803380781
 11
-2.408890629177663
 21
1.006145803380781
 72
     1
 10
-2.408890629177663
 20
1.006145803380781
 11
-2.408890629177663
 21
0.9812059167041347
 72
     1
 10
-2.408890629177663
 20
0.9812059167041347
 11
-2.56134620306894
 21
0.9812059167041347
 72
     1
 10
-2.56134620306894
 20
0.9812059167041347
 11
-2.56134620306894
 21
0.8259772169118503
 72
     1
 10
-2.56134620306894
 20
0.8259772169118503
 11
-2.351847970152789
 21
0.8259772169118503
 72
     1
 10
-2.351847970152789
 20
0.8259772169118503
 11
-2.351847970152789
 21
0.801037330235153
 72
     1
 10
-2.351847970152789
 20
0.801037330235153
 11
-2.587948837324966
 21
0.801037330235153
 72
     1
 10
-2.587948837324966
 20
0.801037330235153
 11
-2.587948837324966
 21
1.170793643091782
 97
        1
330
BD
 75
     2
 76
     1
 98
        1
 10
0.0
 20
0.0
450
        0
451
        0
460
0.0
461
0.0
452
        0
462
0.0
453
        0
470

  0
LWPOLYLINE
  5
BF
330
9E
100
AcDbEntity
  8
Layer 2
100
AcDbPolyline
 90
       12
 70
     1
 43
0.0
 10
-2.034748869343616
 20
1.170793643091782
 10
-2.00806064273412
 20
1.170793643091782
 10
-2.00806064273412
 20
1.006145803380781
 10
-1.775285270720599
 20
1.006145803380781
 10
-1.775285270720599
 20
1.170793643091782
 10
-1.748681972957948
 20
1.170793643091782
 10
-1.748681972957948
 20
0.801037330235153
 10
-1.775285270720599
 20
0.801037330235153
 10
-1.775285270720599
 20
0.9812059167041347
 10
-2.00806064273412
 20
0.9812059167041347
 10
-2.00806064273412
 20
0.801037330235153
 10
-2.034748869343616
 20
0.801037330235153
  0
HATCH
  5
C0
330
9E
100
AcDbEntity
  8
Layer 2
 62
   250
420
  2170655
440
 33554687
100
AcDbHatch
 10
0.0
 20
0.0
 30
0.0
210
0.0
220
0.0
230
1.0
  2
SOLID
 70
     1
 71
     1
 91
        1
 92
        1
 93
       12
 72
     1
 10
-2.034748869343616
 20
1.170793643091782
 11
-2.00806064273412
 21
1.170793643091782
 72
     1
 10
-2.00806064273412
 20
1.170793643091782
 11
-2.00806064273412
 21
1.006145803380781
 72
     1
 10
-2.00806064273412
 20
1.006145803380781
 11
-1.775285270720599
 21
1.006145803380781
 72
     1
 10
-1.775285270720599
 20
1.006145803380781
 11
-1.775285270720599
 21
1.170793643091782
 72
     1
 10
-1.775285270720599
 20
1.170793643091782
 11
-1.748681972957948
 21
1.170793643091782
 72
     1
 10
-1.748681972957948
 20
1.170793643091782
 11
-1.748681972957948
 21
0.801037330235153
 72
     1
 10
-1.748681972957948
 20
0.801037330235153
 11
-1.775285270720599
 21
0.801037330235153
 72
     1
 10
-1.775285270720599
 20
0.801037330235153
 11
-1.775285270720599
 21
0.9812059167041347
 72
     1
 10
-1.775285270720599
 20
0.9812059167041347
 11
-2.00806064273412
 21
0.9812059167041347
 72
     1
 10
-2.00806064273412
 20
0.9812059167041347
 11
-2.00806064273412
 21
0.801037330235153
 72
     1
 10
-2.00806064273412
 20
0.801037330235153
 11
-2.034748869343616
 21
0.801037330235153
 72
     1
 10
-2.034748869343616
 20
0.801037330235153
 11
-2.034748869343616
 21
1.170793643091782
 97
        1
330
BF
 75
     2
 76
     1
 98
        1
 10
0.0
 20
0.0
450
        0
451
        0
460
0.0
461
0.0
452
        0
462
0.0
453
        0
470

  0
SPLINE
  5
C1
330
9E
100
AcDbEntity
  8
Layer 2
100
AcDbSpline
210
0.0
220
0.0
230
1.0
 70
    11
 71
     3
 72
    14
 73
    10
 74
     0
 42
0.0000000001
 43
0.0000000001
 40
0.0
 40
0.0
 40
0.0
 40
0.0
 40
1.0
 40
1.0
 40
1.0
 40
2.0
 40
2.0
 40
2.0
 40
3.0
 40
3.0
 40
3.0
 40
3.0
 10
-1.416073405003203
 20
0.9451801614898158
 30
0.0
 10
-1.416073405003203
 20
0.9451801614898158
 30
0.0
 10
-1.493154295580186
 20
1.136986654000717
 30
0.0
 10
-1.493154295580186
 20
1.136986654000717
 30
0.0
 10
-1.493154295580186
 20
1.136986654000717
 30
0.0
 10
-1.570191394720483
 20
0.9451801614898158
 30
0.0
 10
-1.570191394720483
 20
0.9451801614898158
 30
0.0
 10
-1.570191394720483
 20
0.9451801614898158
 30
0.0
 10
-1.416073405003203
 20
0.9451801614898158
 30
0.0
 10
-1.416073405003203
 20
0.9451801614898158
 30
0.0
  0
SPLINE
  5
C2
330
9E
100
AcDbEntity
  8
Layer 2
100
AcDbSpline
210
0.0
220
0.0
230
1.0
 70
    11
 71
     3
 72
    29
 73
    25
 74
     0
 42
0.0000000001
 43
0.0000000001
 40
0.0
 40
0.0
 40
0.0
 40
0.0
 40
1.0
 40
1.0
 40
1.0
 40
2.0
 40
2.0
 40
2.0
 40
3.0
 40
3.0
 40
3.0
 40
4.0
 40
4.0
 40
4.0
 40
5.0
 40
5.0
 40
5.0
 40
6.0
 40
6.0
 40
6.0
 40
7.0
 40
7.0
 40
7.0
 40
8.0
 40
8.0
 40
8.0
 40
8.0
 10
-1.505346893153109
 20
1.170793643091782
 30
0.0
 10
-1.505346893153109
 20
1.170793643091782
 30
0.0
 10
-1.478743595390432
 20
1.170793643091782
 30
0.0
 10
-1.478743595390432
 20
1.170793643091782
 30
0.0
 10
-1.478743595390432
 20
1.170793643091782
 30
0.0
 10
-1.327397072807583
 20
0.801037330235153
 30
0.0
 10
-1.327397072807583
 20
0.801037330235153
 30
0.0
 10
-1.327397072807583
 20
0.801037330235153
 30
0.0
 10
-1.357879893753091
 20
0.801037330235153
 30
0.0
 10
-1.357879893753091
 20
0.801037330235153
 30
0.0
 10
-1.357879893753091
 20
0.801037330235153
 30
0.0
 10
-1.406097583033834
 20
0.9202402748129163
 30
0.0
 10
-1.406097583033834
 20
0.9202402748129163
 30
0.0
 10
-1.406097583033834
 20
0.9202402748129163
 30
0.0
 10
-1.580167880196452
 20
0.9202402748129163
 30
0.0
 10
-1.580167880196452
 20
0.9202402748129163
 30
0.0
 10
-1.580167880196452
 20
0.9202402748129163
 30
0.0
 10
-1.627831541452943
 20
0.801037330235153
 30
0.0
 10
-1.627831541452943
 20
0.801037330235153
 30
0.0
 10
-1.627831541452943
 20
0.801037330235153
 30
0.0
 10
-1.656650951312561
 20
0.801037330235153
 30
0.0
 10
-1.656650951312561
 20
0.801037330235153
 30
0.0
 10
-1.656650951312561
 20
0.801037330235153
 30
0.0
 10
-1.505346893153109
 20
1.170793643091782
 30
0.0
 10
-1.505346893153109
 20
1.170793643091782
 30
0.0
  0
HATCH
  5
C3
330
9E
100
AcDbEntity
  8
Layer 2
 62
   250
420
  2170655
440
 33554687
100
AcDbHatch
 10
0.0
 20
0.0
 30
0.0
210
0.0
220
0.0
230
1.0
  2
SOLID
 70
     1
 71
     1
 91
        2
 92
        1
 93
        1
 72
     4
 94
        3
 73
     0
 74
     0
 95
       14
 96
       10
 40
0.0
 40
0.0
 40
0.0
 40
0.0
 40
1.0
 40
1.0
 40
1.0
 40
2.0
 40
2.0
 40
2.0
 40
3.0
 40
3.0
 40
3.0
 40
3.0
 10
-1.416073405003203
 20
0.9451801614898158
 10
-1.416073405003203
 20
0.9451801614898158
 10
-1.493154295580186
 20
1.136986654000717
 10
-1.493154295580186
 20
1.136986654000717
 10
-1.493154295580186
 20
1.136986654000717
 10
-1.570191394720483
 20
0.9451801614898158
 10
-1.570191394720483
 20
0.9451801614898158
 10
-1.570191394720483
 20
0.9451801614898158
 10
-1.416073405003203
 20
0.9451801614898158
 10
-1.416073405003203
 20
0.9451801614898158
 97
        0
 97
        1
330
C1
 92
        1
 93
        1
 72
     4
 94
        3
 73
     0
 74
     0
 95
       29
 96
       25
 40
0.0
 40
0.0
 40
0.0
 40
0.0
 40
1.0
 40
1.0
 40
1.0
 40
2.0
 40
2.0
 40
2.0
 40
3.0
 40
3.0
 40
3.0
 40
4.0
 40
4.0
 40
4.0
 40
5.0
 40
5.0
 40
5.0
 40
6.0
 40
6.0
 40
6.0
 40
7.0
 40
7.0
 40
7.0
 40
8.0
 40
8.0
 40
8.0
 40
8.0
 10
-1.505346893153109
 20
1.170793643091782
 10
-1.505346893153109
 20
1.170793643091782
 10
-1.478743595390432
 20
1.170793643091782
 10
-1.478743595390432
 20
1.170793643091782
 10
-1.478743595390432
 20
1.170793643091782
 10
-1.327397072807583
 20
0.801037330235153
 10
-1.327397072807583
 20
0.801037330235153
 10
-1.327397072807583
 20
0.801037330235153
 10
-1.357879893753091
 20
0.801037330235153
 10
-1.357879893753091
 20
0.801037330235153
 10
-1.357879893753091
 20
0.801037330235153
 10
-1.406097583033834
 20
0.9202402748129163
 10
-1.406097583033834
 20
0.9202402748129163
 10
-1.406097583033834
 20
0.9202402748129163
 10
-1.580167880196452
 20
0.9202402748129163
 10
-1.580167880196452
 20
0.9202402748129163
 10
-1.580167880196452
 20
0.9202402748129163
 10
-1.627831541452943
 20
0.801037330235153
 10
-1.627831541452943
 20
0.801037330235153
 10
-1.627831541452943
 20
0.801037330235153
 10
-1.656650951312561
 20
0.801037330235153
 10
-1.656650951312561
 20
0.801037330235153
 10
-1.656650951312561
 20
0.801037330235153
 10
-1.505346893153109
 20
1.170793643091782
 10
-1.505346893153109
 20
1.170793643091782
 97
        0
 97
        1
330
C2
 75
     2
 76
     1
 98
        1
 10
0.0
 20
0.0
450
        0
451
        0
460
0.0
461
0.0
452
        0
462
0.0
453
        0
470

  0
SPLINE
  5
C4
330
9E
100
AcDbEntity
  8
Layer 2
100
AcDbSpline
210
0.0
220
0.0
230
1.0
 70
     9
 71
     3
 72
    23
 73
    19
 74
     0
 42
0.0000000001
 43
0.0000000001
 40
0.0
 40
0.0
 40
0.0
 40
0.0
 40
1.0
 40
1.0
 40
1.0
 40
2.0
 40
2.0
 40
2.0
 40
3.0
 40
3.0
 40
3.0
 40
4.0
 40
4.0
 40
4.0
 40
5.0
 40
5.0
 40
5.0
 40
6.0
 40
6.0
 40
6.0
 40
6.0
 10
-1.112834293892584
 20
0.9861901784024919
 30
0.0
 10
-1.051869315508093
 20
0.9861901784024919
 30
0.0
 10
-1.02138715806916
 20
1.012794139671743
 30
0.0
 10
-1.02138715806916
 20
1.065999408183643
 30
0.0
 10
-1.02138715806916
 20
1.092600715426593
 30
0.0
 10
-1.029444782412092
 20
1.112596150802018
 30
0.0
 10
-1.045516903167923
 20
1.125855667013208
 30
0.0
 10
-1.061589687430354
 20
1.139200112071269
 30
0.0
 10
-1.085122940081456
 20
1.145851102388532
 30
0.0
 10
-1.116159789051266
 20
1.145851102388532
 30
0.0
 10
-1.116159789051266
 20
1.145851102388532
 30
0.0
 10
-1.208758772359828
 20
1.145851102388532
 30
0.0
 10
-1.208758772359828
 20
1.145851102388532
 30
0.0
 10
-1.208758772359828
 20
1.145851102388532
 30
0.0
 10
-1.208758772359828
 20
0.9861901784024919
 30
0.0
 10
-1.208758772359828
 20
0.9861901784024919
 30
0.0
 10
-1.208758772359828
 20
0.9861901784024919
 30
0.0
 10
-1.112834293892584
 20
0.9861901784024919
 30
0.0
 10
-1.112834293892584
 20
0.9861901784024919
 30
0.0
  0
SPLINE
  5
C5
330
9E
100
AcDbEntity
  8
Layer 2
100
AcDbSpline
210
0.0
220
0.0
230
1.0
 70
    11
 71
     3
 72
    47
 73
    43
 74
     0
 42
0.0000000001
 43
0.0000000001
 40
0.0
 40
0.0
 40
0.0
 40
0.0
 40
1.0
 40
1.0
 40
1.0
 40
2.0
 40
2.0
 40
2.0
 40
3.0
 40
3.0
 40
3.0
 40
4.0
 40
4.0
 40
4.0
 40
5.0
 40
5.0
 40
5.0
 40
6.0
 40
6.0
 40
6.0
 40
7.0
 40
7.0
 40
7.0
 40
8.0
 40
8.0
 40
8.0
 40
9.0
 40
9.0
 40
9.0
 40
10.0
 40
10.0
 40
10.0
 40
11.0
 40
11.0
 40
11.0
 40
12.0
 40
12.0
 40
12.0
 40
13.0
 40
13.0
 40
13.0
 40
14.0
 40
14.0
 40
14.0
 40
14.0
 10
-1.23536207012248
 20
1.170790989065229
 30
0.0
 10
-1.23536207012248
 20
1.170790989065229
 30
0.0
 10
-1.123919498923656
 20
1.170790989065229
 30
0.0
 10
-1.123919498923656
 20
1.170790989065229
 30
0.0
 10
-1.099917147095147
 20
1.170790989065229
 30
0.0
 10
-1.079580669319246
 20
1.168232507554446
 30
0.0
 10
-1.062953857032564
 20
1.163073080109547
 30
0.0
 10
-1.046327044745882
 20
1.157831377844483
 30
0.0
 10
-1.032855206417568
 20
1.150540767149398
 30
0.0
 10
-1.022495877624237
 20
1.141161437627614
 30
0.0
 10
-1.01217834974774
 20
1.131739643682597
 30
0.0
 10
-1.004675416935659
 20
1.120611310721541
 30
0.0
 10
-1.000070681021611
 20
1.107864021617766
 30
0.0
 10
-0.9954234806842046
 20
1.095159196937275
 30
0.0
 10
-0.9931211127271808
 20
1.081175131501595
 30
0.0
 10
-0.9931211127271808
 20
1.065999408183643
 30
0.0
 10
-0.9931211127271808
 20
1.041996392848608
 30
0.0
 10
-0.999303003867087
 20
1.020636787870974
 30
0.0
 10
-1.011709250570359
 20
1.002008176124415
 30
0.0
 10
-1.02407303285012
 20
0.9833769103512521
 30
0.0
 10
-1.04376922674175
 20
0.9708844077879348
 30
0.0
 10
-1.070713566904954
 20
0.964575786884451
 30
0.0
 10
-1.070713566904954
 20
0.964575786884451
 30
0.0
 10
-0.9825912627335608
 20
0.8010346762087515
 30
0.0
 10
-0.9825912627335608
 20
0.8010346762087515
 30
0.0
 10
-0.9825912627335608
 20
0.8010346762087515
 30
0.0
 10
-1.013073420172519
 20
0.8010346762087515
 30
0.0
 10
-1.013073420172519
 20
0.8010346762087515
 30
0.0
 10
-1.013073420172519
 20
0.8010346762087515
 30
0.0
 10
-1.098978948740333
 20
0.9612502917255925
 30
0.0
 10
-1.098978948740333
 20
0.9612502917255925
 30
0.0
 10
-1.098978948740333
 20
0.9612502917255925
 30
0.0
 10
-1.208758772359828
 20
0.9612502917255925
 30
0.0
 10
-1.208758772359828
 20
0.9612502917255925
 30
0.0
 10
-1.208758772359828
 20
0.9612502917255925
 30
0.0
 10
-1.208758772359828
 20
0.8010346762087515
 30
0.0
 10
-1.208758772359828
 20
0.8010346762087515
 30
0.0
 10
-1.208758772359828
 20
0.8010346762087515
 30
0.0
 10
-1.23536207012248
 20
0.8010346762087515
 30
0.0
 10
-1.23536207012248
 20
0.8010346762087515
 30
0.0
 10
-1.23536207012248
 20
0.8010346762087515
 30
0.0
 10
-1.23536207012248
 20
1.170790989065229
 30
0.0
 10
-1.23536207012248
 20
1.170790989065229
 30
0.0
  0
HATCH
  5
C6
330
9E
100
AcDbEntity
  8
Layer 2
 62
   250
420
  2170655
440
 33554687
100
AcDbHatch
 10
0.0
 20
0.0
 30
0.0
210
0.0
220
0.0
230
1.0
  2
SOLID
 70
     1
 71
     1
 91
        2
 92
        1
 93
        1
 72
     4
 94
        3
 73
     0
 74
     0
 95
       23
 96
       19
 40
0.0
 40
0.0
 40
0.0
 40
0.0
 40
1.0
 40
1.0
 40
1.0
 40
2.0
 40
2.0
 40
2.0
 40
3.0
 40
3.0
 40
3.0
 40
4.0
 40
4.0
 40
4.0
 40
5.0
 40
5.0
 40
5.0
 40
6.0
 40
6.0
 40
6.0
 40
6.0
 10
-1.112834293892584
 20
0.9861901784024919
 10
-1.051869315508093
 20
0.9861901784024919
 10
-1.02138715806916
 20
1.012794139671743
 10
-1.02138715806916
 20
1.065999408183643
 10
-1.02138715806916
 20
1.092600715426593
 10
-1.029444782412092
 20
1.112596150802018
 10
-1.045516903167923
 20
1.125855667013208
 10
-1.061589687430354
 20
1.139200112071269
 10
-1.085122940081456
 20
1.145851102388532
 10
-1.116159789051266
 20
1.145851102388532
 10
-1.116159789051266
 20
1.145851102388532
 10
-1.208758772359828
 20
1.145851102388532
 10
-1.208758772359828
 20
1.145851102388532
 10
-1.208758772359828
 20
1.145851102388532
 10
-1.208758772359828
 20
0.9861901784024919
 10
-1.208758772359828
 20
0.9861901784024919
 10
-1.208758772359828
 20
0.9861901784024919
 10
-1.112834293892584
 20
0.9861901784024919
 10
-1.112834293892584
 20
0.9861901784024919
 97
        0
 97
        1
330
C4
 92
        1
 93
        1
 72
     4
 94
        3
 73
     0
 74
     0
 95
       47
 96
       43
 40
0.0
 40
0.0
 40
0.0
 40
0.0
 40
1.0
 40
1.0
 40
1.0
 40
2.0
 40
2.0
 40
2.0
 40
3.0
 40
3.0
 40
3.0
 40
4.0
 40
4.0
 40
4.0
 40
5.0
 40
5.0
 40
5.0
 40
6.0
 40
6.0
 40
6.0
 40
7.0
 40
7.0
 40
7.0
 40
8.0
 40
8.0
 40
8.0
 40
9.0
 40
9.0
 40
9.0
 40
10.0
 40
10.0
 40
10.0
 40
11.0
 40
11.0
 40
11.0
 40
12.0
 40
12.0
 40
12.0
 40
13.0
 40
13.0
 40
13.0
 40
14.0
 40
14.0
 40
14.0
 40
14.0
 10
-1.23536207012248
 20
1.170790989065229
 10
-1.23536207012248
 20
1.170790989065229
 10
-1.123919498923656
 20
1.170790989065229
 10
-1.123919498923656
 20
1.170790989065229
 10
-1.099917147095147
 20
1.170790989065229
 10
-1.079580669319246
 20
1.168232507554446
 10
-1.062953857032564
 20
1.163073080109547
 10
-1.046327044745882
 20
1.157831377844483
 10
-1.032855206417568
 20
1.150540767149398
 10
-1.022495877624237
 20
1.141161437627614
 10
-1.01217834974774
 20
1.131739643682597
 10
-1.004675416935659
 20
1.120611310721541
 10
-1.000070681021611
 20
1.107864021617766
 10
-0.9954234806842046
 20
1.095159196937275
 10
-0.9931211127271808
 20
1.081175131501595
 10
-0.9931211127271808
 20
1.065999408183643
 10
-0.9931211127271808
 20
1.041996392848608
 10
-0.999303003867087
 20
1.020636787870974
 10
-1.011709250570359
 20
1.002008176124415
 10
-1.02407303285012
 20
0.9833769103512521
 10
-1.04376922674175
 20
0.9708844077879348
 10
-1.070713566904954
 20
0.964575786884451
 10
-1.070713566904954
 20
0.964575786884451
 10
-0.9825912627335608
 20
0.8010346762087515
 10
-0.9825912627335608
 20
0.8010346762087515
 10
-0.9825912627335608
 20
0.8010346762087515
 10
-1.013073420172519
 20
0.8010346762087515
 10
-1.013073420172519
 20
0.8010346762087515
 10
-1.013073420172519
 20
0.8010346762087515
 10
-1.098978948740333
 20
0.9612502917255925
 10
-1.098978948740333
 20
0.9612502917255925
 10
-1.098978948740333
 20
0.9612502917255925
 10
-1.208758772359828
 20
0.9612502917255925
 10
-1.208758772359828
 20
0.9612502917255925
 10
-1.208758772359828
 20
0.9612502917255925
 10
-1.208758772359828
 20
0.8010346762087515
 10
-1.208758772359828
 20
0.8010346762087515
 10
-1.208758772359828
 20
0.8010346762087515
 10
-1.23536207012248
 20
0.8010346762087515
 10
-1.23536207012248
 20
0.8010346762087515
 10
-1.23536207012248
 20
0.8010346762087515
 10
-1.23536207012248
 20
1.170790989065229
 10
-1.23536207012248
 20
1.170790989065229
 97
        0
 97
        1
330
C5
 75
     2
 76
     1
 98
        1
 10
0.0
 20
0.0
450
        0
451
        0
460
0.0
461
0.0
452
        0
462
0.0
453
        0
470

  0
SPLINE
  5
C7
330
9E
100
AcDbEntity
  8
Layer 2
100
AcDbSpline
210
0.0
220
0.0
230
1.0
 70
     9
 71
     3
 72
    38
 73
    34
 74
     0
 42
0.0000000001
 43
0.0000000001
 40
0.0
 40
0.0
 40
0.0
 40
0.0
 40
1.0
 40
1.0
 40
1.0
 40
2.0
 40
2.0
 40
2.0
 40
3.0
 40
3.0
 40
3.0
 40
4.0
 40
4.0
 40
4.0
 40
5.0
 40
5.0
 40
5.0
 40
6.0
 40
6.0
 40
6.0
 40
7.0
 40
7.0
 40
7.0
 40
8.0
 40
8.0
 40
8.0
 40
9.0
 40
9.0
 40
9.0
 40
10.0
 40
10.0
 40
10.0
 40
11.0
 40
11.0
 40
11.0
 40
11.0
 10
-0.7652749313627965
 20
0.8259798709382518
 30
0.0
 10
-0.7390558039307331
 20
0.8259798709382518
 30
0.0
 10
-0.7153089021493062
 20
0.8292629016736757
 30
0.0
 10
-0.694035553031818
 20
0.8356564514239783
 30
0.0
 10
-0.6727608769011037
 20
0.8421375840475523
 30
0.0
 10
-0.6546000373185735
 20
0.8520716051001878
 30
0.0
 10
-0.639422323480921
 20
0.8653735857348136
 30
0.0
 10
-0.6242877375732784
 20
0.8786304479196031
 30
0.0
 10
-0.6126491680245813
 20
0.8953853169831392
 30
0.0
 10
-0.6045059513282038
 20
0.9155506100522517
 30
0.0
 10
-0.5964058625618615
 20
0.935630974274343
 30
0.0
 10
-0.5923551546720648
 20
0.9592066913488805
 30
0.0
 10
-0.5923551546720648
 20
0.9861954864552949
 30
0.0
 10
-0.5923551546720648
 20
1.013139163111923
 30
0.0
 10
-0.5964907914086805
 20
1.036672415763076
 30
0.0
 10
-0.6048045293053469
 20
1.056580268265128
 30
0.0
 10
-0.6131607316253974
 20
1.076575703640552
 30
0.0
 10
-0.6249273579509742
 20
1.0931607150104
 30
0.0
 10
-0.6402749294822645
 20
1.10650516006846
 30
0.0
 10
-0.6556231645202059
 20
1.119764676279702
 30
0.0
 10
-0.6741681744333239
 20
1.129653578882248
 30
0.0
 10
-0.6959962150816637
 20
1.136134711506024
 30
0.0
 10
-0.7178242557300286
 20
1.142615844129547
 30
0.0
 10
-0.7423812990893895
 20
1.145853756414933
 30
0.0
 10
-0.769708482569955
 20
1.145853756414933
 30
0.0
 10
-0.769708482569955
 20
1.145853756414933
 30
0.0
 10
-0.8451259620609839
 20
1.145853756414933
 30
0.0
 10
-0.8451259620609839
 20
1.145853756414933
 30
0.0
 10
-0.8451259620609839
 20
1.145853756414933
 30
0.0
 10
-0.8451259620609839
 20
0.8259798709382518
 30
0.0
 10
-0.8451259620609839
 20
0.8259798709382518
 30
0.0
 10
-0.8451259620609839
 20
0.8259798709382518
 30
0.0
 10
-0.7652749313627965
 20
0.8259798709382518
 30
0.0
 10
-0.7652749313627965
 20
0.8259798709382518
 30
0.0
  0
SPLINE
  5
C8
330
9E
100
AcDbEntity
  8
Layer 2
100
AcDbSpline
210
0.0
220
0.0
230
1.0
 70
    11
 71
     3
 72
    38
 73
    34
 74
     0
 42
0.0000000001
 43
0.0000000001
 40
0.0
 40
0.0
 40
0.0
 40
0.0
 40
1.0
 40
1.0
 40
1.0
 40
2.0
 40
2.0
 40
2.0
 40
3.0
 40
3.0
 40
3.0
 40
4.0
 40
4.0
 40
4.0
 40
5.0
 40
5.0
 40
5.0
 40
6.0
 40
6.0
 40
6.0
 40
7.0
 40
7.0
 40
7.0
 40
8.0
 40
8.0
 40
8.0
 40
9.0
 40
9.0
 40
9.0
 40
10.0
 40
10.0
 40
10.0
 40
11.0
 40
11.0
 40
11.0
 40
11.0
 10
-0.8716867954002003
 20
1.170796297118234
 30
0.0
 10
-0.8716867954002003
 20
1.170796297118234
 30
0.0
 10
-0.7708603300550673
 20
1.170796297118234
 30
0.0
 10
-0.7708603300550673
 20
1.170796297118234
 30
0.0
 10
-0.7405480303097722
 20
1.170796297118234
 30
0.0
 10
-0.7127086197217901
 20
1.167213361392466
 30
0.0
 10
-0.6874270271379399
 20
1.159965215121069
 30
0.0
 10
-0.6621029701306295
 20
1.152762187299256
 30
0.0
 10
-0.6402749294822645
 20
1.141676318761634
 30
0.0
 10
-0.6219853696162292
 20
1.126712917560805
 30
0.0
 10
-0.6036958097502444
 20
1.111749516360128
 30
0.0
 10
-0.5894994221974407
 20
1.092606023479599
 30
0.0
 10
-0.5792674866743634
 20
1.069370021792337
 30
0.0
 10
-0.5691204799981051
 20
1.046136674131477
 30
0.0
 10
-0.5640897728366605
 20
1.018383519403641
 30
0.0
 10
-0.5640897728366605
 20
0.9861954864552949
 30
0.0
 10
-0.5640897728366605
 20
0.954092382353868
 30
0.0
 10
-0.5691204799981051
 20
0.9263365735995799
 30
0.0
 10
-0.5792674866743634
 20
0.903018297091901
 30
0.0
 10
-0.5894994221974407
 20
0.8797822954046397
 30
0.0
 10
-0.6036958097502444
 20
0.8605538736772409
 30
0.0
 10
-0.6219853696162292
 20
0.8454206147829255
 30
0.0
 10
-0.6402749294822645
 20
0.8302422374386221
 30
0.0
 10
-0.6621029701306295
 20
0.8190740940805829
 30
0.0
 10
-0.6874270271379399
 20
0.8118684122323681
 30
0.0
 10
-0.7127086197217901
 20
0.8046627303841027
 30
0.0
 10
-0.7405480303097722
 20
0.8010399842616051
 30
0.0
 10
-0.7708603300550673
 20
0.8010399842616051
 30
0.0
 10
-0.7708603300550673
 20
0.8010399842616051
 30
0.0
 10
-0.8716867954002003
 20
0.8010399842616051
 30
0.0
 10
-0.8716867954002003
 20
0.8010399842616051
 30
0.0
 10
-0.8716867954002003
 20
0.8010399842616051
 30
0.0
 10
-0.8716867954002003
 20
1.170796297118234
 30
0.0
 10
-0.8716867954002003
 20
1.170796297118234
 30
0.0
  0
HATCH
  5
C9
330
9E
100
AcDbEntity
  8
Layer 2
 62
   250
420
  2170655
440
 33554687
100
AcDbHatch
 10
0.0
 20
0.0
 30
0.0
210
0.0
220
0.0
230
1.0
  2
SOLID
 70
     1
 71
     1
 91
        2
 92
        1
 93
        1
 72
     4
 94
        3
 73
     0
 74
     0
 95
       38
 96
       34
 40
0.0
 40
0.0
 40
0.0
 40
0.0
 40
1.0
 40
1.0
 40
1.0
 40
2.0
 40
2.0
 40
2.0
 40
3.0
 40
3.0
 40
3.0
 40
4.0
 40
4.0
 40
4.0
 40
5.0
 40
5.0
 40
5.0
 40
6.0
 40
6.0
 40
6.0
 40
7.0
 40
7.0
 40
7.0
 40
8.0
 40
8.0
 40
8.0
 40
9.0
 40
9.0
 40
9.0
 40
10.0
 40
10.0
 40
10.0
 40
11.0
 40
11.0
 40
11.0
 40
11.0
 10
-0.7652749313627965
 20
0.8259798709382518
 10
-0.7390558039307331
 20
0.8259798709382518
 10
-0.7153089021493062
 20
0.8292629016736757
 10
-0.694035553031818
 20
0.8356564514239783
 10
-0.6727608769011037
 20
0.8421375840475523
 10
-0.6546000373185735
 20
0.8520716051001878
 10
-0.639422323480921
 20
0.8653735857348136
 10
-0.6242877375732784
 20
0.8786304479196031
 10
-0.6126491680245813
 20
0.8953853169831392
 10
-0.6045059513282038
 20
0.9155506100522517
 10
-0.5964058625618615
 20
0.935630974274343
 10
-0.5923551546720648
 20
0.9592066913488805
 10
-0.5923551546720648
 20
0.9861954864552949
 10
-0.5923551546720648
 20
1.013139163111923
 10
-0.5964907914086805
 20
1.036672415763076
 10
-0.6048045293053469
 20
1.056580268265128
 10
-0.6131607316253974
 20
1.076575703640552
 10
-0.6249273579509742
 20
1.0931607150104
 10
-0.6402749294822645
 20
1.10650516006846
 10
-0.6556231645202059
 20
1.119764676279702
 10
-0.6741681744333239
 20
1.129653578882248
 10
-0.6959962150816637
 20
1.136134711506024
 10
-0.7178242557300286
 20
1.142615844129547
 10
-0.7423812990893895
 20
1.145853756414933
 10
-0.769708482569955
 20
1.145853756414933
 10
-0.769708482569955
 20
1.145853756414933
 10
-0.8451259620609839
 20
1.145853756414933
 10
-0.8451259620609839
 20
1.145853756414933
 10
-0.8451259620609839
 20
1.145853756414933
 10
-0.8451259620609839
 20
0.8259798709382518
 10
-0.8451259620609839
 20
0.8259798709382518
 10
-0.8451259620609839
 20
0.8259798709382518
 10
-0.7652749313627965
 20
0.8259798709382518
 10
-0.7652749313627965
 20
0.8259798709382518
 97
        0
 97
        1
330
C7
 92
        1
 93
        1
 72
     4
 94
        3
 73
     0
 74
     0
 95
       38
 96
       34
 40
0.0
 40
0.0
 40
0.0
 40
0.0
 40
1.0
 40
1.0
 40
1.0
 40
2.0
 40
2.0
 40
2.0
 40
3.0
 40
3.0
 40
3.0
 40
4.0
 40
4.0
 40
4.0
 40
5.0
 40
5.0
 40
5.0
 40
6.0
 40
6.0
 40
6.0
 40
7.0
 40
7.0
 40
7.0
 40
8.0
 40
8.0
 40
8.0
 40
9.0
 40
9.0
 40
9.0
 40
10.0
 40
10.0
 40
10.0
 40
11.0
 40
11.0
 40
11.0
 40
11.0
 10
-0.8716867954002003
 20
1.170796297118234
 10
-0.8716867954002003
 20
1.170796297118234
 10
-0.7708603300550673
 20
1.170796297118234
 10
-0.7708603300550673
 20
1.170796297118234
 10
-0.7405480303097722
 20
1.170796297118234
 10
-0.7127086197217901
 20
1.167213361392466
 10
-0.6874270271379399
 20
1.159965215121069
 10
-0.6621029701306295
 20
1.152762187299256
 10
-0.6402749294822645
 20
1.141676318761634
 10
-0.6219853696162292
 20
1.126712917560805
 10
-0.6036958097502444
 20
1.111749516360128
 10
-0.5894994221974407
 20
1.092606023479599
 10
-0.5792674866743634
 20
1.069370021792337
 10
-0.5691204799981051
 20
1.046136674131477
 10
-0.5640897728366605
 20
1.018383519403641
 10
-0.5640897728366605
 20
0.9861954864552949
 10
-0.5640897728366605
 20
0.954092382353868
 10
-0.5691204799981051
 20
0.9263365735995799
 10
-0.5792674866743634
 20
0.903018297091901
 10
-0.5894994221974407
 20
0.8797822954046397
 10
-0.6036958097502444
 20
0.8605538736772409
 10
-0.6219853696162292
 20
0.8454206147829255
 10
-0.6402749294822645
 20
0.8302422374386221
 10
-0.6621029701306295
 20
0.8190740940805829
 10
-0.6874270271379399
 20
0.8118684122323681
 10
-0.7127086197217901
 20
0.8046627303841027
 10
-0.7405480303097722
 20
0.8010399842616051
 10
-0.7708603300550673
 20
0.8010399842616051
 10
-0.7708603300550673
 20
0.8010399842616051
 10
-0.8716867954002003
 20
0.8010399842616051
 10
-0.8716867954002003
 20
0.8010399842616051
 10
-0.8716867954002003
 20
0.8010399842616051
 10
-0.8716867954002003
 20
1.170796297118234
 10
-0.8716867954002003
 20
1.170796297118234
 97
        0
 97
        1
330
C8
 75
     2
 76
     1
 98
        1
 10
0.0
 20
0.0
450
        0
451
        0
460
0.0
461
0.0
452
        0
462
0.0
453
        0
470

  0
LWPOLYLINE
  5
CA
330
9E
100
AcDbEntity
  8
Layer 2
100
AcDbPolyline
 90
       13
 70
     1
 43
0.0
 10
-0.4831645249274743
 20
1.170793643091782
 10
-0.4531939310893576
 20
1.170793643091782
 10
-0.3645175988937379
 20
0.83876697043911
 10
-0.2708523604534826
 20
1.159707774553908
 10
-0.2381109629875608
 20
1.159707774553908
 10
-0.1488799392610897
 20
0.8409432721390809
 10
-0.0607145071596607
 20
1.170793643091782
 10
-0.0319368982168397
 20
1.170793643091782
 10
-0.1356210865564991
 20
0.801037330235153
 10
-0.1649527235235205
 20
0.801037330235153
 10
-0.2553342677218779
 20
1.120359178207435
 10
-0.35010756221061
 20
0.801037330235153
 10
-0.3811444111803692
 20
0.801037330235153
  0
HATCH
  5
CB
330
9E
100
AcDbEntity
  8
Layer 2
 62
   250
420
  2170655
440
 33554687
100
AcDbHatch
 10
0.0
 20
0.0
 30
0.0
210
0.0
220
0.0
230
1.0
  2
SOLID
 70
     1
 71
     1
 91
        1
 92
        1
 93
       13
 72
     1
 10
-0.4831645249274743
 20
1.170793643091782
 11
-0.4531939310893576
 21
1.170793643091782
 72
     1
 10
-0.4531939310893576
 20
1.170793643091782
 11
-0.3645175988937379
 21
0.83876697043911
 72
     1
 10
-0.3645175988937379
 20
0.83876697043911
 11
-0.2708523604534826
 21
1.159707774553908
 72
     1
 10
-0.2708523604534826
 20
1.159707774553908
 11
-0.2381109629875608
 21
1.159707774553908
 72
     1
 10
-0.2381109629875608
 20
1.159707774553908
 11
-0.1488799392610897
 21
0.8409432721390809
 72
     1
 10
-0.1488799392610897
 20
0.8409432721390809
 11
-0.0607145071596607
 21
1.170793643091782
 72
     1
 10
-0.0607145071596607
 20
1.170793643091782
 11
-0.0319368982168397
 21
1.170793643091782
 72
     1
 10
-0.0319368982168397
 20
1.170793643091782
 11
-0.1356210865564991
 21
0.801037330235153
 72
     1
 10
-0.1356210865564991
 20
0.801037330235153
 11
-0.1649527235235205
 21
0.801037330235153
 72
     1
 10
-0.1649527235235205
 20
0.801037330235153
 11
-0.2553342677218779
 21
1.120359178207435
 72
     1
 10
-0.2553342677218779
 20
1.120359178207435
 11
-0.35010756221061
 21
0.801037330235153
 72
     1
 10
-0.35010756221061
 20
0.801037330235153
 11
-0.3811444111803692
 21
0.801037330235153
 72
     1
 10
-0.3811444111803692
 20
0.801037330235153
 11
-0.4831645249274743
 21
1.170793643091782
 97
        1
330
CA
 75
     2
 76
     1
 98
        1
 10
0.0
 20
0.0
450
        0
451
        0
460
0.0
461
0.0
452
        0
462
0.0
453
        0
470

  0
SPLINE
  5
CC
330
9E
100
AcDbEntity
  8
Layer 2
100
AcDbSpline
210
0.0
220
0.0
230
1.0
 70
    11
 71
     3
 72
    14
 73
    10
 74
     0
 42
0.0000000001
 43
0.0000000001
 40
0.0
 40
0.0
 40
0.0
 40
0.0
 40
1.0
 40
1.0
 40
1.0
 40
2.0
 40
2.0
 40
2.0
 40
3.0
 40
3.0
 40
3.0
 40
3.0
 10
0.2529940748424779
 20
0.9451801614898158
 30
0.0
 10
0.2529940748424779
 20
0.9451801614898158
 30
0.0
 10
0.1759563121955807
 20
1.136986654000717
 30
0.0
 10
0.1759563121955807
 20
1.136986654000717
 30
0.0
 10
0.1759563121955807
 20
1.136986654000717
 30
0.0
 10
0.0988760851251982
 20
0.9451801614898158
 30
0.0
 10
0.0988760851251982
 20
0.9451801614898158
 30
0.0
 10
0.0988760851251982
 20
0.9451801614898158
 30
0.0
 10
0.2529940748424779
 20
0.9451801614898158
 30
0.0
 10
0.2529940748424779
 20
0.9451801614898158
 30
0.0
  0
SPLINE
  5
CD
330
9E
100
AcDbEntity
  8
Layer 2
100
AcDbSpline
210
0.0
220
0.0
230
1.0
 70
    11
 71
     3
 72
    29
 73
    25
 74
     0
 42
0.0000000001
 43
0.0000000001
 40
0.0
 40
0.0
 40
0.0
 40
0.0
 40
1.0
 40
1.0
 40
1.0
 40
2.0
 40
2.0
 40
2.0
 40
3.0
 40
3.0
 40
3.0
 40
4.0
 40
4.0
 40
4.0
 40
5.0
 40
5.0
 40
5.0
 40
6.0
 40
6.0
 40
6.0
 40
7.0
 40
7.0
 40
7.0
 40
8.0
 40
8.0
 40
8.0
 40
8.0
 10
0.1637637146226325
 20
1.170793643091782
 30
0.0
 10
0.1637637146226325
 20
1.170793643091782
 30
0.0
 10
0.1903663488786833
 20
1.170793643091782
 30
0.0
 10
0.1903663488786833
 20
1.170793643091782
 30
0.0
 10
0.1903663488786833
 20
1.170793643091782
 30
0.0
 10
0.3417553358849419
 20
0.801037330235153
 30
0.0
 10
0.3417553358849419
 20
0.801037330235153
 30
0.0
 10
0.3417553358849419
 20
0.801037330235153
 30
0.0
 10
0.3112307140226246
 20
0.801037330235153
 30
0.0
 10
0.3112307140226246
 20
0.801037330235153
 30
0.0
 10
0.3112307140226246
 20
0.801037330235153
 30
0.0
 10
0.2629698968118469
 20
0.9202402748129163
 30
0.0
 10
0.2629698968118469
 20
0.9202402748129163
 30
0.0
 10
0.2629698968118469
 20
0.9202402748129163
 30
0.0
 10
0.0889427275792387
 20
0.9202402748129163
 30
0.0
 10
0.0889427275792387
 20
0.9202402748129163
 30
0.0
 10
0.0889427275792387
 20
0.9202402748129163
 30
0.0
 10
0.0412790663227725
 20
0.801037330235153
 30
0.0
 10
0.0412790663227725
 20
0.801037330235153
 30
0.0
 10
0.0412790663227725
 20
0.801037330235153
 30
0.0
 10
0.012458992956542
 20
0.801037330235153
 30
0.0
 10
0.012458992956542
 20
0.801037330235153
 30
0.0
 10
0.012458992956542
 20
0.801037330235153
 30
0.0
 10
0.1637637146226325
 20
1.170793643091782
 30
0.0
 10
0.1637637146226325
 20
1.170793643091782
 30
0.0
  0
HATCH
  5
CE
330
9E
100
AcDbEntity
  8
Layer 2
 62
   250
420
  2170655
440
 33554687
100
AcDbHatch
 10
0.0
 20
0.0
 30
0.0
210
0.0
220
0.0
230
1.0
  2
SOLID
 70
     1
 71
     1
 91
        2
 92
        1
 93
        1
 72
     4
 94
        3
 73
     0
 74
     0
 95
       14
 96
       10
 40
0.0
 40
0.0
 40
0.0
 40
0.0
 40
1.0
 40
1.0
 40
1.0
 40
2.0
 40
2.0
 40
2.0
 40
3.0
 40
3.0
 40
3.0
 40
3.0
 10
0.2529940748424779
 20
0.9451801614898158
 10
0.2529940748424779
 20
0.9451801614898158
 10
0.1759563121955807
 20
1.136986654000717
 10
0.1759563121955807
 20
1.136986654000717
 10
0.1759563121955807
 20
1.136986654000717
 10
0.0988760851251982
 20
0.9451801614898158
 10
0.0988760851251982
 20
0.9451801614898158
 10
0.0988760851251982
 20
0.9451801614898158
 10
0.2529940748424779
 20
0.9451801614898158
 10
0.2529940748424779
 20
0.9451801614898158
 97
        0
 97
        1
330
CC
 92
        1
 93
        1
 72
     4
 94
        3
 73
     0
 74
     0
 95
       29
 96
       25
 40
0.0
 40
0.0
 40
0.0
 40
0.0
 40
1.0
 40
1.0
 40
1.0
 40
2.0
 40
2.0
 40
2.0
 40
3.0
 40
3.0
 40
3.0
 40
4.0
 40
4.0
 40
4.0
 40
5.0
 40
5.0
 40
5.0
 40
6.0
 40
6.0
 40
6.0
 40
7.0
 40
7.0
 40
7.0
 40
8.0
 40
8.0
 40
8.0
 40
8.0
 10
0.1637637146226325
 20
1.170793643091782
 10
0.1637637146226325
 20
1.170793643091782
 10
0.1903663488786833
 20
1.170793643091782
 10
0.1903663488786833
 20
1.170793643091782
 10
0.1903663488786833
 20
1.170793643091782
 10
0.3417553358849419
 20
0.801037330235153
 10
0.3417553358849419
 20
0.801037330235153
 10
0.3417553358849419
 20
0.801037330235153
 10
0.3112307140226246
 20
0.801037330235153
 10
0.3112307140226246
 20
0.801037330235153
 10
0.3112307140226246
 20
0.801037330235153
 10
0.2629698968118469
 20
0.9202402748129163
 10
0.2629698968118469
 20
0.9202402748129163
 10
0.2629698968118469
 20
0.9202402748129163
 10
0.0889427275792387
 20
0.9202402748129163
 10
0.0889427275792387
 20
0.9202402748129163
 10
0.0889427275792387
 20
0.9202402748129163
 10
0.0412790663227725
 20
0.801037330235153
 10
0.0412790663227725
 20
0.801037330235153
 10
0.0412790663227725
 20
0.801037330235153
 10
0.012458992956542
 20
0.801037330235153
 10
0.012458992956542
 20
0.801037330235153
 10
0.012458992956542
 20
0.801037330235153
 10
0.1637637146226325
 20
1.170793643091782
 10
0.1637637146226325
 20
1.170793643091782
 97
        0
 97
        1
330
CD
 75
     2
 76
     1
 98
        1
 10
0.0
 20
0.0
450
        0
451
        0
460
0.0
461
0.0
452
        0
462
0.0
453
        0
470

  0
SPLINE
  5
CF
330
9E
100
AcDbEntity
  8
Layer 2
100
AcDbSpline
210
0.0
220
0.0
230
1.0
 70
     9
 71
     3
 72
    23
 73
    19
 74
     0
 42
0.0000000001
 43
0.0000000001
 40
0.0
 40
0.0
 40
0.0
 40
0.0
 40
1.0
 40
1.0
 40
1.0
 40
2.0
 40
2.0
 40
2.0
 40
3.0
 40
3.0
 40
3.0
 40
4.0
 40
4.0
 40
4.0
 40
5.0
 40
5.0
 40
5.0
 40
6.0
 40
6.0
 40
6.0
 40
6.0
 10
0.5562537546581627
 20
0.9861901784024919
 30
0.0
 10
0.6172187330426798
 20
0.9861901784024919
 30
0.0
 10
0.6477440184116479
 20
1.012794139671743
 30
0.0
 10
0.6477440184116479
 20
1.065999408183643
 30
0.0
 10
0.6477440184116479
 20
1.092600715426593
 30
0.0
 10
0.6396857305621399
 20
1.112596150802018
 30
0.0
 10
0.6236136098062591
 20
1.125855667013208
 30
0.0
 10
0.6075408255438283
 20
1.139200112071269
 30
0.0
 10
0.5839651084693161
 20
1.145851102388532
 30
0.0
 10
0.5529282594995317
 20
1.145851102388532
 30
0.0
 10
0.5529282594995317
 20
1.145851102388532
 30
0.0
 10
0.4603717406143536
 20
1.145851102388532
 30
0.0
 10
0.4603717406143536
 20
1.145851102388532
 30
0.0
 10
0.4603717406143536
 20
1.145851102388532
 30
0.0
 10
0.4603717406143536
 20
0.9861901784024919
 30
0.0
 10
0.4603717406143536
 20
0.9861901784024919
 30
0.0
 10
0.4603717406143536
 20
0.9861901784024919
 30
0.0
 10
0.5562537546581627
 20
0.9861901784024919
 30
0.0
 10
0.5562537546581627
 20
0.9861901784024919
 30
0.0
  0
SPLINE
  5
D0
330
9E
100
AcDbEntity
  8
Layer 2
100
AcDbSpline
210
0.0
220
0.0
230
1.0
 70
    11
 71
     3
 72
    47
 73
    43
 74
     0
 42
0.0000000001
 43
0.0000000001
 40
0.0
 40
0.0
 40
0.0
 40
0.0
 40
1.0
 40
1.0
 40
1.0
 40
2.0
 40
2.0
 40
2.0
 40
3.0
 40
3.0
 40
3.0
 40
4.0
 40
4.0
 40
4.0
 40
5.0
 40
5.0
 40
5.0
 40
6.0
 40
6.0
 40
6.0
 40
7.0
 40
7.0
 40
7.0
 40
8.0
 40
8.0
 40
8.0
 40
9.0
 40
9.0
 40
9.0
 40
10.0
 40
10.0
 40
10.0
 40
11.0
 40
11.0
 40
11.0
 40
12.0
 40
12.0
 40
12.0
 40
13.0
 40
13.0
 40
13.0
 40
14.0
 40
14.0
 40
14.0
 40
14.0
 10
0.4337266419349186
 20
1.170790989065229
 30
0.0
 10
0.4337266419349186
 20
1.170790989065229
 30
0.0
 10
0.5451692131337167
 20
1.170790989065229
 30
0.0
 10
0.5451692131337167
 20
1.170790989065229
 30
0.0
 10
0.5691715649622513
 20
1.170790989065229
 30
0.0
 10
0.5895073792315518
 20
1.168232507554446
 30
0.0
 10
0.6061341915182336
 20
1.163073080109547
 30
0.0
 10
0.6227610038049154
 20
1.157831377844483
 30
0.0
 10
0.6362759700632143
 20
1.150540767149398
 30
0.0
 10
0.6465928344331612
 20
1.141161437627614
 30
0.0
 10
0.6569096988030071
 20
1.131739643682597
 30
0.0
 10
0.6644132951217645
 20
1.120611310721541
 30
0.0
 10
0.6690604954591965
 20
1.107864021617766
 30
0.0
 10
0.673665231373194
 20
1.095159196937275
 30
0.0
 10
0.6759669358236175
 20
1.081175131501595
 30
0.0
 10
0.6759669358236175
 20
1.065999408183643
 30
0.0
 10
0.6759669358236175
 20
1.041996392848608
 30
0.0
 10
0.6697850446836861
 20
1.020636787870974
 30
0.0
 10
0.6573787979804895
 20
1.002008176124415
 30
0.0
 10
0.6450150157006267
 20
0.9833769103512521
 30
0.0
 10
0.6253612862324315
 20
0.9708844077879348
 30
0.0
 10
0.5983751451524438
 20
0.964575786884451
 30
0.0
 10
0.5983751451524438
 20
0.964575786884451
 30
0.0
 10
0.6864974493238379
 20
0.8010346762087515
 30
0.0
 10
0.6864974493238379
 20
0.8010346762087515
 30
0.0
 10
0.6864974493238379
 20
0.8010346762087515
 30
0.0
 10
0.6560146283782792
 20
0.8010346762087515
 30
0.0
 10
0.6560146283782792
 20
0.8010346762087515
 30
0.0
 10
0.6560146283782792
 20
0.8010346762087515
 30
0.0
 10
0.5701097633170649
 20
0.9612502917255925
 30
0.0
 10
0.5701097633170649
 20
0.9612502917255925
 30
0.0
 10
0.5701097633170649
 20
0.9612502917255925
 30
0.0
 10
0.4603717406143536
 20
0.9612502917255925
 30
0.0
 10
0.4603717406143536
 20
0.9612502917255925
 30
0.0
 10
0.4603717406143536
 20
0.9612502917255925
 30
0.0
 10
0.4603717406143536
 20
0.8010346762087515
 30
0.0
 10
0.4603717406143536
 20
0.8010346762087515
 30
0.0
 10
0.4603717406143536
 20
0.8010346762087515
 30
0.0
 10
0.4337266419349186
 20
0.8010346762087515
 30
0.0
 10
0.4337266419349186
 20
0.8010346762087515
 30
0.0
 10
0.4337266419349186
 20
0.8010346762087515
 30
0.0
 10
0.4337266419349186
 20
1.170790989065229
 30
0.0
 10
0.4337266419349186
 20
1.170790989065229
 30
0.0
  0
HATCH
  5
D1
330
9E
100
AcDbEntity
  8
Layer 2
 62
   250
420
  2170655
440
 33554687
100
AcDbHatch
 10
0.0
 20
0.0
 30
0.0
210
0.0
220
0.0
230
1.0
  2
SOLID
 70
     1
 71
     1
 91
        2
 92
        1
 93
        1
 72
     4
 94
        3
 73
     0
 74
     0
 95
       23
 96
       19
 40
0.0
 40
0.0
 40
0.0
 40
0.0
 40
1.0
 40
1.0
 40
1.0
 40
2.0
 40
2.0
 40
2.0
 40
3.0
 40
3.0
 40
3.0
 40
4.0
 40
4.0
 40
4.0
 40
5.0
 40
5.0
 40
5.0
 40
6.0
 40
6.0
 40
6.0
 40
6.0
 10
0.5562537546581627
 20
0.9861901784024919
 10
0.6172187330426798
 20
0.9861901784024919
 10
0.6477440184116479
 20
1.012794139671743
 10
0.6477440184116479
 20
1.065999408183643
 10
0.6477440184116479
 20
1.092600715426593
 10
0.6396857305621399
 20
1.112596150802018
 10
0.6236136098062591
 20
1.125855667013208
 10
0.6075408255438283
 20
1.139200112071269
 10
0.5839651084693161
 20
1.145851102388532
 10
0.5529282594995317
 20
1.145851102388532
 10
0.5529282594995317
 20
1.145851102388532
 10
0.4603717406143536
 20
1.145851102388532
 10
0.4603717406143536
 20
1.145851102388532
 10
0.4603717406143536
 20
1.145851102388532
 10
0.4603717406143536
 20
0.9861901784024919
 10
0.4603717406143536
 20
0.9861901784024919
 10
0.4603717406143536
 20
0.9861901784024919
 10
0.5562537546581627
 20
0.9861901784024919
 10
0.5562537546581627
 20
0.9861901784024919
 97
        0
 97
        1
330
CF
 92
        1
 93
        1
 72
     4
 94
        3
 73
     0
 74
     0
 95
       47
 96
       43
 40
0.0
 40
0.0
 40
0.0
 40
0.0
 40
1.0
 40
1.0
 40
1.0
 40
2.0
 40
2.0
 40
2.0
 40
3.0
 40
3.0
 40
3.0
 40
4.0
 40
4.0
 40
4.0
 40
5.0
 40
5.0
 40
5.0
 40
6.0
 40
6.0
 40
6.0
 40
7.0
 40
7.0
 40
7.0
 40
8.0
 40
8.0
 40
8.0
 40
9.0
 40
9.0
 40
9.0
 40
10.0
 40
10.0
 40
10.0
 40
11.0
 40
11.0
 40
11.0
 40
12.0
 40
12.0
 40
12.0
 40
13.0
 40
13.0
 40
13.0
 40
14.0
 40
14.0
 40
14.0
 40
14.0
 10
0.4337266419349186
 20
1.170790989065229
 10
0.4337266419349186
 20
1.170790989065229
 10
0.5451692131337167
 20
1.170790989065229
 10
0.5451692131337167
 20
1.170790989065229
 10
0.5691715649622513
 20
1.170790989065229
 10
0.5895073792315518
 20
1.168232507554446
 10
0.6061341915182336
 20
1.163073080109547
 10
0.6227610038049154
 20
1.157831377844483
 10
0.6362759700632143
 20
1.150540767149398
 10
0.6465928344331612
 20
1.141161437627614
 10
0.6569096988030071
 20
1.131739643682597
 10
0.6644132951217645
 20
1.120611310721541
 10
0.6690604954591965
 20
1.107864021617766
 10
0.673665231373194
 20
1.095159196937275
 10
0.6759669358236175
 20
1.081175131501595
 10
0.6759669358236175
 20
1.065999408183643
 10
0.6759669358236175
 20
1.041996392848608
 10
0.6697850446836861
 20
1.020636787870974
 10
0.6573787979804895
 20
1.002008176124415
 10
0.6450150157006267
 20
0.9833769103512521
 10
0.6253612862324315
 20
0.9708844077879348
 10
0.5983751451524438
 20
0.964575786884451
 10
0.5983751451524438
 20
0.964575786884451
 10
0.6864974493238379
 20
0.8010346762087515
 10
0.6864974493238379
 20
0.8010346762087515
 10
0.6864974493238379
 20
0.8010346762087515
 10
0.6560146283782792
 20
0.8010346762087515
 10
0.6560146283782792
 20
0.8010346762087515
 10
0.6560146283782792
 20
0.8010346762087515
 10
0.5701097633170649
 20
0.9612502917255925
 10
0.5701097633170649
 20
0.9612502917255925
 10
0.5701097633170649
 20
0.9612502917255925
 10
0.4603717406143536
 20
0.9612502917255925
 10
0.4603717406143536
 20
0.9612502917255925
 10
0.4603717406143536
 20
0.9612502917255925
 10
0.4603717406143536
 20
0.8010346762087515
 10
0.4603717406143536
 20
0.8010346762087515
 10
0.4603717406143536
 20
0.8010346762087515
 10
0.4337266419349186
 20
0.8010346762087515
 10
0.4337266419349186
 20
0.8010346762087515
 10
0.4337266419349186
 20
0.8010346762087515
 10
0.4337266419349186
 20
1.170790989065229
 10
0.4337266419349186
 20
1.170790989065229
 97
        0
 97
        1
330
D0
 75
     2
 76
     1
 98
        1
 10
0.0
 20
0.0
450
        0
451
        0
460
0.0
461
0.0
452
        0
462
0.0
453
        0
470

  0
LWPOLYLINE
  5
D2
330
9E
100
AcDbEntity
  8
Layer 2
100
AcDbPolyline
 90
       12
 70
     1
 43
0.0
 10
0.7973813479520812
 20
1.170793643091782
 10
1.01911530637114
 20
1.170793643091782
 10
1.01911530637114
 20
1.145853756414933
 10
0.823983982208132
 20
1.145853756414933
 10
0.823983982208132
 20
1.006145803380781
 10
0.9764398878527092
 20
1.006145803380781
 10
0.9764398878527092
 20
0.9812059167041347
 10
0.823983982208132
 20
0.9812059167041347
 10
0.823983982208132
 20
0.8259772169118503
 10
1.033524679547667
 20
0.8259772169118503
 10
1.033524679547667
 20
0.801037330235153
 10
0.7973813479520812
 20
0.801037330235153
  0
HATCH
  5
D3
330
9E
100
AcDbEntity
  8
Layer 2
 62
   250
420
  2170655
440
 33554687
100
AcDbHatch
 10
0.0
 20
0.0
 30
0.0
210
0.0
220
0.0
230
1.0
  2
SOLID
 70
     1
 71
     1
 91
        1
 92
        1
 93
       12
 72
     1
 10
0.7973813479520812
 20
1.170793643091782
 11
1.01911530637114
 21
1.170793643091782
 72
     1
 10
1.01911530637114
 20
1.170793643091782
 11
1.01911530637114
 21
1.145853756414933
 72
     1
 10
1.01911530637114
 20
1.145853756414933
 11
0.823983982208132
 21
1.145853756414933
 72
     1
 10
0.823983982208132
 20
1.145853756414933
 11
0.823983982208132
 21
1.006145803380781
 72
     1
 10
0.823983982208132
 20
1.006145803380781
 11
0.9764398878527092
 21
1.006145803380781
 72
     1
 10
0.9764398878527092
 20
1.006145803380781
 11
0.9764398878527092
 21
0.9812059167041347
 72
     1
 10
0.9764398878527092
 20
0.9812059167041347
 11
0.823983982208132
 21
0.9812059167041347
 72
     1
 10
0.823983982208132
 20
0.9812059167041347
 11
0.823983982208132
 21
0.8259772169118503
 72
     1
 10
0.823983982208132
 20
0.8259772169118503
 11
1.033524679547667
 21
0.8259772169118503
 72
     1
 10
1.033524679547667
 20
0.8259772169118503
 11
1.033524679547667
 21
0.801037330235153
 72
     1
 10
1.033524679547667
 20
0.801037330235153
 11
0.7973813479520812
 21
0.801037330235153
 72
     1
 10
0.7973813479520812
 20
0.801037330235153
 11
0.7973813479520812
 21
1.170793643091782
 97
        1
330
D2
 75
     2
 76
     1
 98
        1
 10
0.0
 20
0.0
450
        0
451
        0
460
0.0
461
0.0
452
        0
462
0.0
453
        0
470

  0
ENDBLK
  5
A1
330
9E
100
AcDbEntity
  8
0
100
AcDbBlockEnd
  0
ENDSEC
  0
SECTION
  2
ENTITIES
  0
LWPOLYLINE
  5
79
330
70
100
AcDbEntity
  8
Layer 1
100
AcDbPolyline
 90
        3
 70
     1
 43
0.0
 10
8.913564183826034
 20
20.12178317705791
 10
8.716897042441486
 20
20.12178317705791
 10
8.81523061313376
 20
19.72761686642958
  0
HATCH
  5
7A
330
70
100
AcDbEntity
  8
Layer 1
 62
    18
420
        0
440
 33554687
100
AcDbHatch
 10
0.0
 20
0.0
 30
0.0
210
0.0
220
0.0
230
1.0
  2
SOLID
 70
     1
 71
     1
 91
        1
 92
        1
 93
        3
 72
     1
 10
8.913564183826034
 20
20.12178317705791
 11
8.716897042441486
 21
20.12178317705791
 72
     1
 10
8.716897042441486
 20
20.12178317705791
 11
8.81523061313376
 21
19.72761686642958
 72
     1
 10
8.81523061313376
 20
19.72761686642958
 11
8.913564183826034
 21
20.12178317705791
 97
        1
330
79
 75
     0
 76
     1
 98
        1
 10
0.0
 20
0.0
450
        0
451
        0
460
0.0
461
0.0
452
        0
462
0.0
453
        0
470

  0
LWPOLYLINE
  5
7B
330
70
100
AcDbEntity
  8
Layer 1
 62
    18
420
        0
370
     0
100
AcDbPolyline
 90
        3
 70
     1
 43
0.0
 10
8.913564183826034
 20
20.12178317705791
 10
8.716897042441486
 20
20.12178317705791
 10
8.81523061313376
 20
19.72761686642958
  0
LWPOLYLINE
  5
7C
330
70
100
AcDbEntity
  8
Layer 1
100
AcDbPolyline
 90
        3
 70
     1
 43
0.0
 10
14.91773068095055
 20
13.33011693424648
 10
15.31106326829861
 20
13.23178421126471
 10
14.91773068095055
 20
13.13345064057244
  0
HATCH
  5
7D
330
70
100
AcDbEntity
  8
Layer 1
 62
    18
420
        0
440
 33554687
100
AcDbHatch
 10
0.0
 20
0.0
 30
0.0
210
0.0
220
0.0
230
1.0
  2
SOLID
 70
     1
 71
     1
 91
        1
 92
        1
 93
        3
 72
     1
 10
14.91773068095055
 20
13.33011693424648
 11
15.31106326829861
 21
13.23178421126471
 72
     1
 10
15.31106326829861
 20
13.23178421126471
 11
14.91773068095055
 21
13.13345064057244
 72
     1
 10
14.91773068095055
 20
13.13345064057244
 11
14.91773068095055
 21
13.33011693424648
 97
        1
330
7C
 75
     0
 76
     1
 98
        1
 10
0.0
 20
0.0
450
        0
451
        0
460
0.0
461
0.0
452
        0
462
0.0
453
        0
470

  0
LWPOLYLINE
  5
7E
330
70
100
AcDbEntity
  8
Layer 1
 62
    18
420
        0
370
     0
100
AcDbPolyline
 90
        3
 70
     1
 43
0.0
 10
14.91773068095055
 20
13.33011693424648
 10
15.31106326829861
 20
13.23178421126471
 10
14.91773068095055
 20
13.13345064057244
  0
LWPOLYLINE
  5
7F
330
70
100
AcDbEntity
  8
Layer 1
100
AcDbPolyline
 90
        3
 70
     1
 43
0.0
 10
8.81523061313376
 20
24.25511659516222
 10
8.716897042441486
 20
23.86178337203139
 10
8.913563336115531
 20
23.86178337203139
  0
HATCH
  5
80
330
70
100
AcDbEntity
  8
Layer 1
 62
    18
420
        0
440
 33554687
100
AcDbHatch
 10
0.0
 20
0.0
 30
0.0
210
0.0
220
0.0
230
1.0
  2
SOLID
 70
     1
 71
     1
 91
        1
 92
        1
 93
        3
 72
     1
 10
8.81523061313376
 20
24.25511659516222
 11
8.716897042441486
 21
23.86178337203139
 72
     1
 10
8.716897042441486
 20
23.86178337203139
 11
8.913563336115531
 21
23.86178337203139
 72
     1
 10
8.913563336115531
 20
23.86178337203139
 11
8.81523061313376
 21
24.25511659516222
 97
        1
330
7F
 75
     0
 76
     1
 98
        1
 10
0.0
 20
0.0
450
        0
451
        0
460
0.0
461
0.0
452
        0
462
0.0
453
        0
470

  0
LWPOLYLINE
  5
81
330
70
100
AcDbEntity
  8
Layer 1
 62
    18
420
        0
370
     0
100
AcDbPolyline
 90
        3
 70
     1
 43
0.0
 10
8.81523061313376
 20
24.25511659516222
 10
8.716897042441486
 20
23.86178337203139
 10
8.913563336115531
 20
23.86178337203139
  0
SPLINE
  5
82
330
70
100
AcDbEntity
  8
Layer 1
 62
    18
420
        0
370
    20
100
AcDbSpline
210
0.0
220
0.0
230
1.0
 70
     8
 71
     3
 72
    26
 73
    22
 74
     0
 42
0.0000000001
 43
0.0000000001
 40
0.0
 40
0.0
 40
0.0
 40
0.0
 40
1.0
 40
1.0
 40
1.0
 40
2.0
 40
2.0
 40
2.0
 40
3.0
 40
3.0
 40
3.0
 40
4.0
 40
4.0
 40
4.0
 40
5.0
 40
5.0
 40
5.0
 40
6.0
 40
6.0
 40
6.0
 40
7.0
 40
7.0
 40
7.0
 40
7.0
 10
12.13356455681863
 20
24.25511659516222
 30
0.0
 10
12.13356455681863
 20
24.25511659516222
 30
0.0
 10
12.13356455681863
 20
24.25678329997598
 30
0.0
 10
12.13356455681863
 20
24.25678329997598
 30
0.0
 10
12.15331451612847
 20
24.32894995477458
 30
0.0
 10
12.17374433926223
 20
24.40094992849556
 30
0.0
 10
12.19272966369792
 20
24.47344994544986
 30
0.0
 10
12.19272966369792
 20
24.47344994544986
 30
0.0
 10
12.20023020623264
 20
24.50094999207388
 30
0.0
 10
12.20023020623264
 20
24.50094999207388
 30
0.0
 10
12.20023020623264
 20
24.50094999207388
 30
0.0
 10
12.21606374301655
 20
24.55678327878319
 30
0.0
 10
12.21606374301655
 20
24.55678327878319
 30
0.0
 10
12.24221730746972
 20
24.65644998020597
 30
0.0
 10
12.27116153490028
 20
24.75567216343347
 30
0.0
 10
12.2977304775
 20
24.85511660575861
 30
0.0
 10
12.2977304775
 20
24.85511660575861
 30
0.0
 10
12.29856292921446
 20
24.85678325759041
 30
0.0
 10
12.29856292921446
 20
24.85678325759041
 30
0.0
 10
12.29856292921446
 20
24.85678325759041
 30
0.0
 10
12.29856292921446
 20
24.85844990942208
 30
0.0
 10
12.29856292921446
 20
24.85844990942208
 30
0.0
  0
SPLINE
  5
83
330
70
100
AcDbEntity
  8
Layer 1
 62
    18
420
        0
370
    20
100
AcDbSpline
210
0.0
220
0.0
230
1.0
 70
     8
 71
     3
 72
    29
 73
    25
 74
     0
 42
0.0000000001
 43
0.0000000001
 40
0.0
 40
0.0
 40
0.0
 40
0.0
 40
1.0
 40
1.0
 40
1.0
 40
2.0
 40
2.0
 40
2.0
 40
3.0
 40
3.0
 40
3.0
 40
4.0
 40
4.0
 40
4.0
 40
5.0
 40
5.0
 40
5.0
 40
6.0
 40
6.0
 40
6.0
 40
7.0
 40
7.0
 40
7.0
 40
8.0
 40
8.0
 40
8.0
 40
8.0
 10
10.80606516717014
 20
24.25511659516222
 30
0.0
 10
10.80606516717014
 20
24.25511659516222
 30
0.0
 10
10.80689761888461
 20
24.25595000055097
 30
0.0
 10
10.80689761888461
 20
24.25595000055097
 30
0.0
 10
10.80689761888461
 20
24.25595000055097
 30
0.0
 10
10.80689761888461
 20
24.25678329997598
 30
0.0
 10
10.80689761888461
 20
24.25678329997598
 30
0.0
 10
10.82641191467458
 20
24.32897771729361
 30
0.0
 10
10.84678578891501
 20
24.4011027283139
 30
0.0
 10
10.866064421185
 20
24.47344994544986
 30
0.0
 10
10.866064421185
 20
24.47344994544986
 30
0.0
 10
10.87356496371972
 20
24.50094999207388
 30
0.0
 10
10.87356496371972
 20
24.50094999207388
 30
0.0
 10
10.87356496371972
 20
24.50094999207388
 30
0.0
 10
10.88939850050347
 20
24.55678327878319
 30
0.0
 10
10.88939850050347
 20
24.55678327878319
 30
0.0
 10
10.91614715773014
 20
24.65626941786875
 30
0.0
 10
10.94357737420139
 20
24.75589436954917
 30
0.0
 10
10.97106353956597
 20
24.85511660575861
 30
0.0
 10
10.97106353956597
 20
24.85511660575861
 30
0.0
 10
10.97106353956597
 20
24.85678325759041
 30
0.0
 10
10.97106353956597
 20
24.85678325759041
 30
0.0
 10
10.97106353956597
 20
24.85678325759041
 30
0.0
 10
10.97189768670139
 20
24.85844990942208
 30
0.0
 10
10.97189768670139
 20
24.85844990942208
 30
0.0
  0
SPLINE
  5
84
330
70
100
AcDbEntity
  8
Layer 1
 62
    18
420
        0
370
    20
100
AcDbSpline
210
0.0
220
0.0
230
1.0
 70
     8
 71
     3
 72
    29
 73
    25
 74
     0
 42
0.0000000001
 43
0.0000000001
 40
0.0
 40
0.0
 40
0.0
 40
0.0
 40
1.0
 40
1.0
 40
1.0
 40
2.0
 40
2.0
 40
2.0
 40
3.0
 40
3.0
 40
3.0
 40
4.0
 40
4.0
 40
4.0
 40
5.0
 40
5.0
 40
5.0
 40
6.0
 40
6.0
 40
6.0
 40
7.0
 40
7.0
 40
7.0
 40
8.0
 40
8.0
 40
8.0
 40
8.0
 10
9.478564929811277
 20
24.25511659516222
 30
0.0
 10
9.478564929811277
 20
24.25511659516222
 30
0.0
 10
9.478564929811277
 20
24.25595000055097
 30
0.0
 10
9.478564929811277
 20
24.25595000055097
 30
0.0
 10
9.478564929811277
 20
24.25595000055097
 30
0.0
 10
9.47939822923619
 20
24.25678329997598
 30
0.0
 10
9.47939822923619
 20
24.25678329997598
 30
0.0
 10
9.499022727391572
 20
24.32894995477458
 30
0.0
 10
9.518911711224037
 20
24.40121388435362
 30
0.0
 10
9.538564183826034
 20
24.47344994544986
 30
0.0
 10
9.538564183826034
 20
24.47344994544986
 30
0.0
 10
9.546064726360755
 20
24.50094999207388
 30
0.0
 10
9.546064726360755
 20
24.50094999207388
 30
0.0
 10
9.546064726360755
 20
24.50094999207388
 30
0.0
 10
9.561898263144611
 20
24.55678327878319
 30
0.0
 10
9.561898263144611
 20
24.55678327878319
 30
0.0
 10
9.588841893786971
 20
24.65608885553153
 30
0.0
 10
9.615855884401121
 20
24.75626937548319
 30
0.0
 10
9.643564149917613
 20
24.85511660575861
 30
0.0
 10
9.643564149917613
 20
24.85511660575861
 30
0.0
 10
9.643564149917613
 20
24.85678325759041
 30
0.0
 10
9.643564149917613
 20
24.85678325759041
 30
0.0
 10
9.643564149917613
 20
24.85678325759041
 30
0.0
 10
9.644397449342527
 20
24.85844990942208
 30
0.0
 10
9.644397449342527
 20
24.85844990942208
 30
0.0
  0
SPLINE
  5
85
330
70
100
AcDbEntity
  8
Layer 1
 62
    18
420
        0
370
    20
100
AcDbSpline
210
0.0
220
0.0
230
1.0
 70
     8
 71
     3
 72
    38
 73
    34
 74
     0
 42
0.0000000001
 43
0.0000000001
 40
0.0
 40
0.0
 40
0.0
 40
0.0
 40
1.0
 40
1.0
 40
1.0
 40
2.0
 40
2.0
 40
2.0
 40
3.0
 40
3.0
 40
3.0
 40
4.0
 40
4.0
 40
4.0
 40
5.0
 40
5.0
 40
5.0
 40
6.0
 40
6.0
 40
6.0
 40
7.0
 40
7.0
 40
7.0
 40
8.0
 40
8.0
 40
8.0
 40
9.0
 40
9.0
 40
9.0
 40
10.0
 40
10.0
 40
10.0
 40
11.0
 40
11.0
 40
11.0
 40
11.0
 10
8.151897991877238
 20
24.25511659516222
 30
0.0
 10
8.151897991877238
 20
24.25511659516222
 30
0.0
 10
8.151897991877238
 20
24.25595000055097
 30
0.0
 10
8.151897991877238
 20
24.25595000055097
 30
0.0
 10
8.151897991877238
 20
24.25595000055097
 30
0.0
 10
8.152731291302149
 20
24.25678329997598
 30
0.0
 10
8.152731291302149
 20
24.25678329997598
 30
0.0
 10
8.152731291302149
 20
24.25678329997598
 30
0.0
 10
8.152731291302149
 20
24.25928330421446
 30
0.0
 10
8.152731291302149
 20
24.25928330421446
 30
0.0
 10
8.158092212526108
 20
24.27329723040264
 30
0.0
 10
8.160633648615519
 20
24.28878331184388
 30
0.0
 10
8.165230782675848
 20
24.30261667569472
 30
0.0
 10
8.165230782675848
 20
24.30261667569472
 30
0.0
 10
8.166897381525675
 20
24.31094998783542
 30
0.0
 10
8.166897381525675
 20
24.31094998783542
 30
0.0
 10
8.166897381525675
 20
24.31094998783542
 30
0.0
 10
8.169397279800413
 20
24.32011659940084
 30
0.0
 10
8.169397279800413
 20
24.32011659940084
 30
0.0
 10
8.1820646178538
 20
24.36179725329084
 30
0.0
 10
8.191661548463608
 20
24.40419994460208
 30
0.0
 10
8.204397551067774
 20
24.44595000478959
 30
0.0
 10
8.204397551067774
 20
24.44595000478959
 30
0.0
 10
8.219397788426716
 20
24.50094999207388
 30
0.0
 10
8.219397788426716
 20
24.50094999207388
 30
0.0
 10
8.219397788426716
 20
24.50094999207388
 30
0.0
 10
8.234397178075154
 20
24.55678327878319
 30
0.0
 10
8.234397178075154
 20
24.55678327878319
 30
0.0
 10
8.261856216703625
 20
24.65601944923403
 30
0.0
 10
8.289661121217514
 20
24.75565828217403
 30
0.0
 10
8.316063912558661
 20
24.85511660575861
 30
0.0
 10
8.316063912558661
 20
24.85511660575861
 30
0.0
 10
8.317730511408488
 20
24.85844990942208
 30
0.0
 10
8.317730511408488
 20
24.85844990942208
 30
0.0
  0
SPLINE
  5
86
330
70
100
AcDbEntity
  8
Layer 1
 62
    18
420
        0
370
    20
100
AcDbSpline
210
0.0
220
0.0
230
1.0
 70
     8
 71
     3
 72
    44
 73
    40
 74
     0
 42
0.0000000001
 43
0.0000000001
 40
0.0
 40
0.0
 40
0.0
 40
0.0
 40
1.0
 40
1.0
 40
1.0
 40
2.0
 40
2.0
 40
2.0
 40
3.0
 40
3.0
 40
3.0
 40
4.0
 40
4.0
 40
4.0
 40
5.0
 40
5.0
 40
5.0
 40
6.0
 40
6.0
 40
6.0
 40
7.0
 40
7.0
 40
7.0
 40
8.0
 40
8.0
 40
8.0
 40
9.0
 40
9.0
 40
9.0
 40
10.0
 40
10.0
 40
10.0
 40
11.0
 40
11.0
 40
11.0
 40
12.0
 40
12.0
 40
12.0
 40
13.0
 40
13.0
 40
13.0
 40
13.0
 10
6.824397754518283
 20
24.25511659516222
 30
0.0
 10
6.824397754518283
 20
24.25511659516222
 30
0.0
 10
6.824397754518283
 20
24.25595000055097
 30
0.0
 10
6.824397754518283
 20
24.25595000055097
 30
0.0
 10
6.824397754518283
 20
24.25595000055097
 30
0.0
 10
6.825231053943209
 20
24.25678329997598
 30
0.0
 10
6.825231053943209
 20
24.25678329997598
 30
0.0
 10
6.825231053943209
 20
24.25678329997598
 30
0.0
 10
6.825231053943209
 20
24.25928330421446
 30
0.0
 10
6.825231053943209
 20
24.25928330421446
 30
0.0
 10
6.829924827000922
 20
24.27356108029681
 30
0.0
 10
6.833508099299112
 20
24.28818609979416
 30
0.0
 10
6.837730545316894
 20
24.30261667569472
 30
0.0
 10
6.837730545316894
 20
24.30261667569472
 30
0.0
 10
6.839397144166733
 20
24.31094998783542
 30
0.0
 10
6.839397144166733
 20
24.31094998783542
 30
0.0
 10
6.839397144166733
 20
24.31094998783542
 30
0.0
 10
6.841897042441473
 20
24.32011659940084
 30
0.0
 10
6.841897042441473
 20
24.32011659940084
 30
0.0
 10
6.854564380494858
 20
24.36179725329084
 30
0.0
 10
6.864161311104667
 20
24.40418606334264
 30
0.0
 10
6.876897313708834
 20
24.44595000478959
 30
0.0
 10
6.876897313708834
 20
24.44595000478959
 30
0.0
 10
6.891897551067775
 20
24.50094999207388
 30
0.0
 10
6.891897551067775
 20
24.50094999207388
 30
0.0
 10
6.891897551067775
 20
24.50094999207388
 30
0.0
 10
6.9068969407162
 20
24.55678327878319
 30
0.0
 10
6.9068969407162
 20
24.55678327878319
 30
0.0
 10
6.93424492926873
 20
24.6560610930125
 30
0.0
 10
6.961827733630709
 20
24.75581108199223
 30
0.0
 10
6.98856367519972
 20
24.85511660575861
 30
0.0
 10
6.98856367519972
 20
24.85511660575861
 30
0.0
 10
6.989396974624632
 20
24.85678325759041
 30
0.0
 10
6.989396974624632
 20
24.85678325759041
 30
0.0
 10
6.989396974624632
 20
24.85678325759041
 30
0.0
 10
6.989396974624632
 20
24.85844990942208
 30
0.0
 10
6.989396974624632
 20
24.85844990942208
 30
0.0
 10
6.989396974624632
 20
24.85844990942208
 30
0.0
 10
6.990230274049533
 20
24.85844990942208
 30
0.0
 10
6.990230274049533
 20
24.85844990942208
 30
0.0
  0
SPLINE
  5
87
330
70
100
AcDbEntity
  8
Layer 1
 62
    18
420
        0
370
    20
100
AcDbSpline
210
0.0
220
0.0
230
1.0
 70
     8
 71
     3
 72
    26
 73
    22
 74
     0
 42
0.0000000001
 43
0.0000000001
 40
0.0
 40
0.0
 40
0.0
 40
0.0
 40
1.0
 40
1.0
 40
1.0
 40
2.0
 40
2.0
 40
2.0
 40
3.0
 40
3.0
 40
3.0
 40
4.0
 40
4.0
 40
4.0
 40
5.0
 40
5.0
 40
5.0
 40
6.0
 40
6.0
 40
6.0
 40
7.0
 40
7.0
 40
7.0
 40
7.0
 10
5.496897517159355
 20
24.25511659516222
 30
0.0
 10
5.496897517159355
 20
24.25511659516222
 30
0.0
 10
5.496897517159355
 20
24.25678329997598
 30
0.0
 10
5.496897517159355
 20
24.25678329997598
 30
0.0
 10
5.517077265694511
 20
24.32871386739944
 30
0.0
 10
5.536452536961872
 20
24.40135280291237
 30
0.0
 10
5.556896771174112
 20
24.47344994544986
 30
0.0
 10
5.556896771174112
 20
24.47344994544986
 30
0.0
 10
5.564397313708834
 20
24.50094999207388
 30
0.0
 10
5.564397313708834
 20
24.50094999207388
 30
0.0
 10
5.564397313708834
 20
24.50094999207388
 30
0.0
 10
5.579396703357272
 20
24.55678327878319
 30
0.0
 10
5.579396703357272
 20
24.55678327878319
 30
0.0
 10
5.606925254247029
 20
24.65607497427195
 30
0.0
 10
5.634007909411959
 20
24.7558249632518
 30
0.0
 10
5.661063437840779
 20
24.85511660575861
 30
0.0
 10
5.661063437840779
 20
24.85511660575861
 30
0.0
 10
5.661896737265692
 20
24.85678325759041
 30
0.0
 10
5.661896737265692
 20
24.85678325759041
 30
0.0
 10
5.661896737265692
 20
24.85678325759041
 30
0.0
 10
5.661896737265692
 20
24.85844990942208
 30
0.0
 10
5.661896737265692
 20
24.85844990942208
 30
0.0
  0
SPLINE
  5
88
330
70
100
AcDbEntity
  8
Layer 1
 62
    18
420
        0
370
    20
100
AcDbSpline
210
0.0
220
0.0
230
1.0
 70
     8
 71
     3
 72
    26
 73
    22
 74
     0
 42
0.0000000001
 43
0.0000000001
 40
0.0
 40
0.0
 40
0.0
 40
0.0
 40
1.0
 40
1.0
 40
1.0
 40
2.0
 40
2.0
 40
2.0
 40
3.0
 40
3.0
 40
3.0
 40
4.0
 40
4.0
 40
4.0
 40
5.0
 40
5.0
 40
5.0
 40
6.0
 40
6.0
 40
6.0
 40
7.0
 40
7.0
 40
7.0
 40
7.0
 10
4.170230579225327
 20
24.25511659516222
 30
0.0
 10
4.170230579225327
 20
24.25511659516222
 30
0.0
 10
4.170230579225327
 20
24.25678329997598
 30
0.0
 10
4.170230579225327
 20
24.25678329997598
 30
0.0
 10
4.189841514012654
 20
24.32874162991847
 30
0.0
 10
4.210771486343383
 20
24.40120000309417
 30
0.0
 10
4.229396533815158
 20
24.47344994544986
 30
0.0
 10
4.229396533815158
 20
24.47344994544986
 30
0.0
 10
4.23689707634988
 20
24.50094999207388
 30
0.0
 10
4.23689707634988
 20
24.50094999207388
 30
0.0
 10
4.23689707634988
 20
24.50094999207388
 30
0.0
 10
4.252729765423244
 20
24.55678327878319
 30
0.0
 10
4.252729765423244
 20
24.55678327878319
 30
0.0
 10
4.279271581286959
 20
24.6564083364275
 30
0.0
 10
4.307758045045639
 20
24.75567216343347
 30
0.0
 10
4.334396499906751
 20
24.85511660575861
 30
0.0
 10
4.334396499906751
 20
24.85511660575861
 30
0.0
 10
4.335229799331664
 20
24.85678325759041
 30
0.0
 10
4.335229799331664
 20
24.85678325759041
 30
0.0
 10
4.335229799331664
 20
24.85678325759041
 30
0.0
 10
4.335229799331664
 20
24.85844990942208
 30
0.0
 10
4.335229799331664
 20
24.85844990942208
 30
0.0
  0
LINE
  5
89
330
70
100
AcDbEntity
  8
Layer 1
 62
    18
420
        0
370
    20
100
AcDbLine
 10
3.007730409683226
 20
24.85844990942208
 30
0.0
 11
2.842730341866386
 21
24.25511659516222
 31
0.0
  0
LINE
  5
8A
330
70
100
AcDbEntity
  8
Layer 1
 62
    18
420
        0
370
    20
100
AcDbLine
 10
14.78772918898014
 20
24.25511659516222
 30
0.0
 11
14.95272756137597
 21
24.85844990942208
 31
0.0
  0
SPLINE
  5
8B
330
70
100
AcDbEntity
  8
Layer 1
 62
    18
420
        0
370
    20
100
AcDbSpline
210
0.0
220
0.0
230
1.0
 70
     8
 71
     3
 72
    44
 73
    40
 74
     0
 42
0.0000000001
 43
0.0000000001
 40
0.0
 40
0.0
 40
0.0
 40
0.0
 40
1.0
 40
1.0
 40
1.0
 40
2.0
 40
2.0
 40
2.0
 40
3.0
 40
3.0
 40
3.0
 40
4.0
 40
4.0
 40
4.0
 40
5.0
 40
5.0
 40
5.0
 40
6.0
 40
6.0
 40
6.0
 40
7.0
 40
7.0
 40
7.0
 40
8.0
 40
8.0
 40
8.0
 40
9.0
 40
9.0
 40
9.0
 40
10.0
 40
10.0
 40
10.0
 40
11.0
 40
11.0
 40
11.0
 40
12.0
 40
12.0
 40
12.0
 40
13.0
 40
13.0
 40
13.0
 40
13.0
 10
16.11439612691416
 20
24.25511659516222
 30
0.0
 10
16.11439612691416
 20
24.25511659516222
 30
0.0
 10
16.11439612691416
 20
24.25595000055097
 30
0.0
 10
16.11439612691416
 20
24.25595000055097
 30
0.0
 10
16.11439612691416
 20
24.25595000055097
 30
0.0
 10
16.11522857862847
 20
24.25678329997598
 30
0.0
 10
16.11522857862847
 20
24.25678329997598
 30
0.0
 10
16.11522857862847
 20
24.25678329997598
 30
0.0
 10
16.11522857862847
 20
24.25928330421446
 30
0.0
 10
16.11522857862847
 20
24.25928330421446
 30
0.0
 10
16.1199231993968
 20
24.27356108029681
 30
0.0
 10
16.12350562398445
 20
24.28818609979416
 30
0.0
 10
16.12772891771278
 20
24.30261667569472
 30
0.0
 10
16.12772891771278
 20
24.30261667569472
 30
0.0
 10
16.1293955165625
 20
24.31094998783542
 30
0.0
 10
16.1293955165625
 20
24.31094998783542
 30
0.0
 10
16.1293955165625
 20
24.31094998783542
 30
0.0
 10
16.13189456712681
 20
24.32011659940084
 30
0.0
 10
16.13189456712681
 20
24.32011659940084
 30
0.0
 10
16.1445627528907
 20
24.36179725329084
 30
0.0
 10
16.15415883579001
 20
24.40418606334264
 30
0.0
 10
16.16689483839418
 20
24.44595000478959
 30
0.0
 10
16.16689483839418
 20
24.44595000478959
 30
0.0
 10
16.18189592346362
 20
24.50094999207388
 30
0.0
 10
16.18189592346362
 20
24.50094999207388
 30
0.0
 10
16.18189592346362
 20
24.50094999207388
 30
0.0
 10
16.19689531311208
 20
24.55678327878319
 30
0.0
 10
16.19689531311208
 20
24.55678327878319
 30
0.0
 10
16.22424245395402
 20
24.65603333049348
 30
0.0
 10
16.25206261725695
 20
24.7556999259525
 30
0.0
 10
16.27856204759556
 20
24.85511660575861
 30
0.0
 10
16.27856204759556
 20
24.85511660575861
 30
0.0
 10
16.27939449931
 20
24.85678325759041
 30
0.0
 10
16.27939449931
 20
24.85678325759041
 30
0.0
 10
16.27939449931
 20
24.85678325759041
 30
0.0
 10
16.27939449931
 20
24.85844990942208
 30
0.0
 10
16.27939449931
 20
24.85844990942208
 30
0.0
 10
16.27939449931
 20
24.85844990942208
 30
0.0
 10
16.28022864644541
 20
24.85844990942208
 30
0.0
 10
16.28022864644541
 20
24.85844990942208
 30
0.0
  0
SPLINE
  5
8C
330
70
100
AcDbEntity
  8
Layer 1
 62
    18
420
        0
370
    20
100
AcDbSpline
210
0.0
220
0.0
230
1.0
 70
     8
 71
     3
 72
    41
 73
    37
 74
     0
 42
0.0000000001
 43
0.0000000001
 40
0.0
 40
0.0
 40
0.0
 40
0.0
 40
1.0
 40
1.0
 40
1.0
 40
2.0
 40
2.0
 40
2.0
 40
3.0
 40
3.0
 40
3.0
 40
4.0
 40
4.0
 40
4.0
 40
5.0
 40
5.0
 40
5.0
 40
6.0
 40
6.0
 40
6.0
 40
7.0
 40
7.0
 40
7.0
 40
8.0
 40
8.0
 40
8.0
 40
9.0
 40
9.0
 40
9.0
 40
10.0
 40
10.0
 40
10.0
 40
11.0
 40
11.0
 40
11.0
 40
12.0
 40
12.0
 40
12.0
 40
12.0
 10
17.4418955165625
 20
24.25511659516222
 30
0.0
 10
17.4418955165625
 20
24.25511659516222
 30
0.0
 10
17.4418955165625
 20
24.25595000055097
 30
0.0
 10
17.4418955165625
 20
24.25595000055097
 30
0.0
 10
17.4418955165625
 20
24.25595000055097
 30
0.0
 10
17.44272796827694
 20
24.25678329997598
 30
0.0
 10
17.44272796827694
 20
24.25678329997598
 30
0.0
 10
17.44272796827694
 20
24.25678329997598
 30
0.0
 10
17.44272796827694
 20
24.25928330421446
 30
0.0
 10
17.44272796827694
 20
24.25928330421446
 30
0.0
 10
17.44808888950097
 20
24.27331111166209
 30
0.0
 10
17.45063032559028
 20
24.28876943058444
 30
0.0
 10
17.45522830736111
 20
24.30261667569472
 30
0.0
 10
17.45522830736111
 20
24.30261667569472
 30
0.0
 10
17.45689490621096
 20
24.31094998783542
 30
0.0
 10
17.45689490621096
 20
24.31094998783542
 30
0.0
 10
17.45689490621096
 20
24.31094998783542
 30
0.0
 10
17.45939395677528
 20
24.32011659940084
 30
0.0
 10
17.45939395677528
 20
24.32011659940084
 30
0.0
 10
17.47206214253916
 20
24.36179725329084
 30
0.0
 10
17.48165822543847
 20
24.40418606334264
 30
0.0
 10
17.49439422804264
 20
24.44595000478959
 30
0.0
 10
17.49439422804264
 20
24.44595000478959
 30
0.0
 10
17.50939531311208
 20
24.50094999207388
 30
0.0
 10
17.50939531311208
 20
24.50094999207388
 30
0.0
 10
17.50939531311208
 20
24.50094999207388
 30
0.0
 10
17.52439470276042
 20
24.55678327878319
 30
0.0
 10
17.52439470276042
 20
24.55678327878319
 30
0.0
 10
17.55185374138889
 20
24.65603333049348
 30
0.0
 10
17.57965864590278
 20
24.75565828217403
 30
0.0
 10
17.60606143724403
 20
24.85511660575861
 30
0.0
 10
17.60606143724403
 20
24.85511660575861
 30
0.0
 10
17.60689388895833
 20
24.85678325759041
 30
0.0
 10
17.60689388895833
 20
24.85678325759041
 30
0.0
 10
17.60689388895833
 20
24.85678325759041
 30
0.0
 10
17.60772803609375
 20
24.85844990942208
 30
0.0
 10
17.60772803609375
 20
24.85844990942208
 30
0.0
  0
SPLINE
  5
8D
330
70
100
AcDbEntity
  8
Layer 1
 62
    18
420
        0
370
    20
100
AcDbSpline
210
0.0
220
0.0
230
1.0
 70
     8
 71
     3
 72
    29
 73
    25
 74
     0
 42
0.0000000001
 43
0.0000000001
 40
0.0
 40
0.0
 40
0.0
 40
0.0
 40
1.0
 40
1.0
 40
1.0
 40
2.0
 40
2.0
 40
2.0
 40
3.0
 40
3.0
 40
3.0
 40
4.0
 40
4.0
 40
4.0
 40
5.0
 40
5.0
 40
5.0
 40
6.0
 40
6.0
 40
6.0
 40
7.0
 40
7.0
 40
7.0
 40
8.0
 40
8.0
 40
8.0
 40
8.0
 10
1.514395109661525
 20
24.25511659516222
 30
0.0
 10
1.514395109661525
 20
24.25511659516222
 30
0.0
 10
1.515228409086438
 20
24.25595000055097
 30
0.0
 10
1.515228409086438
 20
24.25595000055097
 30
0.0
 10
1.515228409086438
 20
24.25595000055097
 30
0.0
 10
1.515228409086438
 20
24.25678329997598
 30
0.0
 10
1.515228409086438
 20
24.25678329997598
 30
0.0
 10
1.53474228102113
 20
24.32897771729361
 30
0.0
 10
1.555117002972072
 20
24.4011027283139
 30
0.0
 10
1.574394787531547
 20
24.47344994544986
 30
0.0
 10
1.574394787531547
 20
24.47344994544986
 30
0.0
 10
1.581894906211005
 20
24.50094999207388
 30
0.0
 10
1.581894906211005
 20
24.50094999207388
 30
0.0
 10
1.581894906211005
 20
24.50094999207388
 30
0.0
 10
1.597728442994859
 20
24.55678327878319
 30
0.0
 10
1.597728442994859
 20
24.55678327878319
 30
0.0
 10
1.624478371787176
 20
24.65626941786875
 30
0.0
 10
1.65190858825853
 20
24.75589436954917
 30
0.0
 10
1.679394753623114
 20
24.85511660575861
 30
0.0
 10
1.679394753623114
 20
24.85511660575861
 30
0.0
 10
1.679394753623114
 20
24.85678325759041
 30
0.0
 10
1.679394753623114
 20
24.85678325759041
 30
0.0
 10
1.679394753623114
 20
24.85678325759041
 30
0.0
 10
1.680228053048027
 20
24.85844990942208
 30
0.0
 10
1.680228053048027
 20
24.85844990942208
 30
0.0
  0
LINE
  5
8E
330
70
100
AcDbEntity
  8
Layer 1
 62
    18
420
        0
370
    20
100
AcDbLine
 10
0.1877285955827498
 20
24.25511659516222
 30
0.0
 11
0.3535615389692515
 21
24.85844990942208
 31
0.0
  0
LWPOLYLINE
  5
8F
330
70
100
AcDbEntity
  8
Layer 1
 62
    18
420
        0
370
    20
100
AcDbPolyline
 90
        4
 70
     0
 43
0.0
 10
8.913561640694524
 20
23.86178316010374
 10
8.81522807000225
 20
24.25511648919847
 10
8.716894499309976
 20
23.86178316010374
 10
8.913561640694524
 20
23.86178316010374
  0
LINE
  5
90
330
70
100
AcDbEntity
  8
Layer 1
 62
    18
420
        0
370
    20
100
AcDbLine
 10
8.81522807000225
 20
23.86178316010374
 30
0.0
 11
8.81522807000225
 21
23.46761663754779
 31
0.0
  0
LWPOLYLINE
  5
91
330
70
100
AcDbEntity
  8
Layer 1
 62
    18
420
        0
370
    20
100
AcDbPolyline
 90
        4
 70
     0
 43
0.0
 10
8.716894499309976
 20
20.12178317705791
 10
8.815227222291746
 20
19.72761686642958
 10
8.91356079298402
 20
20.12178317705791
 10
8.716894499309976
 20
20.12178317705791
  0
LINE
  5
92
330
70
100
AcDbEntity
  8
Layer 1
 62
    18
420
        0
370
    20
100
AcDbLine
 10
8.81522807000225
 20
23.86178316010374
 30
0.0
 11
8.81522807000225
 21
20.12178317705791
 31
0.0
  0
LINE
  5
93
330
70
100
AcDbEntity
  8
Layer 1
 62
    18
420
        0
370
    20
100
AcDbLine
 10
-0.2397692681867814
 20
24.25511659516222
 30
0.0
 11
17.87023007059904
 21
24.25511659516222
 31
0.0
  0
SPLINE
  5
94
330
70
100
AcDbEntity
  8
Layer 1
 62
    18
420
        0
370
    20
100
AcDbSpline
210
0.0
220
0.0
230
1.0
 70
    11
 71
     3
 72
    53
 73
    49
 74
     0
 42
0.0000000001
 43
0.0000000001
 40
0.0
 40
0.0
 40
0.0
 40
0.0
 40
1.0
 40
1.0
 40
1.0
 40
2.0
 40
2.0
 40
2.0
 40
3.0
 40
3.0
 40
3.0
 40
4.0
 40
4.0
 40
4.0
 40
5.0
 40
5.0
 40
5.0
 40
6.0
 40
6.0
 40
6.0
 40
7.0
 40
7.0
 40
7.0
 40
8.0
 40
8.0
 40
8.0
 40
9.0
 40
9.0
 40
9.0
 40
10.0
 40
10.0
 40
10.0
 40
11.0
 40
11.0
 40
11.0
 40
12.0
 40
12.0
 40
12.0
 40
13.0
 40
13.0
 40
13.0
 40
14.0
 40
14.0
 40
14.0
 40
15.0
 40
15.0
 40
15.0
 40
16.0
 40
16.0
 40
16.0
 40
16.0
 10
15.31106496371972
 20
13.23178336355421
 30
0.0
 10
15.31106496371972
 20
13.23178336355421
 30
0.0
 10
15.31106496371972
 20
13.30345050493876
 30
0.0
 10
15.31106496371972
 20
13.30345050493876
 30
0.0
 10
15.31106496371972
 20
13.30345050493876
 30
0.0
 10
15.3102308165843
 20
13.37595009803772
 30
0.0
 10
15.3102308165843
 20
13.37595009803772
 30
0.0
 10
15.3102308165843
 20
13.37595009803772
 30
0.0
 10
15.30773007059903
 20
13.44845053884718
 30
0.0
 10
15.30773007059903
 20
13.44845053884718
 30
0.0
 10
15.1869398009593
 20
16.92642278141444
 30
0.0
 10
12.36709184631516
 20
19.68333882755708
 30
0.0
 10
8.887731053943221
 20
19.72761686642958
 30
0.0
 10
8.887731053943221
 20
19.72761686642958
 30
0.0
 10
8.743565167170219
 20
19.72761686642958
 30
0.0
 10
8.743565167170219
 20
19.72761686642958
 30
0.0
 10
5.234356487970987
 20
19.68197782834375
 30
0.0
 10
2.40488447598097
 20
16.88465862803986
 30
0.0
 10
2.321064556818643
 20
13.37595009803772
 30
0.0
 10
2.321064556818643
 20
13.37595009803772
 30
0.0
 10
2.319397957968817
 20
13.30345050493876
 30
0.0
 10
2.319397957968817
 20
13.30345050493876
 30
0.0
 10
2.319397957968817
 20
13.30345050493876
 30
0.0
 10
2.319397957968817
 20
13.16011706988017
 30
0.0
 10
2.319397957968817
 20
13.16011706988017
 30
0.0
 10
2.319397957968817
 20
13.16011706988017
 30
0.0
 10
2.321064556818643
 20
13.08761747678121
 30
0.0
 10
2.321064556818643
 20
13.08761747678121
 30
0.0
 10
2.403495926176282
 20
9.608131223254732
 30
0.0
 10
5.191523371651542
 20
6.819867266549003
 30
0.0
 10
8.671064726360757
 20
6.737617307239108
 30
0.0
 10
8.671064726360757
 20
6.737617307239108
 30
0.0
 10
8.743565167170219
 20
6.735950708389282
 30
0.0
 10
8.743565167170219
 20
6.735950708389282
 30
0.0
 10
8.743565167170219
 20
6.735950708389282
 30
0.0
 10
8.815231460844263
 20
6.735950708389282
 30
0.0
 10
8.815231460844263
 20
6.735950708389282
 30
0.0
 10
12.3220224696875
 20
6.739867130915323
 30
0.0
 10
15.18650916402346
 20
9.510061290529039
 30
0.0
 10
15.30773007059903
 20
13.01511703597175
 30
0.0
 10
15.30773007059903
 20
13.01511703597175
 30
0.0
 10
15.3102308165843
 20
13.08761747678121
 30
0.0
 10
15.3102308165843
 20
13.08761747678121
 30
0.0
 10
15.3102308165843
 20
13.08761747678121
 30
0.0
 10
15.31106496371972
 20
13.16011706988017
 30
0.0
 10
15.31106496371972
 20
13.16011706988017
 30
0.0
 10
15.31106496371972
 20
13.16011706988017
 30
0.0
 10
15.31106496371972
 20
13.23178336355421
 30
0.0
 10
15.31106496371972
 20
13.23178336355421
 30
0.0
  0
LINE
  5
95
330
70
100
AcDbEntity
  8
Layer 1
 62
    18
420
        0
370
    20
100
AcDbLine
 10
8.815231460844263
 20
13.23178336355421
 30
0.0
 11
15.31106496371972
 21
13.23178336355421
 31
0.0
  0
LWPOLYLINE
  5
96
330
70
100
AcDbEntity
  8
Layer 1
 62
    18
420
        0
370
    20
100
AcDbPolyline
 90
        4
 70
     0
 43
0.0
 10
14.91773068095055
 20
13.33011693424648
 10
15.31106326829861
 20
13.23178421126471
 10
14.91773068095055
 20
13.13345064057244
 10
14.91773068095055
 20
13.33011693424648
  0
SPLINE
  5
97
330
70
100
AcDbEntity
  8
Layer 1
 62
    18
420
        0
370
    20
100
AcDbSpline
210
0.0
220
0.0
230
1.0
 70
     8
 71
     3
 72
    26
 73
    22
 74
     0
 42
0.0000000001
 43
0.0000000001
 40
0.0
 40
0.0
 40
0.0
 40
0.0
 40
1.0
 40
1.0
 40
1.0
 40
2.0
 40
2.0
 40
2.0
 40
3.0
 40
3.0
 40
3.0
 40
4.0
 40
4.0
 40
4.0
 40
5.0
 40
5.0
 40
5.0
 40
6.0
 40
6.0
 40
6.0
 40
7.0
 40
7.0
 40
7.0
 40
7.0
 10
13.46106394646709
 20
24.25511659516222
 30
0.0
 10
13.46106394646709
 20
24.25511659516222
 30
0.0
 10
13.46106394646709
 20
24.25678329997598
 30
0.0
 10
13.46106394646709
 20
24.25678329997598
 30
0.0
 10
13.48067488125444
 20
24.32874162991847
 30
0.0
 10
13.50160485358515
 20
24.40120000309417
 30
0.0
 10
13.52022905334641
 20
24.47344994544986
 30
0.0
 10
13.52022905334641
 20
24.47344994544986
 30
0.0
 10
13.52772959588113
 20
24.50094999207388
 30
0.0
 10
13.52772959588113
 20
24.50094999207388
 30
0.0
 10
13.52772959588113
 20
24.50094999207388
 30
0.0
 10
13.54356313266501
 20
24.55678327878319
 30
0.0
 10
13.54356313266501
 20
24.55678327878319
 30
0.0
 10
13.57010494852875
 20
24.6564083364275
 30
0.0
 10
13.59859141228738
 20
24.75567216343347
 30
0.0
 10
13.62522986714849
 20
24.85511660575861
 30
0.0
 10
13.62522986714849
 20
24.85511660575861
 30
0.0
 10
13.62606231886293
 20
24.85678325759041
 30
0.0
 10
13.62606231886293
 20
24.85678325759041
 30
0.0
 10
13.62606231886293
 20
24.85678325759041
 30
0.0
 10
13.62606231886293
 20
24.85844990942208
 30
0.0
 10
13.62606231886293
 20
24.85844990942208
 30
0.0
  0
MTEXT
  5
98
330
70
100
AcDbEntity
  8
Layer 1
100
AcDbMText
 10
10.01773071289062
 20
20.95428890652127
 30
0.0
 40
0.2
 41
0.0
 46
0.0
 71
     7
 72
     1
  1
\C18;\c0;\FArial|b0|i0|c1;\H0.769456;\W1.000000;4 1/2"
 73
     1
 44
1.0
  0
MTEXT
  5
99
330
70
100
AcDbEntity
  8
Layer 1
100
AcDbMText
 10
12.81276702880859
 20
20.95841047498915
 30
0.0
 40
0.2
 41
0.0
 46
0.0
 71
     7
 72
     1
  1
\C18;\c0;\FArial|b0|i0|c1;\H0.769456;\W1.000000;min
 73
     1
 44
1.0
  0
MTEXT
  5
9A
330
70
100
AcDbEntity
  8
Layer 1
100
AcDbMText
 10
9.390315585666231
 20
22.04087066650391
 30
0.0
 40
0.2
 41
0.0
 46
0.0
 71
     7
 72
     1
  1
\C18;\c0;\FArial|b0|i0|c1;\H0.769456;\W1.000000;115mm min
 73
     1
 44
1.0
  0
MTEXT
  5
9B
330
70
100
AcDbEntity
  8
Layer 1
100
AcDbMText
 10
10.32529979281955
 20
12.25834210713704
 30
0.0
 40
0.2
 41
0.0
 46
0.0
 71
     7
 72
     1
  1
\C18;\c0;\FArial|b0|i0|c1;\H0.769456;\W1.000000; 6-1/2"
 73
     1
 44
1.0
  0
MTEXT
  5
9C
330
70
100
AcDbEntity
  8
Layer 1
100
AcDbMText
 10
9.684511820475259
 20
13.43164642651875
 30
0.0
 40
0.2
 41
0.0
 46
0.0
 71
     7
 72
     1
  1
\C18;\c0;\FArial|b0|i0|c1;\H0.769456;\W1.000000;R 165mm
 73
     1
 44
1.0
  0
INSERT
  5
9F
330
70
100
AcDbEntity
  8
Layer 2
100
AcDbBlockReference
  2
Block_0
 10
0.0
 20
0.0
 30
0.0
  0
MTEXT
  5
D4
330
70
100
AcDbEntity
  8
Layer 2
100
AcDbMText
 10
18.21766916910807
 20
0.8848590850830078
 30
0.0
 40
0.2
 41
0.0
 46
0.0
 71
     7
 72
     1
  1
\C250;\c1382435;\FHelvetica Neue LT Pro 77 Bold Condensed|b1|i0|c1;\H0.145675;\W1.000000;NOTE\FHelvetica Neue LT Pro 65 Medium|b0|i0|c1;: Due to the slight variations in the manufacture process it is
 73
     1
 44
1.0
  0
MTEXT
  5
D5
330
70
100
AcDbEntity
  8
Layer 2
100
AcDbMText
 10
18.21766916910807
 20
0.6379515329996745
 30
0.0
 40
0.2
 41
0.0
 46
0.0
 71
     7
 72
     1
  1
\C250;\c1382435;\FHelvetica Neue LT Pro 65 Medium|b0|i0|c1;\H0.145675;\W1.000000;recommended the installer use the template for cutting out the countertop.
 73
     1
 44
1.0
  0
MTEXT
  5
D6
330
70
100
AcDbEntity
  8
Layer 2
100
AcDbMText
 10
1.398107740614149
 20
0.8259669409857854
 30
0.0
 40
0.2
 41
0.0
 46
0.0
 71
     7
 72
     1
  1
\C18;\c0;\FEffra Italic|b0|i1|c1;\H0.338650;\W1.000000;SHV100WH
 73
     1
 44
1.0
  0
ENDSEC
  0
SECTION
  2
OBJECTS
  0
DICTIONARY
  5
C
330
0
100
AcDbDictionary
281
     1
  3
ACAD_COLOR
350
63
  3
ACAD_DETAILVIEWSTYLE
350
6A
  3
ACAD_GROUP
350
D
  3
ACAD_LAYOUT
350
62
  3
ACAD_MATERIAL
350
10
  3
ACAD_MLEADERSTYLE
350
66
  3
ACAD_MLINESTYLE
350
5F
  3
ACAD_PLOTSETTINGS
350
61
  3
ACAD_PLOTSTYLENAME
350
E
  3
ACAD_SCALELIST
350
42
  3
ACAD_SECTIONVIEWSTYLE
350
68
  3
ACAD_TABLESTYLE
350
64
  3
ACAD_VISUALSTYLE
350
29
  3
ACDB_RECOMPOSE_DATA
350
DF
  3
AcDbVariableDictionary
350
D7
  0
DICTIONARY
  5
63
102
{ACAD_REACTORS
330
C
102
}
330
C
100
AcDbDictionary
281
     1
  0
DICTIONARY
  5
6A
102
{ACAD_REACTORS
330
C
102
}
330
C
100
AcDbDictionary
281
     1
  3
Imperial24
350
6B
  0
DICTIONARY
  5
D
102
{ACAD_REACTORS
330
C
102
}
330
C
100
AcDbDictionary
281
     1
  0
DICTIONARY
  5
62
102
{ACAD_REACTORS
330
C
102
}
330
C
100
AcDbDictionary
281
     1
  3
Layout1
350
6F
  3
Layout2
350
77
  3
Model
350
73
  0
DICTIONARY
  5
10
102
{ACAD_REACTORS
330
C
102
}
330
C
100
AcDbDictionary
281
     1
  3
ByBlock
350
19
  3
ByLayer
350
11
  3
Global
350
21
  0
DICTIONARY
  5
66
102
{ACAD_REACTORS
330
C
102
}
330
C
100
AcDbDictionary
281
     1
  3
Standard
350
67
  0
DICTIONARY
  5
5F
102
{ACAD_REACTORS
330
C
102
}
330
C
100
AcDbDictionary
281
     1
  3
Standard
350
60
  0
DICTIONARY
  5
61
102
{ACAD_REACTORS
330
C
102
}
330
C
100
AcDbDictionary
281
     1
  0
ACDBDICTIONARYWDFLT
  5
E
102
{ACAD_REACTORS
330
C
102
}
330
C
100
AcDbDictionary
281
     1
  3
Normal
350
F
100
AcDbDictionaryWithDefault
340
F
  0
DICTIONARY
  5
42
102
{ACAD_REACTORS
330
C
102
}
330
C
100
AcDbDictionary
281
     1
  3
A0
350
43
  3
A1
350
44
  3
A2
350
45
  3
A3
350
46
  3
A4
350
47
  3
A5
350
48
  3
A6
350
49
  3
A7
350
4A
  3
A8
350
4B
  3
A9
350
4C
  3
B0
350
4D
  3
B1
350
4E
  3
B2
350
4F
  3
B3
350
50
  3
B4
350
51
  3
B5
350
52
  3
B6
350
53
  0
DICTIONARY
  5
68
102
{ACAD_REACTORS
330
C
102
}
330
C
100
AcDbDictionary
281
     1
  3
Imperial24
350
69
  0
DICTIONARY
  5
64
102
{ACAD_REACTORS
330
C
102
}
330
C
100
AcDbDictionary
281
     1
  3
Standard
350
65
  0
DICTIONARY
  5
29
102
{ACAD_REACTORS
330
C
102
}
330
C
100
AcDbDictionary
281
     1
  3
2dWireframe
350
2F
  3
Basic
350
2E
  3
Brighten
350
35
  3
ColorChange
350
39
  3
Conceptual
350
32
  3
Dim
350
34
  3
EdgeColorOff
350
41
  3
Facepattern
350
38
  3
Flat
350
2A
  3
FlatWithEdges
350
2B
  3
Gouraud
350
2C
  3
GouraudWithEdges
350
2D
  3
Hidden
350
31
  3
JitterOff
350
3F
  3
Linepattern
350
37
  3
OverhangOff
350
40
  3
Realistic
350
33
  3
Shaded
350
3E
  3
Shaded with edges
350
3D
  3
Shades of Gray
350
3A
  3
Sketchy
350
3B
  3
Thicken
350
36
  3
Wireframe
350
30
  3
X-Ray
350
3C
  0
XRECORD
  5
DF
102
{ACAD_REACTORS
330
C
102
}
330
C
100
AcDbXrecord
280
     1
 90
        1
330
65
  0
DICTIONARY
  5
D7
102
{ACAD_REACTORS
330
C
102
}
330
C
100
AcDbDictionary
281
     1
  3
CANNOSCALE
350
DC
  3
CMLEADERSTYLE
350
D9
  3
CTABLESTYLE
350
D8
  3
CVIEWDETAILSTYLE
350
DA
  3
CVIEWSECTIONSTYLE
350
DB
  0
ACDBDETAILVIEWSTYLE
  5
6B
102
{ACAD_REACTORS
330
6A
102
}
330
6A
100
AcDbModelDocViewStyle
 70
     0
  3
Imperial24
290
     1
300
Imperial24
 90
        0
100
AcDbDetailViewStyle
 70
     0
 71
     0
 90
        3
 71
     1
340
55
 62
   256
 40
0.24
340
0
 62
   256
 40
0.24
300

 40
0.36
280
     3
 71
     2
340
5D
 90
       25
 62
   256
 71
     3
340
55
 62
   256
 40
0.24
 90
        1
 40
0.75
 90
        1
300
%<\AcVar ViewType \f "%tc1">% %<\AcVar ViewDetailId>%\PSCALE %<\AcVar ViewScale \f "%sn">%
 71
     4
340
5D
 90
       25
 62
   256
340
5D
 90
       25
 62
   256
280
     0
  0
LAYOUT
  5
6F
102
{ACAD_REACTORS
330
62
102
}
330
62
100
AcDbPlotSettings
  1

  2

  4

  6

 40
0.0
 41
0.0
 42
0.0
 43
0.0
 44
0.0
 45
0.0
 46
0.0
 47
0.0
 48
0.0
 49
0.0
140
0.0
141
0.0
142
1.0
143
1.0
 70
   688
 72
     0
 73
     0
 74
     5
  7

 75
    16
147
1.0
 76
     0
 77
     2
 78
   300
148
0.0
149
0.0
100
AcDbLayout
  1
Layout1
 70
     1
 71
     1
 10
0.0
 20
0.0
 11
12.0
 21
9.0
 12
0.0
 22
0.0
 32
0.0
 14
0.0
 24
0.0
 34
0.0
 15
0.0
 25
0.0
 35
0.0
146
0.0
 13
0.0
 23
0.0
 33
0.0
 16
1.0
 26
0.0
 36
0.0
 17
0.0
 27
1.0
 37
0.0
 76
     0
330
6C
  0
LAYOUT
  5
77
102
{ACAD_REACTORS
330
62
102
}
330
62
100
AcDbPlotSettings
  1

  2

  4

  6

 40
0.0
 41
0.0
 42
0.0
 43
0.0
 44
0.0
 45
0.0
 46
0.0
 47
0.0
 48
0.0
 49
0.0
140
0.0
141
0.0
142
1.0
143
1.0
 70
   688
 72
     0
 73
     0
 74
     5
  7

 75
    16
147
1.0
 76
     0
 77
     2
 78
   300
148
0.0
149
0.0
100
AcDbLayout
  1
Layout2
 70
     1
 71
     2
 10
0.0
 20
0.0
 11
12.0
 21
9.0
 12
0.0
 22
0.0
 32
0.0
 14
0.0
 24
0.0
 34
0.0
 15
0.0
 25
0.0
 35
0.0
146
0.0
 13
0.0
 23
0.0
 33
0.0
 16
1.0
 26
0.0
 36
0.0
 17
0.0
 27
1.0
 37
0.0
 76
     0
330
74
  0
LAYOUT
  5
73
102
{ACAD_REACTORS
330
62
102
}
330
62
100
AcDbPlotSettings
  1

  2

  4

  6

 40
0.0
 41
0.0
 42
0.0
 43
0.0
 44
0.0
 45
0.0
 46
0.0
 47
0.0
 48
0.0
 49
0.0
140
0.0
141
0.0
142
1.0
143
1.0
 70
  1712
 72
     0
 73
     0
 74
     0
  7

 75
     0
147
1.0
 76
     0
 77
     2
 78
   300
148
0.0
149
0.0
100
AcDbLayout
  1
Model
 70
     1
 71
     0
 10
0.0
 20
0.0
 11
12.0
 21
9.0
 12
0.0
 22
0.0
 32
0.0
 14
0.0
 24
0.0
 34
0.0
 15
0.0
 25
0.0
 35
0.0
146
0.0
 13
0.0
 23
0.0
 33
0.0
 16
1.0
 26
0.0
 36
0.0
 17
0.0
 27
1.0
 37
0.0
 76
     0
330
70
  0
MATERIAL
  5
19
102
{ACAD_XDICTIONARY
360
1A
102
}
102
{ACAD_REACTORS
330
10
102
}
330
10
100
AcDbMaterial
  1
ByBlock
 72
     0
 43
0.0208333333333333
 43
0.0
 43
0.0
 43
0.0
 43
0.0
 43
0.0208333333333333
 43
0.0
 43
0.0
 43
0.0
 43
0.0
 43
1.0
 43
0.0
 43
0.0
 43
0.0
 43
0.0
 43
1.0
 77
     0
 47
0.0208333333333333
 47
0.0
 47
0.0
 47
0.0
 47
0.0
 47
0.0208333333333333
 47
0.0
 47
0.0
 47
0.0
 47
0.0
 47
1.0
 47
0.0
 47
0.0
 47
0.0
 47
0.0
 47
1.0
171
     0
 49
0.0208333333333333
 49
0.0
 49
0.0
 49
0.0
 49
0.0
 49
0.0208333333333333
 49
0.0
 49
0.0
 49
0.0
 49
0.0
 49
1.0
 49
0.0
 49
0.0
 49
0.0
 49
0.0
 49
1.0
175
     0
142
0.0208333333333333
142
0.0
142
0.0
142
0.0
142
0.0
142
0.0208333333333333
142
0.0
142
0.0
142
0.0
142
0.0
142
1.0
142
0.0
142
0.0
142
0.0
142
0.0
142
1.0
179
     0
144
0.0208333333333333
144
0.0
144
0.0
144
0.0
144
0.0
144
0.0208333333333333
144
0.0
144
0.0
144
0.0
144
0.0
144
1.0
144
0.0
144
0.0
144
0.0
144
0.0
144
1.0
147
0.0208333333333333
147
0.0
147
0.0
147
0.0
147
0.0
147
0.0208333333333333
147
0.0
147
0.0
147
0.0
147
0.0
147
1.0
147
0.0
147
0.0
147
0.0
147
0.0
147
1.0
  0
MATERIAL
  5
11
102
{ACAD_XDICTIONARY
360
12
102
}
102
{ACAD_REACTORS
330
10
102
}
330
10
100
AcDbMaterial
  1
ByLayer
 72
     0
 43
0.0208333333333333
 43
0.0
 43
0.0
 43
0.0
 43
0.0
 43
0.0208333333333333
 43
0.0
 43
0.0
 43
0.0
 43
0.0
 43
1.0
 43
0.0
 43
0.0
 43
0.0
 43
0.0
 43
1.0
 77
     0
 47
0.0208333333333333
 47
0.0
 47
0.0
 47
0.0
 47
0.0
 47
0.0208333333333333
 47
0.0
 47
0.0
 47
0.0
 47
0.0
 47
1.0
 47
0.0
 47
0.0
 47
0.0
 47
0.0
 47
1.0
171
     0
 49
0.0208333333333333
 49
0.0
 49
0.0
 49
0.0
 49
0.0
 49
0.0208333333333333
 49
0.0
 49
0.0
 49
0.0
 49
0.0
 49
1.0
 49
0.0
 49
0.0
 49
0.0
 49
0.0
 49
1.0
175
     0
142
0.0208333333333333
142
0.0
142
0.0
142
0.0
142
0.0
142
0.0208333333333333
142
0.0
142
0.0
142
0.0
142
0.0
142
1.0
142
0.0
142
0.0
142
0.0
142
0.0
142
1.0
179
     0
144
0.0208333333333333
144
0.0
144
0.0
144
0.0
144
0.0
144
0.0208333333333333
144
0.0
144
0.0
144
0.0
144
0.0
144
1.0
144
0.0
144
0.0
144
0.0
144
0.0
144
1.0
147
0.0208333333333333
147
0.0
147
0.0
147
0.0
147
0.0
147
0.0208333333333333
147
0.0
147
0.0
147
0.0
147
0.0
147
1.0
147
0.0
147
0.0
147
0.0
147
0.0
147
1.0
  0
MATERIAL
  5
21
102
{ACAD_XDICTIONARY
360
22
102
}
102
{ACAD_REACTORS
330
10
102
}
330
10
100
AcDbMaterial
  1
Global
 72
     0
 43
0.0208333333333333
 43
0.0
 43
0.0
 43
0.0
 43
0.0
 43
0.0208333333333333
 43
0.0
 43
0.0
 43
0.0
 43
0.0
 43
1.0
 43
0.0
 43
0.0
 43
0.0
 43
0.0
 43
1.0
 77
     0
 47
0.0208333333333333
 47
0.0
 47
0.0
 47
0.0
 47
0.0
 47
0.0208333333333333
 47
0.0
 47
0.0
 47
0.0
 47
0.0
 47
1.0
 47
0.0
 47
0.0
 47
0.0
 47
0.0
 47
1.0
171
     0
 49
0.0208333333333333
 49
0.0
 49
0.0
 49
0.0
 49
0.0
 49
0.0208333333333333
 49
0.0
 49
0.0
 49
0.0
 49
0.0
 49
1.0
 49
0.0
 49
0.0
 49
0.0
 49
0.0
 49
1.0
175
     0
142
0.0208333333333333
142
0.0
142
0.0
142
0.0
142
0.0
142
0.0208333333333333
142
0.0
142
0.0
142
0.0
142
0.0
142
1.0
142
0.0
142
0.0
142
0.0
142
0.0
142
1.0
179
     0
144
0.0208333333333333
144
0.0
144
0.0
144
0.0
144
0.0
144
0.0208333333333333
144
0.0
144
0.0
144
0.0
144
0.0
144
1.0
144
0.0
144
0.0
144
0.0
144
0.0
144
1.0
147
0.0208333333333333
147
0.0
147
0.0
147
0.0
147
0.0
147
0.0208333333333333
147
0.0
147
0.0
147
0.0
147
0.0
147
1.0
147
0.0
147
0.0
147
0.0
147
0.0
147
1.0
  0
MLEADERSTYLE
  5
67
102
{ACAD_REACTORS
330
66
102
}
330
66
100
AcDbMLeaderStyle
179
     2
170
     2
171
     1
172
     0
 90
        2
 40
0.0
 41
0.0
173
     1
 91
-1056964608
340
5B
 92
       -2
290
     1
 42
0.09
291
     1
 43
0.36
  3
Standard
 44
0.18
300

342
55
174
     1
178
     6
175
     1
176
     0
 93
-1056964608
 45
0.18
292
     0
297
     0
 46
0.18
 94
-1056964608
 47
1.0
 49
1.0
140
1.0
293
     1
141
0.0
294
     1
177
     0
142
1.0
295
     1
296
     0
143
0.125
271
     0
272
     9
273
     9
298
     1
  0
MLINESTYLE
  5
60
102
{ACAD_REACTORS
330
5F
102
}
330
5F
100
AcDbMlineStyle
  2
STANDARD
 70
     0
  3

 62
   256
 51
90.0
 52
90.0
 71
     2
 49
0.5
 62
   256
  6
BYLAYER
 49
-0.5
 62
   256
  6
BYLAYER
  0
ACDBPLACEHOLDER
  5
F
102
{ACAD_REACTORS
330
E
102
}
330
E
  0
SCALE
  5
43
102
{ACAD_REACTORS
330
42
102
}
330
42
100
AcDbScale
 70
     0
300
1:1
140
1.0
141
1.0
290
     1
  0
SCALE
  5
44
102
{ACAD_REACTORS
330
42
102
}
330
42
100
AcDbScale
 70
     0
300
1/128" = 1'-0"
140
0.0078125
141
12.0
290
     0
  0
SCALE
  5
45
102
{ACAD_REACTORS
330
42
102
}
330
42
100
AcDbScale
 70
     0
300
1/64" = 1'-0"
140
0.015625
141
12.0
290
     0
  0
SCALE
  5
46
102
{ACAD_REACTORS
330
42
102
}
330
42
100
AcDbScale
 70
     0
300
1/32" = 1'-0"
140
0.03125
141
12.0
290
     0
  0
SCALE
  5
47
102
{ACAD_REACTORS
330
42
102
}
330
42
100
AcDbScale
 70
     0
300
1/16" = 1'-0"
140
0.0625
141
12.0
290
     0
  0
SCALE
  5
48
102
{ACAD_REACTORS
330
42
102
}
330
42
100
AcDbScale
 70
     0
300
3/32" = 1'-0"
140
0.09375
141
12.0
290
     0
  0
SCALE
  5
49
102
{ACAD_REACTORS
330
42
102
}
330
42
100
AcDbScale
 70
     0
300
1/8" = 1'-0"
140
0.125
141
12.0
290
     0
  0
SCALE
  5
4A
102
{ACAD_REACTORS
330
42
102
}
330
42
100
AcDbScale
 70
     0
300
3/16" = 1'-0"
140
0.1875
141
12.0
290
     0
  0
SCALE
  5
4B
102
{ACAD_REACTORS
330
42
102
}
330
42
100
AcDbScale
 70
     0
300
1/4" = 1'-0"
140
0.25
141
12.0
290
     0
  0
SCALE
  5
4C
102
{ACAD_REACTORS
330
42
102
}
330
42
100
AcDbScale
 70
     0
300
3/8" = 1'-0"
140
0.375
141
12.0
290
     0
  0
SCALE
  5
4D
102
{ACAD_REACTORS
330
42
102
}
330
42
100
AcDbScale
 70
     0
300
1/2" = 1'-0"
140
0.5
141
12.0
290
     0
  0
SCALE
  5
4E
102
{ACAD_REACTORS
330
42
102
}
330
42
100
AcDbScale
 70
     0
300
3/4" = 1'-0"
140
0.75
141
12.0
290
     0
  0
SCALE
  5
4F
102
{ACAD_REACTORS
330
42
102
}
330
42
100
AcDbScale
 70
     0
300
1" = 1'-0"
140
1.0
141
12.0
290
     0
  0
SCALE
  5
50
102
{ACAD_REACTORS
330
42
102
}
330
42
100
AcDbScale
 70
     0
300
1-1/2" = 1'-0"
140
1.5
141
12.0
290
     0
  0
SCALE
  5
51
102
{ACAD_REACTORS
330
42
102
}
330
42
100
AcDbScale
 70
     0
300
3" = 1'-0"
140
3.0
141
12.0
290
     0
  0
SCALE
  5
52
102
{ACAD_REACTORS
330
42
102
}
330
42
100
AcDbScale
 70
     0
300
6" = 1'-0"
140
6.0
141
12.0
290
     0
  0
SCALE
  5
53
102
{ACAD_REACTORS
330
42
102
}
330
42
100
AcDbScale
 70
     0
300
1'-0" = 1'-0"
140
12.0
141
12.0
290
     0
  0
ACDBSECTIONVIEWSTYLE
  5
69
102
{ACAD_REACTORS
330
68
102
}
330
68
100
AcDbModelDocViewStyle
 70
     0
  3
Imperial24
290
     1
300
Imperial24
 90
        0
100
AcDbSectionViewStyle
 70
     0
 71
     0
 90
       78
 71
     1
340
55
 62
   256
 40
0.24
340
0
340
0
 62
   256
 40
0.24
300
I, O, Q, S, X, Z
 40
0.48
 90
        3
 40
0.18
 90
        1
 71
     2
340
5D
 90
       25
 62
   256
340
5D
 90
       50
 62
   256
 40
0.24
 40
0.0
 40
0.24
 71
     3
340
55
 62
   256
 40
0.24
 90
        1
 40
0.75
 90
        1
300
%<\AcVar ViewType \f "%tc1">% %<\AcVar ViewSectionStartId>%-%<\AcVar ViewSectionEndId>%\PSCALE %<\AcVar ViewScale \f "%sn">%
 71
     4
 62
   256
 62
   257
300
ANSI31
 40
1.0
 90
        0
290
     0
290
     0
 90
        6
 40
0.0
 40
1.570796326794896
 40
0.2617993877991494
 40
1.308996938995747
 40
-0.2617993877991494
 40
1.832595714594046
  0
TABLESTYLE
  5
65
102
{ACAD_XDICTIONARY
360
DD
102
}
102
{ACAD_REACTORS
330
64
102
}
330
64
100
AcDbTableStyle
280
     0
  3
Standard
 70
     0
 71
     0
 40
0.06
 41
0.06
280
     0
281
     0
  7
Standard
140
0.18
170
     2
 62
     0
 63
     7
283
     0
 90
      512
 91
        0
  1

274
    -2
284
     1
 64
     0
275
    -2
285
     1
 65
     0
276
    -2
286
     1
 66
     0
277
    -2
287
     1
 67
     0
278
    -2
288
     1
 68
     0
279
    -2
289
     1
 69
     0
  7
Standard
140
0.25
170
     5
 62
     0
 63
     7
283
     0
 90
      512
 91
        0
  1

274
    -2
284
     1
 64
     0
275
    -2
285
     1
 65
     0
276
    -2
286
     1
 66
     0
277
    -2
287
     1
 67
     0
278
    -2
288
     1
 68
     0
279
    -2
289
     1
 69
     0
  7
Standard
140
0.18
170
     5
 62
     0
 63
     7
283
     0
 90
      512
 91
        0
  1

274
    -2
284
     1
 64
     0
275
    -2
285
     1
 65
     0
276
    -2
286
     1
 66
     0
277
    -2
287
     1
 67
     0
278
    -2
288
     1
 68
     0
279
    -2
289
     1
 69
     0
  0
VISUALSTYLE
  5
2F
102
{ACAD_REACTORS
330
29
102
}
330
29
100
AcDbVisualStyle
  2
2dWireframe
 70
     4
177
     3
291
     0
 70
    58
 90
        0
176
     1
 90
        2
176
     1
 90
        0
176
     1
 90
        0
176
     1
 40
0.6
176
     1
 40
30.0
176
     1
 62
     7
420
 16777215
176
     1
 90
        1
176
     1
 90
        4
176
     1
 62
     7
176
     1
 62
   257
176
     1
 90
        1
176
     1
 90
        1
176
     1
 40
1.0
176
     1
 90
        0
176
     1
 62
   257
176
     1
 40
1.0
176
     1
 90
        1
176
     1
 90
        6
176
     1
 90
        2
176
     1
 62
     7
176
     1
 90
        5
176
     1
 90
        0
176
     1
 90
        0
176
     1
290
     0
176
     1
 90
        1
176
     1
 40
0.0
176
     1
 90
        0
176
     1
290
     1
176
     1
290
     1
176
     1
290
     0
176
     1
290
     0
176
     1
290
     0
176
     1
290
     0
176
     1
290
     0
176
     1
290
     0
176
     1
290
     0
176
     1
 90
       50
176
     1
 40
0.0
176
     1
 40
1.0
176
     1
 90
        0
176
     1
 62
    18
420
        0
176
     1
 90
       50
176
     1
 90
        3
176
     1
 62
     5
420
      255
176
     1
290
     0
176
     1
 90
       50
176
     1
 90
       50
176
     1
 90
       50
176
     1
290
     0
176
     1
 90
       50
176
     1
 62
   256
176
     0
 40
1.0
176
     0
 90
        2
176
     1
  1
strokes_ogs.tif
176
     1
290
     0
176
     1
 40
1.0
176
     1
 40
1.0
176
     1
  0
VISUALSTYLE
  5
2E
102
{ACAD_REACTORS
330
29
102
}
330
29
100
AcDbVisualStyle
  2
Basic
 70
     7
177
     3
291
     1
 70
    58
 90
        1
176
     1
 90
        0
176
     1
 90
        1
176
     1
 90
        0
176
     1
 40
0.6
176
     1
 40
30.0
176
     1
 62
     7
420
 16777215
176
     1
 90
        0
176
     1
 90
        4
176
     1
 62
     7
176
     1
 62
   257
176
     1
 90
        1
176
     1
 90
        1
176
     1
 40
1.0
176
     1
 90
        8
176
     1
 62
     7
176
     1
 40
1.0
176
     1
 90
        1
176
     1
 90
        6
176
     1
 90
        2
176
     1
 62
     7
176
     1
 90
        5
176
     1
 90
        0
176
     1
 90
        0
176
     1
290
     0
176
     1
 90
        1
176
     1
 40
0.0
176
     1
 90
        0
176
     1
290
     0
176
     1
290
     1
176
     1
290
     1
176
     1
290
     0
176
     1
290
     0
176
     1
290
     0
176
     1
290
     0
176
     1
290
     0
176
     1
290
     0
176
     1
 90
       50
176
     1
 40
0.0
176
     1
 40
1.0
176
     1
 90
        0
176
     1
 62
    18
420
        0
176
     1
 90
       50
176
     1
 90
        3
176
     1
 62
     5
420
      255
176
     1
290
     0
176
     1
 90
       50
176
     1
 90
       50
176
     1
 90
       50
176
     1
290
     0
176
     1
 90
       50
176
     1
 62
   256
176
     0
 40
1.0
176
     0
 90
        2
176
     1
  1
strokes_ogs.tif
176
     1
290
     0
176
     1
 40
1.0
176
     1
 40
1.0
176
     1
  0
VISUALSTYLE
  5
35
102
{ACAD_REACTORS
330
29
102
}
330
29
100
AcDbVisualStyle
  2
Brighten
 70
    12
177
     3
291
     1
 70
    58
 90
        2
176
     1
 90
        2
176
     1
 90
        0
176
     1
 90
        0
176
     1
 40
0.6
176
     1
 40
30.0
176
     1
 62
     7
420
 16777215
176
     1
 90
        1
176
     1
 90
        4
176
     1
 62
     7
176
     1
 62
   257
176
     1
 90
        1
176
     1
 90
        1
176
     1
 40
1.0
176
     1
 90
        8
176
     1
 62
     7
176
     1
 40
1.0
176
     1
 90
        1
176
     1
 90
        6
176
     1
 90
        2
176
     1
 62
     7
176
     1
 90
        5
176
     1
 90
        0
176
     1
 90
        0
176
     1
290
     0
176
     1
 90
        1
176
     1
 40
50.0
176
     1
 90
        0
176
     1
290
     0
176
     1
290
     1
176
     1
290
     1
176
     1
290
     0
176
     1
290
     0
176
     1
290
     0
176
     1
290
     0
176
     1
290
     0
176
     1
290
     0
176
     1
 90
       50
176
     1
 40
0.0
176
     1
 40
1.0
176
     1
 90
        0
176
     1
 62
    18
420
        0
176
     1
 90
       50
176
     1
 90
        3
176
     1
 62
     5
420
      255
176
     1
290
     0
176
     1
 90
       50
176
     1
 90
       50
176
     1
 90
       50
176
     1
290
     0
176
     1
 90
       50
176
     1
 62
   256
176
     0
 40
1.0
176
     0
 90
        2
176
     1
  1
strokes_ogs.tif
176
     1
290
     0
176
     1
 40
1.0
176
     1
 40
1.0
176
     1
  0
VISUALSTYLE
  5
39
102
{ACAD_REACTORS
330
29
102
}
330
29
100
AcDbVisualStyle
  2
ColorChange
 70
    16
177
     3
291
     1
 70
    58
 90
        2
176
     1
 90
        2
176
     1
 90
        3
176
     1
 90
        0
176
     1
 40
0.6
176
     1
 40
30.0
176
     1
 62
     8
420
  8421504
176
     1
 90
        1
176
     1
 90
        4
176
     1
 62
     7
176
     1
 62
   257
176
     1
 90
        1
176
     1
 90
        1
176
     1
 40
1.0
176
     1
 90
        8
176
     1
 62
     8
420
  8421504
176
     1
 40
1.0
176
     1
 90
        1
176
     1
 90
        6
176
     1
 90
        2
176
     1
 62
     7
176
     1
 90
        5
176
     1
 90
        0
176
     1
 90
        0
176
     1
290
     0
176
     1
 90
        1
176
     1
 40
0.0
176
     1
 90
        0
176
     1
290
     0
176
     1
290
     1
176
     1
290
     1
176
     1
290
     0
176
     1
290
     0
176
     1
290
     0
176
     1
290
     0
176
     1
290
     0
176
     1
290
     0
176
     1
 90
       50
176
     1
 40
0.0
176
     1
 40
1.0
176
     1
 90
        0
176
     1
 62
    18
420
        0
176
     1
 90
       50
176
     1
 90
        3
176
     1
 62
     5
420
      255
176
     1
290
     0
176
     1
 90
       50
176
     1
 90
       50
176
     1
 90
       50
176
     1
290
     0
176
     1
 90
       50
176
     1
 62
   256
176
     0
 40
1.0
176
     0
 90
        2
176
     1
  1
strokes_ogs.tif
176
     1
290
     0
176
     1
 40
1.0
176
     1
 40
1.0
176
     1
  0
VISUALSTYLE
  5
32
102
{ACAD_REACTORS
330
29
102
}
330
29
100
AcDbVisualStyle
  2
Conceptual
 70
     9
177
     3
291
     0
 70
    58
 90
        3
176
     1
 90
        2
176
     1
 90
        0
176
     1
 90
        0
176
     1
 40
0.6
176
     1
 40
30.0
176
     1
 62
     7
420
 16777215
176
     1
 90
        2
176
     1
 90
        2
176
     1
 62
     7
176
     1
 62
   257
176
     1
 90
        1
176
     1
 90
        1
176
     1
 40
179.0
176
     1
 90
        8
176
     1
 62
     7
176
     1
 40
1.0
176
     1
 90
        1
176
     1
 90
        6
176
     1
 90
        2
176
     1
 62
     7
176
     1
 90
        3
176
     1
 90
        0
176
     1
 90
        0
176
     1
290
     0
176
     1
 90
        1
176
     1
 40
0.0
176
     1
 90
        0
176
     1
290
     0
176
     1
290
     1
176
     1
290
     1
176
     1
290
     0
176
     1
290
     0
176
     1
290
     0
176
     1
290
     0
176
     1
290
     0
176
     1
290
     0
176
     1
 90
       50
176
     1
 40
0.0
176
     1
 40
1.0
176
     1
 90
        0
176
     1
 62
    18
420
        0
176
     1
 90
       50
176
     1
 90
        3
176
     1
 62
     5
420
      255
176
     1
290
     0
176
     1
 90
       50
176
     1
 90
       50
176
     1
 90
       50
176
     1
290
     0
176
     1
 90
       50
176
     1
 62
   256
176
     0
 40
1.0
176
     0
 90
        2
176
     1
  1
strokes_ogs.tif
176
     1
290
     0
176
     1
 40
1.0
176
     1
 40
1.0
176
     1
  0
VISUALSTYLE
  5
34
102
{ACAD_REACTORS
330
29
102
}
330
29
100
AcDbVisualStyle
  2
Dim
 70
    11
177
     3
291
     1
 70
    58
 90
        2
176
     1
 90
        2
176
     1
 90
        0
176
     1
 90
        0
176
     1
 40
0.6
176
     1
 40
30.0
176
     1
 62
     7
420
 16777215
176
     1
 90
        1
176
     1
 90
        4
176
     1
 62
     7
176
     1
 62
   257
176
     1
 90
        1
176
     1
 90
        1
176
     1
 40
1.0
176
     1
 90
        8
176
     1
 62
     7
176
     1
 40
1.0
176
     1
 90
        1
176
     1
 90
        6
176
     1
 90
        2
176
     1
 62
     7
176
     1
 90
        5
176
     1
 90
        0
176
     1
 90
        0
176
     1
290
     0
176
     1
 90
        1
176
     1
 40
-50.0
176
     1
 90
        0
176
     1
290
     0
176
     1
290
     1
176
     1
290
     1
176
     1
290
     0
176
     1
290
     0
176
     1
290
     0
176
     1
290
     0
176
     1
290
     0
176
     1
290
     0
176
     1
 90
       50
176
     1
 40
0.0
176
     1
 40
1.0
176
     1
 90
        0
176
     1
 62
    18
420
        0
176
     1
 90
       50
176
     1
 90
        3
176
     1
 62
     5
420
      255
176
     1
290
     0
176
     1
 90
       50
176
     1
 90
       50
176
     1
 90
       50
176
     1
290
     0
176
     1
 90
       50
176
     1
 62
   256
176
     0
 40
1.0
176
     0
 90
        2
176
     1
  1
strokes_ogs.tif
176
     1
290
     0
176
     1
 40
1.0
176
     1
 40
1.0
176
     1
  0
VISUALSTYLE
  5
41
102
{ACAD_REACTORS
330
29
102
}
330
29
100
AcDbVisualStyle
  2
EdgeColorOff
 70
    22
177
     3
291
     1
 70
    58
 90
        2
176
     0
 90
        2
176
     0
 90
        0
176
     0
 90
        0
176
     0
 40
0.6
176
     0
 40
30.0
176
     0
 62
     7
420
 16777215
176
     0
 90
        1
176
     0
 90
        4
176
     0
 62
     7
176
     0
 62
   257
176
     0
 90
        1
176
     0
 90
        1
176
     0
 40
1.0
176
     0
 90
        8
176
     2
 62
     7
176
     0
 40
1.0
176
     0
 90
        1
176
     0
 90
        6
176
     0
 90
        2
176
     0
 62
     7
176
     0
 90
        5
176
     0
 90
        0
176
     0
 90
        0
176
     0
290
     0
176
     0
 90
        1
176
     0
 40
0.0
176
     0
 90
        0
176
     0
290
     0
176
     0
290
     1
176
     0
290
     1
176
     0
290
     0
176
     0
290
     0
176
     0
290
     0
176
     0
290
     0
176
     0
290
     0
176
     0
290
     0
176
     0
 90
       50
176
     0
 40
0.0
176
     0
 40
1.0
176
     0
 90
        0
176
     0
 62
    18
420
        0
176
     0
 90
       50
176
     0
 90
        3
176
     0
 62
     5
420
      255
176
     0
290
     0
176
     0
 90
       50
176
     0
 90
       50
176
     0
 90
       50
176
     0
290
     0
176
     0
 90
       50
176
     0
 62
   256
176
     0
 40
1.0
176
     0
 90
        2
176
     0
  1
strokes_ogs.tif
176
     0
290
     0
176
     0
 40
1.0
176
     0
 40
1.0
176
     0
  0
VISUALSTYLE
  5
38
102
{ACAD_REACTORS
330
29
102
}
330
29
100
AcDbVisualStyle
  2
Facepattern
 70
    15
177
     3
291
     1
 70
    58
 90
        2
176
     1
 90
        2
176
     1
 90
        0
176
     1
 90
        0
176
     1
 40
0.6
176
     1
 40
30.0
176
     1
 62
     7
420
 16777215
176
     1
 90
        1
176
     1
 90
        4
176
     1
 62
     7
176
     1
 62
   257
176
     1
 90
        1
176
     1
 90
        1
176
     1
 40
1.0
176
     1
 90
        8
176
     1
 62
     7
176
     1
 40
1.0
176
     1
 90
        1
176
     1
 90
        6
176
     1
 90
        2
176
     1
 62
     7
176
     1
 90
        5
176
     1
 90
        0
176
     1
 90
        0
176
     1
290
     0
176
     1
 90
        1
176
     1
 40
0.0
176
     1
 90
        0
176
     1
290
     0
176
     1
290
     1
176
     1
290
     1
176
     1
290
     0
176
     1
290
     0
176
     1
290
     0
176
     1
290
     0
176
     1
290
     0
176
     1
290
     0
176
     1
 90
       50
176
     1
 40
0.0
176
     1
 40
1.0
176
     1
 90
        0
176
     1
 62
    18
420
        0
176
     1
 90
       50
176
     1
 90
        3
176
     1
 62
     5
420
      255
176
     1
290
     0
176
     1
 90
       50
176
     1
 90
       50
176
     1
 90
       50
176
     1
290
     0
176
     1
 90
       50
176
     1
 62
   256
176
     0
 40
1.0
176
     0
 90
        2
176
     1
  1
strokes_ogs.tif
176
     1
290
     0
176
     1
 40
1.0
176
     1
 40
1.0
176
     1
  0
VISUALSTYLE
  5
2A
102
{ACAD_REACTORS
330
29
102
}
330
29
100
AcDbVisualStyle
  2
Flat
 70
     0
177
     3
291
     1
 70
    58
 90
        2
176
     1
 90
        1
176
     1
 90
        1
176
     1
 90
        2
176
     1
 40
0.6
176
     1
 40
30.0
176
     1
 62
     7
420
 16777215
176
     1
 90
        0
176
     1
 90
        0
176
     1
 62
     7
176
     1
 62
   257
176
     1
 90
        1
176
     1
 90
        1
176
     1
 40
1.0
176
     1
 90
        8
176
     1
 62
     7
176
     1
 40
1.0
176
     1
 90
        1
176
     1
 90
        6
176
     1
 90
        2
176
     1
 62
     7
176
     1
 90
        5
176
     1
 90
        0
176
     1
 90
        0
176
     1
290
     0
176
     1
 90
       13
176
     1
 40
0.0
176
     1
 90
        0
176
     1
290
     0
176
     1
290
     1
176
     1
290
     1
176
     1
290
     0
176
     1
290
     0
176
     1
290
     0
176
     1
290
     0
176
     1
290
     0
176
     1
290
     0
176
     1
 90
       50
176
     1
 40
0.0
176
     1
 40
1.0
176
     1
 90
        0
176
     1
 62
    18
420
        0
176
     1
 90
       50
176
     1
 90
        3
176
     1
 62
     5
420
      255
176
     1
290
     0
176
     1
 90
       50
176
     1
 90
       50
176
     1
 90
       50
176
     1
290
     0
176
     1
 90
       50
176
     1
 62
   256
176
     0
 40
1.0
176
     0
 90
        2
176
     1
  1
strokes_ogs.tif
176
     1
290
     0
176
     1
 40
1.0
176
     1
 40
1.0
176
     1
  0
VISUALSTYLE
  5
2B
102
{ACAD_REACTORS
330
29
102
}
330
29
100
AcDbVisualStyle
  2
FlatWithEdges
 70
     1
177
     3
291
     1
 70
    58
 90
        2
176
     1
 90
        1
176
     1
 90
        1
176
     1
 90
        2
176
     1
 40
0.6
176
     1
 40
30.0
176
     1
 62
     7
420
 16777215
176
     1
 90
        1
176
     1
 90
        0
176
     1
 62
     7
176
     1
 62
   257
176
     1
 90
        1
176
     1
 90
        1
176
     1
 40
1.0
176
     1
 90
        0
176
     1
 62
   257
176
     1
 40
1.0
176
     1
 90
        1
176
     1
 90
        6
176
     1
 90
        2
176
     1
 62
     7
176
     1
 90
        5
176
     1
 90
        0
176
     1
 90
        0
176
     1
290
     0
176
     1
 90
       13
176
     1
 40
0.0
176
     1
 90
        0
176
     1
290
     0
176
     1
290
     1
176
     1
290
     1
176
     1
290
     0
176
     1
290
     0
176
     1
290
     0
176
     1
290
     0
176
     1
290
     0
176
     1
290
     0
176
     1
 90
       50
176
     1
 40
0.0
176
     1
 40
1.0
176
     1
 90
        0
176
     1
 62
    18
420
        0
176
     1
 90
       50
176
     1
 90
        3
176
     1
 62
     5
420
      255
176
     1
290
     0
176
     1
 90
       50
176
     1
 90
       50
176
     1
 90
       50
176
     1
290
     0
176
     1
 90
       50
176
     1
 62
   256
176
     0
 40
1.0
176
     0
 90
        2
176
     1
  1
strokes_ogs.tif
176
     1
290
     0
176
     1
 40
1.0
176
     1
 40
1.0
176
     1
  0
VISUALSTYLE
  5
2C
102
{ACAD_REACTORS
330
29
102
}
330
29
100
AcDbVisualStyle
  2
Gouraud
 70
     2
177
     3
291
     1
 70
    58
 90
        2
176
     1
 90
        2
176
     1
 90
        1
176
     1
 90
        2
176
     1
 40
0.6
176
     1
 40
30.0
176
     1
 62
     7
420
 16777215
176
     1
 90
        0
176
     1
 90
        0
176
     1
 62
     7
176
     1
 62
   257
176
     1
 90
        1
176
     1
 90
        1
176
     1
 40
1.0
176
     1
 90
        0
176
     1
 62
     7
176
     1
 40
1.0
176
     1
 90
        1
176
     1
 90
        6
176
     1
 90
        2
176
     1
 62
     7
176
     1
 90
        5
176
     1
 90
        0
176
     1
 90
        0
176
     1
290
     0
176
     1
 90
       13
176
     1
 40
0.0
176
     1
 90
        0
176
     1
290
     0
176
     1
290
     1
176
     1
290
     1
176
     1
290
     0
176
     1
290
     0
176
     1
290
     0
176
     1
290
     0
176
     1
290
     0
176
     1
290
     0
176
     1
 90
       50
176
     1
 40
0.0
176
     1
 40
1.0
176
     1
 90
        0
176
     1
 62
    18
420
        0
176
     1
 90
       50
176
     1
 90
        3
176
     1
 62
     5
420
      255
176
     1
290
     0
176
     1
 90
       50
176
     1
 90
       50
176
     1
 90
       50
176
     1
290
     0
176
     1
 90
       50
176
     1
 62
   256
176
     0
 40
1.0
176
     0
 90
        2
176
     1
  1
strokes_ogs.tif
176
     1
290
     0
176
     1
 40
1.0
176
     1
 40
1.0
176
     1
  0
VISUALSTYLE
  5
2D
102
{ACAD_REACTORS
330
29
102
}
330
29
100
AcDbVisualStyle
  2
GouraudWithEdges
 70
     3
177
     3
291
     1
 70
    58
 90
        2
176
     1
 90
        2
176
     1
 90
        1
176
     1
 90
        2
176
     1
 40
0.6
176
     1
 40
30.0
176
     1
 62
     7
420
 16777215
176
     1
 90
        1
176
     1
 90
        0
176
     1
 62
     7
176
     1
 62
   257
176
     1
 90
        1
176
     1
 90
        1
176
     1
 40
1.0
176
     1
 90
        0
176
     1
 62
   257
176
     1
 40
1.0
176
     1
 90
        1
176
     1
 90
        6
176
     1
 90
        2
176
     1
 62
     7
176
     1
 90
        5
176
     1
 90
        0
176
     1
 90
        0
176
     1
290
     0
176
     1
 90
       13
176
     1
 40
0.0
176
     1
 90
        0
176
     1
290
     0
176
     1
290
     1
176
     1
290
     1
176
     1
290
     0
176
     1
290
     0
176
     1
290
     0
176
     1
290
     0
176
     1
290
     0
176
     1
290
     0
176
     1
 90
       50
176
     1
 40
0.0
176
     1
 40
1.0
176
     1
 90
        0
176
     1
 62
    18
420
        0
176
     1
 90
       50
176
     1
 90
        3
176
     1
 62
     5
420
      255
176
     1
290
     0
176
     1
 90
       50
176
     1
 90
       50
176
     1
 90
       50
176
     1
290
     0
176
     1
 90
       50
176
     1
 62
   256
176
     0
 40
1.0
176
     0
 90
        2
176
     1
  1
strokes_ogs.tif
176
     1
290
     0
176
     1
 40
1.0
176
     1
 40
1.0
176
     1
  0
VISUALSTYLE
  5
31
102
{ACAD_REACTORS
330
29
102
}
330
29
100
AcDbVisualStyle
  2
Hidden
 70
     6
177
     3
291
     0
 70
    58
 90
        1
176
     1
 90
        2
176
     1
 90
        2
176
     1
 90
        0
176
     1
 40
0.6
176
     1
 40
30.0
176
     1
 62
     7
420
 16777215
176
     1
 90
        2
176
     1
 90
        2
176
     1
 62
     7
176
     1
 62
   257
176
     1
 90
        2
176
     1
 90
        1
176
     1
 40
40.0
176
     1
 90
        0
176
     1
 62
   257
176
     1
 40
1.0
176
     1
 90
        1
176
     1
 90
        6
176
     1
 90
        2
176
     1
 62
     7
176
     1
 90
        3
176
     1
 90
        0
176
     1
 90
        0
176
     1
290
     0
176
     1
 90
        1
176
     1
 40
0.0
176
     1
 90
        0
176
     1
290
     0
176
     1
290
     1
176
     1
290
     1
176
     1
290
     0
176
     1
290
     0
176
     1
290
     0
176
     1
290
     0
176
     1
290
     0
176
     1
290
     0
176
     1
 90
       50
176
     1
 40
0.0
176
     1
 40
1.0
176
     1
 90
        0
176
     1
 62
    18
420
        0
176
     1
 90
       50
176
     1
 90
        3
176
     1
 62
     5
420
      255
176
     1
290
     0
176
     1
 90
       50
176
     1
 90
       50
176
     1
 90
       50
176
     1
290
     0
176
     1
 90
       50
176
     1
 62
   256
176
     0
 40
1.0
176
     0
 90
        2
176
     1
  1
strokes_ogs.tif
176
     1
290
     0
176
     1
 40
1.0
176
     1
 40
1.0
176
     1
  0
VISUALSTYLE
  5
3F
102
{ACAD_REACTORS
330
29
102
}
330
29
100
AcDbVisualStyle
  2
JitterOff
 70
    20
177
     3
291
     1
 70
    58
 90
        2
176
     0
 90
        2
176
     0
 90
        0
176
     0
 90
        0
176
     0
 40
0.6
176
     0
 40
30.0
176
     0
 62
     7
420
 16777215
176
     0
 90
        1
176
     0
 90
        4
176
     0
 62
     7
176
     0
 62
   257
176
     0
 90
        1
176
     0
 90
        1
176
     0
 40
1.0
176
     0
 90
       10
176
     2
 62
     7
176
     0
 40
1.0
176
     0
 90
        1
176
     0
 90
        6
176
     0
 90
        2
176
     0
 62
     7
176
     0
 90
        5
176
     0
 90
        0
176
     0
 90
        0
176
     0
290
     0
176
     0
 90
        1
176
     0
 40
0.0
176
     0
 90
        0
176
     0
290
     0
176
     0
290
     1
176
     0
290
     1
176
     0
290
     0
176
     0
290
     0
176
     0
290
     0
176
     0
290
     0
176
     0
290
     0
176
     0
290
     0
176
     0
 90
       50
176
     0
 40
0.0
176
     0
 40
1.0
176
     0
 90
        0
176
     0
 62
    18
420
        0
176
     0
 90
       50
176
     0
 90
        3
176
     0
 62
     5
420
      255
176
     0
290
     0
176
     0
 90
       50
176
     0
 90
       50
176
     0
 90
       50
176
     0
290
     0
176
     0
 90
       50
176
     0
 62
   256
176
     0
 40
1.0
176
     0
 90
        2
176
     0
  1
strokes_ogs.tif
176
     0
290
     0
176
     0
 40
1.0
176
     0
 40
1.0
176
     0
  0
VISUALSTYLE
  5
37
102
{ACAD_REACTORS
330
29
102
}
330
29
100
AcDbVisualStyle
  2
Linepattern
 70
    14
177
     3
291
     1
 70
    58
 90
        2
176
     1
 90
        2
176
     1
 90
        0
176
     1
 90
        0
176
     1
 40
0.6
176
     1
 40
30.0
176
     1
 62
     7
420
 16777215
176
     1
 90
        1
176
     1
 90
        4
176
     1
 62
     7
176
     1
 62
   257
176
     1
 90
        7
176
     1
 90
        7
176
     1
 40
1.0
176
     1
 90
        8
176
     1
 62
     7
176
     1
 40
1.0
176
     1
 90
        1
176
     1
 90
        6
176
     1
 90
        2
176
     1
 62
     7
176
     1
 90
        5
176
     1
 90
        0
176
     1
 90
        0
176
     1
290
     0
176
     1
 90
        1
176
     1
 40
0.0
176
     1
 90
        0
176
     1
290
     0
176
     1
290
     1
176
     1
290
     1
176
     1
290
     0
176
     1
290
     0
176
     1
290
     0
176
     1
290
     0
176
     1
290
     0
176
     1
290
     0
176
     1
 90
       50
176
     1
 40
0.0
176
     1
 40
1.0
176
     1
 90
        0
176
     1
 62
    18
420
        0
176
     1
 90
       50
176
     1
 90
        3
176
     1
 62
     5
420
      255
176
     1
290
     0
176
     1
 90
       50
176
     1
 90
       50
176
     1
 90
       50
176
     1
290
     0
176
     1
 90
       50
176
     1
 62
   256
176
     0
 40
1.0
176
     0
 90
        2
176
     1
  1
strokes_ogs.tif
176
     1
290
     0
176
     1
 40
1.0
176
     1
 40
1.0
176
     1
  0
VISUALSTYLE
  5
40
102
{ACAD_REACTORS
330
29
102
}
330
29
100
AcDbVisualStyle
  2
OverhangOff
 70
    21
177
     3
291
     1
 70
    58
 90
        2
176
     0
 90
        2
176
     0
 90
        0
176
     0
 90
        0
176
     0
 40
0.6
176
     0
 40
30.0
176
     0
 62
     7
420
 16777215
176
     0
 90
        1
176
     0
 90
        4
176
     0
 62
     7
176
     0
 62
   257
176
     0
 90
        1
176
     0
 90
        1
176
     0
 40
1.0
176
     0
 90
        9
176
     2
 62
     7
176
     0
 40
1.0
176
     0
 90
        1
176
     0
 90
        6
176
     0
 90
        2
176
     0
 62
     7
176
     0
 90
        5
176
     0
 90
        0
176
     0
 90
        0
176
     0
290
     0
176
     0
 90
        1
176
     0
 40
0.0
176
     0
 90
        0
176
     0
290
     0
176
     0
290
     1
176
     0
290
     1
176
     0
290
     0
176
     0
290
     0
176
     0
290
     0
176
     0
290
     0
176
     0
290
     0
176
     0
290
     0
176
     0
 90
       50
176
     0
 40
0.0
176
     0
 40
1.0
176
     0
 90
        0
176
     0
 62
    18
420
        0
176
     0
 90
       50
176
     0
 90
        3
176
     0
 62
     5
420
      255
176
     0
290
     0
176
     0
 90
       50
176
     0
 90
       50
176
     0
 90
       50
176
     0
290
     0
176
     0
 90
       50
176
     0
 62
   256
176
     0
 40
1.0
176
     0
 90
        2
176
     0
  1
strokes_ogs.tif
176
     0
290
     0
176
     0
 40
1.0
176
     0
 40
1.0
176
     0
  0
VISUALSTYLE
  5
33
102
{ACAD_REACTORS
330
29
102
}
330
29
100
AcDbVisualStyle
  2
Realistic
 70
     8
177
     3
291
     0
 70
    58
 90
        2
176
     1
 90
        3
176
     1
 90
        0
176
     1
 90
        2
176
     1
 40
0.6
176
     1
 40
30.0
176
     1
 62
     7
420
 16777215
176
     1
 90
        0
176
     1
 90
        0
176
     1
 62
     7
176
     1
 62
   257
176
     1
 90
        1
176
     1
 90
        1
176
     1
 40
1.0
176
     1
 90
        8
176
     1
 62
   257
176
     1
 40
1.0
176
     1
 90
        1
176
     1
 90
        6
176
     1
 90
        2
176
     1
 62
     7
176
     1
 90
        3
176
     1
 90
        0
176
     1
 90
        0
176
     1
290
     0
176
     1
 90
       13
176
     1
 40
0.0
176
     1
 90
        0
176
     1
290
     0
176
     1
290
     1
176
     1
290
     1
176
     1
290
     0
176
     1
290
     0
176
     1
290
     0
176
     1
290
     0
176
     1
290
     0
176
     1
290
     0
176
     1
 90
       50
176
     1
 40
0.0
176
     1
 40
1.0
176
     1
 90
        0
176
     1
 62
    18
420
        0
176
     1
 90
       50
176
     1
 90
        3
176
     1
 62
     5
420
      255
176
     1
290
     0
176
     1
 90
       50
176
     1
 90
       50
176
     1
 90
       50
176
     1
290
     0
176
     1
 90
       50
176
     1
 62
   256
176
     0
 40
1.0
176
     0
 90
        2
176
     1
  1
strokes_ogs.tif
176
     1
290
     0
176
     1
 40
1.0
176
     1
 40
1.0
176
     1
  0
VISUALSTYLE
  5
3E
102
{ACAD_REACTORS
330
29
102
}
330
29
100
AcDbVisualStyle
  2
Shaded
 70
    27
177
     3
291
     0
 70
    58
 90
        2
176
     1
 90
        2
176
     1
 90
        1
176
     1
 90
        2
176
     1
 40
0.6
176
     1
 40
30.0
176
     1
 62
     7
420
 16777215
176
     1
 90
        0
176
     1
 90
        4
176
     1
 62
     7
176
     1
 62
   257
176
     1
 90
        1
176
     1
 90
        1
176
     1
 40
1.0
176
     1
 90
        8
176
     1
 62
   257
176
     1
 40
1.0
176
     1
 90
        1
176
     1
 90
        6
176
     1
 90
        2
176
     1
 62
     8
420
  7895160
176
     1
 90
        3
176
     1
 90
        0
176
     1
 90
        0
176
     1
290
     0
176
     1
 90
        5
176
     1
 40
0.0
176
     1
 90
        0
176
     1
290
     0
176
     1
290
     1
176
     1
290
     1
176
     1
290
     0
176
     1
290
     0
176
     1
290
     0
176
     1
290
     0
176
     1
290
     0
176
     1
290
     0
176
     1
 90
       50
176
     1
 40
0.0
176
     1
 40
1.0
176
     1
 90
        0
176
     1
 62
    18
420
        0
176
     1
 90
       50
176
     1
 90
        3
176
     1
 62
     5
420
      255
176
     1
290
     0
176
     1
 90
       50
176
     1
 90
       50
176
     1
 90
       50
176
     1
290
     0
176
     1
 90
       50
176
     1
 62
   256
176
     0
 40
1.0
176
     0
 90
        2
176
     1
  1
strokes_ogs.tif
176
     1
290
     0
176
     1
 40
1.0
176
     1
 40
1.0
176
     1
  0
VISUALSTYLE
  5
3D
102
{ACAD_REACTORS
330
29
102
}
330
29
100
AcDbVisualStyle
  2
Shaded with edges
 70
    26
177
     3
291
     0
 70
    58
 90
        2
176
     1
 90
        2
176
     1
 90
        1
176
     1
 90
        2
176
     1
 40
0.6
176
     1
 40
30.0
176
     1
 62
     7
420
 16777215
176
     1
 90
        1
176
     1
 90
        2
176
     1
 62
     7
176
     1
 62
   257
176
     1
 90
        2
176
     1
 90
        1
176
     1
 40
1.0
176
     1
 90
        8
176
     1
 62
   257
176
     1
 40
1.0
176
     1
 90
        1
176
     1
 90
        6
176
     1
 90
        2
176
     1
 62
     7
176
     1
 90
        3
176
     1
 90
        0
176
     1
 90
        0
176
     1
290
     0
176
     1
 90
        5
176
     1
 40
0.0
176
     1
 90
        0
176
     1
290
     0
176
     1
290
     1
176
     1
290
     1
176
     1
290
     0
176
     1
290
     0
176
     1
290
     0
176
     1
290
     0
176
     1
290
     0
176
     1
290
     0
176
     1
 90
       50
176
     1
 40
0.0
176
     1
 40
1.0
176
     1
 90
        0
176
     1
 62
    18
420
        0
176
     1
 90
       50
176
     1
 90
        3
176
     1
 62
     5
420
      255
176
     1
290
     0
176
     1
 90
       50
176
     1
 90
       50
176
     1
 90
       50
176
     1
290
     0
176
     1
 90
       50
176
     1
 62
   256
176
     0
 40
1.0
176
     0
 90
        2
176
     1
  1
strokes_ogs.tif
176
     1
290
     0
176
     1
 40
1.0
176
     1
 40
1.0
176
     1
  0
VISUALSTYLE
  5
3A
102
{ACAD_REACTORS
330
29
102
}
330
29
100
AcDbVisualStyle
  2
Shades of Gray
 70
    23
177
     3
291
     0
 70
    58
 90
        2
176
     1
 90
        2
176
     1
 90
        3
176
     1
 90
        0
176
     1
 40
0.6
176
     1
 40
30.0
176
     1
 62
     7
420
 16777215
176
     1
 90
        2
176
     1
 90
        2
176
     1
 62
     7
176
     1
 62
     7
176
     1
 90
        1
176
     1
 90
        1
176
     1
 40
40.0
176
     1
 90
        8
176
     1
 62
     7
176
     1
 40
1.0
176
     1
 90
        1
176
     1
 90
        6
176
     1
 90
        2
176
     1
 62
     7
176
     1
 90
        3
176
     1
 90
        0
176
     1
 90
        0
176
     1
290
     0
176
     1
 90
        1
176
     1
 40
0.0
176
     1
 90
        0
176
     1
290
     0
176
     1
290
     1
176
     1
290
     1
176
     1
290
     0
176
     1
290
     0
176
     1
290
     0
176
     1
290
     0
176
     1
290
     0
176
     1
290
     0
176
     1
 90
       50
176
     1
 40
0.0
176
     1
 40
1.0
176
     1
 90
        0
176
     1
 62
    18
420
        0
176
     1
 90
       50
176
     1
 90
        3
176
     1
 62
     5
420
      255
176
     1
290
     0
176
     1
 90
       50
176
     1
 90
       50
176
     1
 90
       50
176
     1
290
     0
176
     1
 90
       50
176
     1
 62
   256
176
     0
 40
1.0
176
     0
 90
        2
176
     1
  1
strokes_ogs.tif
176
     1
290
     0
176
     1
 40
1.0
176
     1
 40
1.0
176
     1
  0
VISUALSTYLE
  5
3B
102
{ACAD_REACTORS
330
29
102
}
330
29
100
AcDbVisualStyle
  2
Sketchy
 70
    24
177
     3
291
     0
 70
    58
 90
        1
176
     1
 90
        2
176
     1
 90
        2
176
     1
 90
        0
176
     1
 40
0.6
176
     1
 40
30.0
176
     1
 62
     7
420
 16777215
176
     1
 90
        2
176
     1
 90
        2
176
     1
 62
     7
176
     1
 62
     7
176
     1
 90
        1
176
     1
 90
        1
176
     1
 40
40.0
176
     1
 90
       11
176
     1
 62
     7
176
     1
 40
1.0
176
     1
 90
        1
176
     1
 90
        6
176
     1
 90
        2
176
     1
 62
     7
176
     1
 90
        6
176
     1
 90
        0
176
     1
 90
        0
176
     1
290
     0
176
     1
 90
        1
176
     1
 40
0.0
176
     1
 90
        0
176
     1
290
     0
176
     1
290
     1
176
     1
290
     1
176
     1
290
     0
176
     1
290
     0
176
     1
290
     0
176
     1
290
     0
176
     1
290
     0
176
     1
290
     0
176
     1
 90
       50
176
     1
 40
0.0
176
     1
 40
1.0
176
     1
 90
        0
176
     1
 62
    18
420
        0
176
     1
 90
       50
176
     1
 90
        3
176
     1
 62
     5
420
      255
176
     1
290
     0
176
     1
 90
       50
176
     1
 90
       50
176
     1
 90
       50
176
     1
290
     0
176
     1
 90
       50
176
     1
 62
   256
176
     0
 40
1.0
176
     0
 90
        2
176
     1
  1
strokes_ogs.tif
176
     1
290
     0
176
     1
 40
1.0
176
     1
 40
1.0
176
     1
  0
VISUALSTYLE
  5
36
102
{ACAD_REACTORS
330
29
102
}
330
29
100
AcDbVisualStyle
  2
Thicken
 70
    13
177
     3
291
     1
 70
    58
 90
        2
176
     1
 90
        2
176
     1
 90
        0
176
     1
 90
        0
176
     1
 40
0.6
176
     1
 40
30.0
176
     1
 62
     7
420
 16777215
176
     1
 90
        1
176
     1
 90
        4
176
     1
 62
     7
176
     1
 62
   257
176
     1
 90
        1
176
     1
 90
        1
176
     1
 40
1.0
176
     1
 90
       12
176
     1
 62
     7
176
     1
 40
1.0
176
     1
 90
        1
176
     1
 90
        6
176
     1
 90
        2
176
     1
 62
     7
176
     1
 90
        5
176
     1
 90
        0
176
     1
 90
        0
176
     1
290
     0
176
     1
 90
        1
176
     1
 40
0.0
176
     1
 90
        0
176
     1
290
     0
176
     1
290
     1
176
     1
290
     1
176
     1
290
     0
176
     1
290
     0
176
     1
290
     0
176
     1
290
     0
176
     1
290
     0
176
     1
290
     0
176
     1
 90
       50
176
     1
 40
0.0
176
     1
 40
1.0
176
     1
 90
        0
176
     1
 62
    18
420
        0
176
     1
 90
       50
176
     1
 90
        3
176
     1
 62
     5
420
      255
176
     1
290
     0
176
     1
 90
       50
176
     1
 90
       50
176
     1
 90
       50
176
     1
290
     0
176
     1
 90
       50
176
     1
 62
   256
176
     0
 40
1.0
176
     0
 90
        2
176
     1
  1
strokes_ogs.tif
176
     1
290
     0
176
     1
 40
1.0
176
     1
 40
1.0
176
     1
  0
VISUALSTYLE
  5
30
102
{ACAD_REACTORS
330
29
102
}
330
29
100
AcDbVisualStyle
  2
Wireframe
 70
     5
177
     3
291
     0
 70
    58
 90
        0
176
     1
 90
        2
176
     1
 90
        0
176
     1
 90
        0
176
     1
 40
0.6
176
     1
 40
30.0
176
     1
 62
     7
420
 16777215
176
     1
 90
        1
176
     1
 90
        4
176
     1
 62
     7
176
     1
 62
   257
176
     1
 90
        1
176
     1
 90
        1
176
     1
 40
1.0
176
     1
 90
        0
176
     1
 62
   257
176
     1
 40
1.0
176
     1
 90
        1
176
     1
 90
        6
176
     1
 90
        2
176
     1
 62
     7
176
     1
 90
        3
176
     1
 90
        0
176
     1
 90
        0
176
     1
290
     0
176
     1
 90
        1
176
     1
 40
0.0
176
     1
 90
        0
176
     1
290
     0
176
     1
290
     1
176
     1
290
     1
176
     1
290
     0
176
     1
290
     0
176
     1
290
     0
176
     1
290
     0
176
     1
290
     0
176
     1
290
     0
176
     1
 90
       50
176
     1
 40
0.0
176
     1
 40
1.0
176
     1
 90
        0
176
     1
 62
    18
420
        0
176
     1
 90
       50
176
     1
 90
        3
176
     1
 62
     5
420
      255
176
     1
290
     0
176
     1
 90
       50
176
     1
 90
       50
176
     1
 90
       50
176
     1
290
     0
176
     1
 90
       50
176
     1
 62
   256
176
     0
 40
1.0
176
     0
 90
        2
176
     1
  1
strokes_ogs.tif
176
     1
290
     0
176
     1
 40
1.0
176
     1
 40
1.0
176
     1
  0
VISUALSTYLE
  5
3C
102
{ACAD_REACTORS
330
29
102
}
330
29
100
AcDbVisualStyle
  2
X-Ray
 70
    25
177
     3
291
     0
 70
    58
 90
        2
176
     1
 90
        2
176
     1
 90
        1
176
     1
 90
        1
176
     1
 40
0.5
176
     1
 40
30.0
176
     1
 62
     7
420
 16777215
176
     1
 90
        1
176
     1
 90
        0
176
     1
 62
     7
176
     1
 62
   257
176
     1
 90
        1
176
     1
 90
        1
176
     1
 40
1.0
176
     1
 90
        8
176
     1
 62
     7
176
     1
 40
1.0
176
     1
 90
        1
176
     1
 90
        6
176
     1
 90
        2
176
     1
 62
     7
176
     1
 90
        3
176
     1
 90
        0
176
     1
 90
        0
176
     1
290
     0
176
     1
 90
       13
176
     1
 40
0.0
176
     1
 90
        0
176
     1
290
     0
176
     1
290
     1
176
     1
290
     1
176
     1
290
     0
176
     1
290
     0
176
     1
290
     0
176
     1
290
     0
176
     1
290
     0
176
     1
290
     0
176
     1
 90
       50
176
     1
 40
0.0
176
     1
 40
1.0
176
     1
 90
        0
176
     1
 62
    18
420
        0
176
     1
 90
       50
176
     1
 90
        3
176
     1
 62
     5
420
      255
176
     1
290
     0
176
     1
 90
       50
176
     1
 90
       50
176
     1
 90
       50
176
     1
290
     0
176
     1
 90
       50
176
     1
 62
   256
176
     0
 40
1.0
176
     0
 90
        2
176
     1
  1
strokes_ogs.tif
176
     1
290
     0
176
     1
 40
1.0
176
     1
 40
1.0
176
     1
  0
DICTIONARYVAR
  5
DC
102
{ACAD_REACTORS
330
D7
102
}
330
D7
100
DictionaryVariables
280
     0
  1
1:1
  0
DICTIONARYVAR
  5
D9
102
{ACAD_REACTORS
330
D7
102
}
330
D7
100
DictionaryVariables
280
     0
  1
STANDARD
  0
DICTIONARYVAR
  5
D8
102
{ACAD_REACTORS
330
D7
102
}
330
D7
100
DictionaryVariables
280
     0
  1
STANDARD
  0
DICTIONARYVAR
  5
DA
102
{ACAD_REACTORS
330
D7
102
}
330
D7
100
DictionaryVariables
280
     0
  1
Imperial24
  0
DICTIONARYVAR
  5
DB
102
{ACAD_REACTORS
330
D7
102
}
330
D7
100
DictionaryVariables
280
     0
  1
Imperial24
  0
DICTIONARY
  5
1A
330
19
100
AcDbDictionary
280
     1
281
     1
  3
BUMPTILE
360
1C
  3
DIFFUSETILE
360
1B
  3
OPACITYTILE
360
1F
  3
REFLECTIONTILE
360
1E
  3
REFRACTIONTILE
360
20
  3
SPECULARTILE
360
1D
  0
DICTIONARY
  5
12
330
11
100
AcDbDictionary
280
     1
281
     1
  3
BUMPTILE
360
14
  3
DIFFUSETILE
360
13
  3
OPACITYTILE
360
17
  3
REFLECTIONTILE
360
16
  3
REFRACTIONTILE
360
18
  3
SPECULARTILE
360
15
  0
DICTIONARY
  5
22
330
21
100
AcDbDictionary
280
     1
281
     1
  3
BUMPTILE
360
24
  3
DIFFUSETILE
360
23
  3
OPACITYTILE
360
27
  3
REFLECTIONTILE
360
26
  3
REFRACTIONTILE
360
28
  3
SPECULARTILE
360
25
  0
DICTIONARY
  5
DD
330
65
100
AcDbDictionary
280
     1
281
     1
  3
ACAD_ROUNDTRIP_2008_TABLESTYLE_CELLSTYLEMAP
360
DE
  0
XRECORD
  5
1C
102
{ACAD_REACTORS
330
1A
102
}
330
1A
100
AcDbXrecord
280
     1
270
     1
271
     1
  0
XRECORD
  5
1B
102
{ACAD_REACTORS
330
1A
102
}
330
1A
100
AcDbXrecord
280
     1
270
     1
271
     1
  0
XRECORD
  5
1F
102
{ACAD_REACTORS
330
1A
102
}
330
1A
100
AcDbXrecord
280
     1
270
     1
271
     1
  0
XRECORD
  5
1E
102
{ACAD_REACTORS
330
1A
102
}
330
1A
100
AcDbXrecord
280
     1
270
     1
271
     1
  0
XRECORD
  5
20
102
{ACAD_REACTORS
330
1A
102
}
330
1A
100
AcDbXrecord
280
     1
270
     1
271
     1
  0
XRECORD
  5
1D
102
{ACAD_REACTORS
330
1A
102
}
330
1A
100
AcDbXrecord
280
     1
270
     1
271
     1
  0
XRECORD
  5
14
102
{ACAD_REACTORS
330
12
102
}
330
12
100
AcDbXrecord
280
     1
270
     1
271
     1
  0
XRECORD
  5
13
102
{ACAD_REACTORS
330
12
102
}
330
12
100
AcDbXrecord
280
     1
270
     1
271
     1
  0
XRECORD
  5
17
102
{ACAD_REACTORS
330
12
102
}
330
12
100
AcDbXrecord
280
     1
270
     1
271
     1
  0
XRECORD
  5
16
102
{ACAD_REACTORS
330
12
102
}
330
12
100
AcDbXrecord
280
     1
270
     1
271
     1
  0
XRECORD
  5
18
102
{ACAD_REACTORS
330
12
102
}
330
12
100
AcDbXrecord
280
     1
270
     1
271
     1
  0
XRECORD
  5
15
102
{ACAD_REACTORS
330
12
102
}
330
12
100
AcDbXrecord
280
     1
270
     1
271
     1
  0
XRECORD
  5
24
102
{ACAD_REACTORS
330
22
102
}
330
22
100
AcDbXrecord
280
     1
270
     1
271
     1
  0
XRECORD
  5
23
102
{ACAD_REACTORS
330
22
102
}
330
22
100
AcDbXrecord
280
     1
270
     1
271
     1
  0
XRECORD
  5
27
102
{ACAD_REACTORS
330
22
102
}
330
22
100
AcDbXrecord
280
     1
270
     1
271
     1
  0
XRECORD
  5
26
102
{ACAD_REACTORS
330
22
102
}
330
22
100
AcDbXrecord
280
     1
270
     1
271
     1
  0
XRECORD
  5
28
102
{ACAD_REACTORS
330
22
102
}
330
22
100
AcDbXrecord
280
     1
270
     1
271
     1
  0
XRECORD
  5
25
102
{ACAD_REACTORS
330
22
102
}
330
22
100
AcDbXrecord
280
     1
270
     1
271
     1
  0
CELLSTYLEMAP
  5
DE
102
{ACAD_REACTORS
330
DD
102
}
330
DD
100
AcDbCellStyleMap
 90
        3
300
CELLSTYLE
  1
TABLEFORMAT_BEGIN
 90
        5
170
     1
 91
        0
 92
    32768
 62
   257
 93
        1
300
CONTENTFORMAT
  1
CONTENTFORMAT_BEGIN
 90
        0
 91
        0
 92
      512
 93
        0
300

 40
0.0
140
1.0
 94
        5
 62
     0
340
55
144
0.25
309
CONTENTFORMAT_END
171
     0
 94
        0
309
TABLEFORMAT_END
  1
CELLSTYLE_BEGIN
 90
        1
 91
        1
300
_TITLE
309
CELLSTYLE_END
300
CELLSTYLE
  1
TABLEFORMAT_BEGIN
 90
        5
170
     1
 91
        0
 92
        0
 62
   257
 93
        1
300
CONTENTFORMAT
  1
CONTENTFORMAT_BEGIN
 90
        0
 91
        0
 92
      512
 93
        0
300

 40
0.0
140
1.0
 94
        5
 62
     0
340
55
144
0.18
309
CONTENTFORMAT_END
171
     0
 94
        0
309
TABLEFORMAT_END
  1
CELLSTYLE_BEGIN
 90
        2
 91
        1
300
_HEADER
309
CELLSTYLE_END
300
CELLSTYLE
  1
TABLEFORMAT_BEGIN
 90
        5
170
     1
 91
        0
 92
        0
 62
   257
 93
        1
300
CONTENTFORMAT
  1
CONTENTFORMAT_BEGIN
 90
        0
 91
        0
 92
      512
 93
        0
300

 40
0.0
140
1.0
 94
        2
 62
     0
340
55
144
0.18
309
CONTENTFORMAT_END
171
     0
 94
        0
309
TABLEFORMAT_END
  1
CELLSTYLE_BEGIN
 90
        3
 91
        2
300
_DATA
309
CELLSTYLE_END
  0
ENDSEC
  0
EOF
