  0
SECTION
  2
HEADER
  9
$ACADVER
  1
AC1032
  9
$ACADMAINTVER
 90
      329
  9
$DWGCODEPAGE
  3
ANSI_936
  9
$REQUIREDVERSIONS
160
                 0
  9
$INSBASE
 10
0.0
 20
0.0
 30
0.0
  9
$EXTMIN
 10
1.000000000000000E+20
 20
1.000000000000000E+20
 30
1.000000000000000E+20
  9
$EXTMAX
 10
-1.000000000000000E+20
 20
-1.000000000000000E+20
 30
-1.000000000000000E+20
  9
$LIMMIN
 10
0.0
 20
0.0
  9
$LIMMAX
 10
12.0
 20
9.0
  9
$ORTHOMODE
 70
     0
  9
$REGENMODE
 70
     1
  9
$FILLMODE
 70
     1
  9
$QTEXTMODE
 70
     0
  9
$MIRRTEXT
 70
     0
  9
$LTSCALE
 40
1.0
  9
$ATTMODE
 70
     1
  9
$TEXTSIZE
 40
0.2
  9
$TRACEWID
 40
0.05
  9
$TEXTSTYLE
  7
Standard
  9
$CLAYER
  8
0
  9
$CELTYPE
  6
ByLayer
  9
$CECOLOR
 62
   256
  9
$CELTSCALE
 40
1.0
  9
$DISPSILH
 70
     0
  9
$DIMSCALE
 40
1.0
  9
$DIMASZ
 40
0.18
  9
$DIMEXO
 40
0.0625
  9
$DIMDLI
 40
0.38
  9
$DIMRND
 40
0.0
  9
$DIMDLE
 40
0.0
  9
$DIMEXE
 40
0.18
  9
$DIMTP
 40
0.0
  9
$DIMTM
 40
0.0
  9
$DIMTXT
 40
0.18
  9
$DIMCEN
 40
0.09
  9
$DIMTSZ
 40
0.0
  9
$DIMTOL
 70
     0
  9
$DIMLIM
 70
     0
  9
$DIMTIH
 70
     1
  9
$DIMTOH
 70
     1
  9
$DIMSE1
 70
     0
  9
$DIMSE2
 70
     0
  9
$DIMTAD
 70
     0
  9
$DIMZIN
 70
     0
  9
$DIMBLK
  1

  9
$DIMASO
 70
     1
  9
$DIMSHO
 70
     1
  9
$DIMPOST
  1

  9
$DIMAPOST
  1

  9
$DIMALT
 70
     0
  9
$DIMALTD
 70
     2
  9
$DIMALTF
 40
25.4
  9
$DIMLFAC
 40
1.0
  9
$DIMTOFL
 70
     0
  9
$DIMTVP
 40
0.0
  9
$DIMTIX
 70
     0
  9
$DIMSOXD
 70
     0
  9
$DIMSAH
 70
     0
  9
$DIMBLK1
  1

  9
$DIMBLK2
  1

  9
$DIMSTYLE
  2
Standard
  9
$DIMCLRD
 70
     0
  9
$DIMCLRE
 70
     0
  9
$DIMCLRT
 70
     0
  9
$DIMTFAC
 40
1.0
  9
$DIMGAP
 40
0.09
  9
$DIMJUST
 70
     0
  9
$DIMSD1
 70
     0
  9
$DIMSD2
 70
     0
  9
$DIMTOLJ
 70
     1
  9
$DIMTZIN
 70
     0
  9
$DIMALTZ
 70
     0
  9
$DIMALTTZ
 70
     0
  9
$DIMUPT
 70
     0
  9
$DIMDEC
 70
     4
  9
$DIMTDEC
 70
     4
  9
$DIMALTU
 70
     2
  9
$DIMALTTD
 70
     2
  9
$DIMTXSTY
  7
Standard
  9
$DIMAUNIT
 70
     0
  9
$DIMADEC
 70
     0
  9
$DIMALTRND
 40
0.0
  9
$DIMAZIN
 70
     0
  9
$DIMDSEP
 70
    46
  9
$DIMATFIT
 70
     3
  9
$DIMFRAC
 70
     0
  9
$DIMLDRBLK
  1

  9
$DIMLUNIT
 70
     2
  9
$DIMLWD
 70
    -2
  9
$DIMLWE
 70
    -2
  9
$DIMTMOVE
 70
     0
  9
$DIMFXL
 40
1.0
  9
$DIMFXLON
 70
     0
  9
$DIMJOGANG
 40
0.7853981633974483
  9
$DIMTFILL
 70
     0
  9
$DIMTFILLCLR
 70
     0
  9
$DIMARCSYM
 70
     0
  9
$DIMLTYPE
  6

  9
$DIMLTEX1
  6

  9
$DIMLTEX2
  6

  9
$DIMTXTDIRECTION
 70
     0
  9
$LUNITS
 70
     2
  9
$LUPREC
 70
     4
  9
$SKETCHINC
 40
0.1
  9
$FILLETRAD
 40
0.0
  9
$AUNITS
 70
     0
  9
$AUPREC
 70
     0
  9
$MENU
  1
.
  9
$ELEVATION
 40
0.0
  9
$PELEVATION
 40
0.0
  9
$THICKNESS
 40
0.0
  9
$LIMCHECK
 70
     0
  9
$CHAMFERA
 40
0.0
  9
$CHAMFERB
 40
0.0
  9
$CHAMFERC
 40
0.0
  9
$CHAMFERD
 40
0.0
  9
$SKPOLY
 70
     0
  9
$TDCREATE
 40
2460886.733634259
  9
$TDUCREATE
 40
2460886.400300926
  9
$TDUPDATE
 40
2460886.733634259
  9
$TDUUPDATE
 40
2460886.400300926
  9
$TDINDWG
 40
0.0000000000
  9
$TDUSRTIMER
 40
0.0000000000
  9
$USRTIMER
 70
     1
  9
$ANGBASE
 50
0.0
  9
$ANGDIR
 70
     0
  9
$PDMODE
 70
     0
  9
$PDSIZE
 40
0.0
  9
$PLINEWID
 40
0.0
  9
$SPLFRAME
 70
     0
  9
$SPLINETYPE
 70
     6
  9
$SPLINESEGS
 70
     8
  9
$HANDSEED
  5
10B
  9
$SURFTAB1
 70
     6
  9
$SURFTAB2
 70
     6
  9
$SURFTYPE
 70
     6
  9
$SURFU
 70
     6
  9
$SURFV
 70
     6
  9
$UCSBASE
  2

  9
$UCSNAME
  2

  9
$UCSORG
 10
0.0
 20
0.0
 30
0.0
  9
$UCSXDIR
 10
1.0
 20
0.0
 30
0.0
  9
$UCSYDIR
 10
0.0
 20
1.0
 30
0.0
  9
$UCSORTHOREF
  2

  9
$UCSORTHOVIEW
 70
     0
  9
$UCSORGTOP
 10
0.0
 20
0.0
 30
0.0
  9
$UCSORGBOTTOM
 10
0.0
 20
0.0
 30
0.0
  9
$UCSORGLEFT
 10
0.0
 20
0.0
 30
0.0
  9
$UCSORGRIGHT
 10
0.0
 20
0.0
 30
0.0
  9
$UCSORGFRONT
 10
0.0
 20
0.0
 30
0.0
  9
$UCSORGBACK
 10
0.0
 20
0.0
 30
0.0
  9
$PUCSBASE
  2

  9
$PUCSNAME
  2

  9
$PUCSORG
 10
0.0
 20
0.0
 30
0.0
  9
$PUCSXDIR
 10
1.0
 20
0.0
 30
0.0
  9
$PUCSYDIR
 10
0.0
 20
1.0
 30
0.0
  9
$PUCSORTHOREF
  2

  9
$PUCSORTHOVIEW
 70
     0
  9
$PUCSORGTOP
 10
0.0
 20
0.0
 30
0.0
  9
$PUCSORGBOTTOM
 10
0.0
 20
0.0
 30
0.0
  9
$PUCSORGLEFT
 10
0.0
 20
0.0
 30
0.0
  9
$PUCSORGRIGHT
 10
0.0
 20
0.0
 30
0.0
  9
$PUCSORGFRONT
 10
0.0
 20
0.0
 30
0.0
  9
$PUCSORGBACK
 10
0.0
 20
0.0
 30
0.0
  9
$USERI1
 70
     0
  9
$USERI2
 70
     0
  9
$USERI3
 70
     0
  9
$USERI4
 70
     0
  9
$USERI5
 70
     0
  9
$USERR1
 40
0.0
  9
$USERR2
 40
0.0
  9
$USERR3
 40
0.0
  9
$USERR4
 40
0.0
  9
$USERR5
 40
0.0
  9
$WORLDVIEW
 70
     1
  9
$SHADEDGE
 70
     3
  9
$SHADEDIF
 70
    70
  9
$TILEMODE
 70
     1
  9
$MAXACTVP
 70
    64
  9
$PINSBASE
 10
0.0
 20
0.0
 30
0.0
  9
$PLIMCHECK
 70
     0
  9
$PEXTMIN
 10
1.000000000000000E+20
 20
1.000000000000000E+20
 30
1.000000000000000E+20
  9
$PEXTMAX
 10
-1.000000000000000E+20
 20
-1.000000000000000E+20
 30
-1.000000000000000E+20
  9
$PLIMMIN
 10
0.0
 20
0.0
  9
$PLIMMAX
 10
12.0
 20
9.0
  9
$UNITMODE
 70
     0
  9
$VISRETAIN
 70
     1
  9
$PLINEGEN
 70
     0
  9
$PSLTSCALE
 70
     1
  9
$TREEDEPTH
 70
  3020
  9
$CMLSTYLE
  2
Standard
  9
$CMLJUST
 70
     0
  9
$CMLSCALE
 40
1.0
  9
$PROXYGRAPHICS
 70
     1
  9
$MEASUREMENT
 70
     0
  9
$CELWEIGHT
370
    -1
  9
$ENDCAPS
280
     0
  9
$JOINSTYLE
280
     0
  9
$LWDISPLAY
290
     1
  9
$INSUNITS
 70
     1
  9
$HYPERLINKBASE
  1

  9
$STYLESHEET
  1

  9
$XEDIT
290
     1
  9
$CEPSNTYPE
380
     0
  9
$PSTYLEMODE
290
     1
  9
$FINGERPRINTGUID
  2
{E6511EBF-6BA4-B943-B847-5394C39FFF5E}
  9
$VERSIONGUID
  2
{673B44B2-889F-8447-A295-6423A1F24CF4}
  9
$EXTNAMES
290
     1
  9
$PSVPSCALE
 40
0.0
  9
$OLESTARTUP
290
     0
  9
$SORTENTS
280
   127
  9
$INDEXCTL
280
     0
  9
$HIDETEXT
280
     1
  9
$XCLIPFRAME
280
     2
  9
$HALOGAP
280
     0
  9
$OBSCOLOR
 70
   257
  9
$OBSLTYPE
280
     0
  9
$INTERSECTIONDISPLAY
280
     0
  9
$INTERSECTIONCOLOR
 70
   257
  9
$DIMASSOC
280
     2
  9
$PROJECTNAME
  1

  9
$CAMERADISPLAY
290
     0
  9
$LENSLENGTH
 40
50.0
  9
$CAMERAHEIGHT
 40
0.0
  9
$STEPSPERSEC
 40
2.0
  9
$STEPSIZE
 40
6.0
  9
$3DDWFPREC
 40
2.0
  9
$PSOLWIDTH
 40
0.25
  9
$PSOLHEIGHT
 40
4.0
  9
$LOFTANG1
 40
1.570796326794896
  9
$LOFTANG2
 40
1.570796326794896
  9
$LOFTMAG1
 40
0.0
  9
$LOFTMAG2
 40
0.0
  9
$LOFTPARAM
 70
     7
  9
$LOFTNORMALS
280
     1
  9
$LATITUDE
 40
37.795
  9
$LONGITUDE
 40
-122.394
  9
$NORTHDIRECTION
 40
0.0
  9
$TIMEZONE
 70
 -8000
  9
$LIGHTGLYPHDISPLAY
280
     1
  9
$TILEMODELIGHTSYNCH
280
     1
  9
$CMATERIAL
347
11
  9
$SOLIDHIST
280
     0
  9
$SHOWHIST
280
     1
  9
$DWFFRAME
280
     2
  9
$DGNFRAME
280
     0
  9
$REALWORLDSCALE
290
     1
  9
$INTERFERECOLOR
 62
     1
  9
$INTERFEREOBJVS
345
33
  9
$INTERFEREVPVS
346
30
  9
$CSHADOW
280
     0
  9
$SHADOWPLANELOCATION
 40
0.0
  0
ENDSEC
  0
SECTION
  2
CLASSES
  0
CLASS
  1
ACDBDICTIONARYWDFLT
  2
AcDbDictionaryWithDefault
  3
ObjectDBX Classes
 90
        0
 91
        1
280
     0
281
     0
  0
CLASS
  1
MATERIAL
  2
AcDbMaterial
  3
ObjectDBX Classes
 90
     1153
 91
        3
280
     0
281
     0
  0
CLASS
  1
VISUALSTYLE
  2
AcDbVisualStyle
  3
ObjectDBX Classes
 90
     4095
 91
       24
280
     0
281
     0
  0
CLASS
  1
SCALE
  2
AcDbScale
  3
ObjectDBX Classes
 90
     1153
 91
       17
280
     0
281
     0
  0
CLASS
  1
TABLESTYLE
  2
AcDbTableStyle
  3
ObjectDBX Classes
 90
     4095
 91
        1
280
     0
281
     0
  0
CLASS
  1
MLEADERSTYLE
  2
AcDbMLeaderStyle
  3
ACDB_MLEADERSTYLE_CLASS
 90
     4095
 91
        1
280
     0
281
     0
  0
CLASS
  1
ACDBSECTIONVIEWSTYLE
  2
AcDbSectionViewStyle
  3
ObjectDBX Classes
 90
     1025
 91
        1
280
     0
281
     0
  0
CLASS
  1
ACDBDETAILVIEWSTYLE
  2
AcDbDetailViewStyle
  3
ObjectDBX Classes
 90
     1025
 91
        1
280
     0
281
     0
  0
CLASS
  1
DICTIONARYVAR
  2
AcDbDictionaryVar
  3
ObjectDBX Classes
 90
        0
 91
        5
280
     0
281
     0
  0
CLASS
  1
CELLSTYLEMAP
  2
AcDbCellStyleMap
  3
ObjectDBX Classes
 90
     1152
 91
        1
280
     0
281
     0
  0
ENDSEC
  0
SECTION
  2
TABLES
  0
TABLE
  2
VPORT
  5
8
330
0
100
AcDbSymbolTable
 70
     1
  0
VPORT
  5
57
330
8
100
AcDbSymbolTableRecord
100
AcDbViewportTableRecord
  2
*Active
 70
     0
 10
0.0
 20
0.0
 11
1.0
 21
1.0
 12
0.0
 22
0.0
 13
0.0
 23
0.0
 14
1.0
 24
1.0
 15
0.0
 25
0.0
 16
0.0
 26
0.0
 36
1.0
 17
7.354166666666666
 27
10.99305555555555
 37
0.0
 40
24.40916666666666
 41
1.373766686012768
 42
50.0
 43
0.0
 44
0.0
 50
0.0
 51
0.0
 71
     0
 72
   100
 73
     1
 74
     1
 75
     0
 76
     0
 77
     0
 78
     0
281
     0
 65
     1
110
0.0
120
0.0
130
0.0
111
1.0
121
0.0
131
0.0
112
0.0
122
1.0
132
0.0
 79
     0
146
0.0
 60
     3
 61
     5
292
     1
282
     1
141
0.0
142
0.0
 63
   250
421
  3355443
  0
ENDTAB
  0
TABLE
  2
LTYPE
  5
5
330
0
100
AcDbSymbolTable
 70
     1
  0
LTYPE
  5
5B
330
5
100
AcDbSymbolTableRecord
100
AcDbLinetypeTableRecord
  2
ByBlock
 70
     0
  3

 72
    65
 73
     0
 40
0.0
  0
LTYPE
  5
5C
330
5
100
AcDbSymbolTableRecord
100
AcDbLinetypeTableRecord
  2
ByLayer
 70
     0
  3

 72
    65
 73
     0
 40
0.0
  0
LTYPE
  5
5D
330
5
100
AcDbSymbolTableRecord
100
AcDbLinetypeTableRecord
  2
Continuous
 70
     0
  3
Solid line
 72
    65
 73
     0
 40
0.0
  0
ENDTAB
  0
TABLE
  2
LAYER
  5
2
330
0
100
AcDbSymbolTable
 70
     3
  0
LAYER
  5
54
330
2
100
AcDbSymbolTableRecord
100
AcDbLayerTableRecord
  2
0
 70
     0
 62
     7
  6
Continuous
370
    -3
390
F
347
21
348
0
  0
LAYER
  5
78
330
2
100
AcDbSymbolTableRecord
100
AcDbLayerTableRecord
  2
Layer 1
 70
     0
 62
     7
  6
Continuous
370
     0
390
F
347
21
348
0
  0
LAYER
  5
C8
330
2
100
AcDbSymbolTableRecord
100
AcDbLayerTableRecord
  2
Layer 2
 70
     0
 62
     7
  6
Continuous
370
     0
390
F
347
21
348
0
  0
ENDTAB
  0
TABLE
  2
STYLE
  5
3
330
0
100
AcDbSymbolTable
 70
     2
  0
STYLE
  5
55
330
3
100
AcDbSymbolTableRecord
100
AcDbTextStyleTableRecord
  2
Standard
 70
     0
 40
0.0
 41
1.0
 50
0.0
 71
     0
 42
0.2
  3
txt
  4

  0
STYLE
  5
5A
330
3
100
AcDbSymbolTableRecord
100
AcDbTextStyleTableRecord
  2
Annotative
 70
     0
 40
0.0
 41
1.0
 50
0.0
 71
     0
 42
0.2
  3
txt
  4

1001
AcadAnnotative
1000
AnnotativeData
1002
{
1070
     1
1070
     1
1002
}
  0
ENDTAB
  0
TABLE
  2
VIEW
  5
6
330
0
100
AcDbSymbolTable
 70
     0
  0
ENDTAB
  0
TABLE
  2
UCS
  5
7
330
0
100
AcDbSymbolTable
 70
     0
  0
ENDTAB
  0
TABLE
  2
APPID
  5
9
330
0
100
AcDbSymbolTable
 70
     2
  0
APPID
  5
56
330
9
100
AcDbSymbolTableRecord
100
AcDbRegAppTableRecord
  2
ACAD
 70
     0
  0
APPID
  5
5E
330
9
100
AcDbSymbolTableRecord
100
AcDbRegAppTableRecord
  2
AcadAnnotative
 70
     0
  0
ENDTAB
  0
TABLE
  2
DIMSTYLE
  5
A
330
0
100
AcDbSymbolTable
 70
     2
100
AcDbDimStyleTable
 71
     0
  0
DIMSTYLE
105
58
330
A
100
AcDbSymbolTableRecord
100
AcDbDimStyleTableRecord
  2
Standard
 70
     0
340
55
  0
DIMSTYLE
105
59
330
A
100
AcDbSymbolTableRecord
100
AcDbDimStyleTableRecord
  2
Annotative
 70
     0
340
55
1001
AcadAnnotative
1000
AnnotativeData
1002
{
1070
     1
1070
     1
1002
}
  0
ENDTAB
  0
TABLE
  2
BLOCK_RECORD
  5
1
330
0
100
AcDbSymbolTable
 70
     3
  0
BLOCK_RECORD
  5
70
330
1
100
AcDbSymbolTableRecord
100
AcDbBlockTableRecord
  2
*Model_Space
340
73
 70
     0
280
     1
281
     0
  0
BLOCK_RECORD
  5
6C
330
1
100
AcDbSymbolTableRecord
100
AcDbBlockTableRecord
  2
*Paper_Space
340
6F
 70
     0
280
     1
281
     0
  0
BLOCK_RECORD
  5
74
330
1
100
AcDbSymbolTableRecord
100
AcDbBlockTableRecord
  2
*Paper_Space0
340
77
 70
     0
280
     1
281
     0
  0
BLOCK_RECORD
  5
AC
330
1
100
AcDbSymbolTableRecord
100
AcDbBlockTableRecord
  2
Block_0
340
0
102
{BLKREFS
331
AD
102
}
 70
     0
280
     1
281
     0
  0
BLOCK_RECORD
  5
C9
330
1
100
AcDbSymbolTableRecord
100
AcDbBlockTableRecord
  2
Block_1
340
0
102
{BLKREFS
331
CA
102
}
 70
     0
280
     1
281
     0
  0
ENDTAB
  0
ENDSEC
  0
SECTION
  2
BLOCKS
  0
BLOCK
  5
71
330
70
100
AcDbEntity
  8
0
100
AcDbBlockBegin
  2
*Model_Space
 70
     0
 10
0.0
 20
0.0
 30
0.0
  3
*Model_Space
  1

  0
ENDBLK
  5
72
330
70
100
AcDbEntity
  8
0
100
AcDbBlockEnd
  0
BLOCK
  5
6D
330
6C
100
AcDbEntity
 67
     1
  8
0
100
AcDbBlockBegin
  2
*Paper_Space
 70
     0
 10
0.0
 20
0.0
 30
0.0
  3
*Paper_Space
  1

  0
ENDBLK
  5
6E
330
6C
100
AcDbEntity
 67
     1
  8
0
100
AcDbBlockEnd
  0
BLOCK
  5
75
330
74
100
AcDbEntity
 67
     1
  8
0
100
AcDbBlockBegin
  2
*Paper_Space0
 70
     0
 10
0.0
 20
0.0
 30
0.0
  3
*Paper_Space0
  1

  0
ENDBLK
  5
76
330
74
100
AcDbEntity
 67
     1
  8
0
100
AcDbBlockEnd
  0
BLOCK
  5
AE
330
AC
100
AcDbEntity
  8
0
100
AcDbBlockBegin
  2
Block_0
 70
     0
 10
0.0
 20
0.0
 30
0.0
  3
Block_0
  1

  0
LWPOLYLINE
  5
B0
330
AC
100
AcDbEntity
  8
Layer 1
100
AcDbPolyline
 90
        5
 70
     0
 43
0.0
 10
8.357514778773014
 20
6.893760018878512
 10
7.553347773022146
 20
7.119593487845526
 10
7.553347773022146
 20
7.19709457291497
 10
8.357514778773014
 20
6.971261103947957
 10
8.357514778773014
 20
6.893760018878512
  0
HATCH
  5
B1
330
AC
100
AcDbEntity
  8
Layer 1
 62
    18
420
        0
440
 33554687
100
AcDbHatch
 10
0.0
 20
0.0
 30
0.0
210
0.0
220
0.0
230
1.0
  2
SOLID
 70
     1
 71
     1
 91
        1
 92
        3
 72
     0
 73
     1
 93
        5
 10
8.357514778773014
 20
6.893760018878512
 10
7.553347773022146
 20
7.119593487845526
 10
7.553347773022146
 20
7.19709457291497
 10
8.357514778773014
 20
6.971261103947957
 10
8.357514778773014
 20
6.893760018878512
 97
        0
 75
     2
 76
     1
 98
        1
 10
0.0
 20
0.0
450
        0
451
        0
460
0.0
461
0.0
452
        0
462
0.0
453
        0
470

  0
LWPOLYLINE
  5
B2
330
AC
100
AcDbEntity
  8
Layer 1
100
AcDbPolyline
 90
        4
 70
     1
 43
0.0
 10
7.343347840838987
 20
7.196260425779554
 10
7.343347840838987
 20
6.892927567164102
 10
8.59168124198916
 20
6.892927567164102
 10
8.59168124198916
 20
7.196260425779554
  0
ENDBLK
  5
AF
330
AC
100
AcDbEntity
  8
0
100
AcDbBlockEnd
  0
BLOCK
  5
CB
330
C9
100
AcDbEntity
  8
0
100
AcDbBlockBegin
  2
Block_1
 70
     0
 10
0.0
 20
0.0
 30
0.0
  3
Block_1
  1

  0
SPLINE
  5
CD
330
C9
100
AcDbEntity
  8
Layer 2
100
AcDbSpline
210
0.0
220
0.0
230
1.0
 70
     9
 71
     3
 72
    17
 73
    13
 74
     0
 42
0.0000000001
 43
0.0000000001
 40
0.0
 40
0.0
 40
0.0
 40
0.0
 40
1.0
 40
1.0
 40
1.0
 40
2.0
 40
2.0
 40
2.0
 40
3.0
 40
3.0
 40
3.0
 40
4.0
 40
4.0
 40
4.0
 40
4.0
 10
-8.241985867352303
 20
0.1808059843827626
 30
0.0
 10
-8.467940557231511
 20
0.1808059843827626
 30
0.0
 10
-8.65181648691656
 20
-0.0030702770556875
 30
0.0
 10
-8.65181648691656
 20
-0.2291110569182516
 30
0.0
 10
-8.65181648691656
 20
-0.4551067183309291
 30
0.0
 10
-8.467940557231511
 20
-0.638982979769177
 30
0.0
 10
-8.241985867352303
 20
-0.638982979769177
 30
0.0
 10
-8.015945916872926
 20
-0.638982979769177
 30
0.0
 10
-7.832069987187928
 20
-0.4551067183309291
 30
0.0
 10
-7.832069987187928
 20
-0.2291110569182516
 30
0.0
 10
-7.832069987187928
 20
-0.0030702770556875
 30
0.0
 10
-8.015945916872926
 20
0.1808059843827626
 30
0.0
 10
-8.241985867352303
 20
0.1808059843827626
 30
0.0
  0
SPLINE
  5
CE
330
C9
100
AcDbEntity
  8
Layer 2
100
AcDbSpline
210
0.0
220
0.0
230
1.0
 70
     9
 71
     3
 72
    17
 73
    13
 74
     0
 42
0.0000000001
 43
0.0000000001
 40
0.0
 40
0.0
 40
0.0
 40
0.0
 40
1.0
 40
1.0
 40
1.0
 40
2.0
 40
2.0
 40
2.0
 40
3.0
 40
3.0
 40
3.0
 40
4.0
 40
4.0
 40
4.0
 40
4.0
 10
-8.241985867352303
 20
-0.662303910303308
 30
0.0
 10
-8.480815737235477
 20
-0.662303910303308
 30
0.0
 10
-8.675136671005626
 20
-0.4679814007050583
 30
0.0
 10
-8.675136671005626
 20
-0.2291110569182516
 30
0.0
 10
-8.675136671005626
 20
0.0098044053184417
 30
0.0
 10
-8.480815737235477
 20
0.2041693793402778
 30
0.0
 10
-8.241985867352303
 20
0.2041693793402778
 30
0.0
 10
-8.003113533045683
 20
0.2041693793402778
 30
0.0
 10
-7.808749886037162
 20
0.0098044053184417
 30
0.0
 10
-7.808749886037162
 20
-0.2291110569182516
 30
0.0
 10
-7.808749886037162
 20
-0.4679814007050583
 30
0.0
 10
-8.003113533045683
 20
-0.662303910303308
 30
0.0
 10
-8.241985867352303
 20
-0.662303910303308
 30
0.0
  0
HATCH
  5
CF
330
C9
100
AcDbEntity
  8
Layer 2
 62
   250
420
  2170655
440
 33554687
100
AcDbHatch
 10
0.0
 20
0.0
 30
0.0
210
0.0
220
0.0
230
1.0
  2
SOLID
 70
     1
 71
     1
 91
        2
 92
        1
 93
        2
 72
     4
 94
        3
 73
     0
 74
     0
 95
       17
 96
       13
 40
0.0
 40
0.0
 40
0.0
 40
0.0
 40
1.0
 40
1.0
 40
1.0
 40
2.0
 40
2.0
 40
2.0
 40
3.0
 40
3.0
 40
3.0
 40
4.0
 40
4.0
 40
4.0
 40
4.0
 10
-8.241985867352303
 20
0.1808059843827626
 10
-8.467940557231511
 20
0.1808059843827626
 10
-8.65181648691656
 20
-0.0030702770556875
 10
-8.65181648691656
 20
-0.2291110569182516
 10
-8.65181648691656
 20
-0.4551067183309291
 10
-8.467940557231511
 20
-0.638982979769177
 10
-8.241985867352303
 20
-0.638982979769177
 10
-8.015945916872926
 20
-0.638982979769177
 10
-7.832069987187928
 20
-0.4551067183309291
 10
-7.832069987187928
 20
-0.2291110569182516
 10
-7.832069987187928
 20
-0.0030702770556875
 10
-8.015945916872926
 20
0.1808059843827626
 10
-8.241985867352303
 20
0.1808059843827626
 97
        0
 72
     1
 10
-8.241985867352303
 20
0.1808059843827626
 11
-8.241985867352303
 21
0.1808059843827626
 97
        0
 92
        1
 93
        2
 72
     4
 94
        3
 73
     0
 74
     0
 95
       17
 96
       13
 40
0.0
 40
0.0
 40
0.0
 40
0.0
 40
1.0
 40
1.0
 40
1.0
 40
2.0
 40
2.0
 40
2.0
 40
3.0
 40
3.0
 40
3.0
 40
4.0
 40
4.0
 40
4.0
 40
4.0
 10
-8.241985867352303
 20
-0.662303910303308
 10
-8.480815737235477
 20
-0.662303910303308
 10
-8.675136671005626
 20
-0.4679814007050583
 10
-8.675136671005626
 20
-0.2291110569182516
 10
-8.675136671005626
 20
0.0098044053184417
 10
-8.480815737235477
 20
0.2041693793402778
 10
-8.241985867352303
 20
0.2041693793402778
 10
-8.003113533045683
 20
0.2041693793402778
 10
-7.808749886037162
 20
0.0098044053184417
 10
-7.808749886037162
 20
-0.2291110569182516
 10
-7.808749886037162
 20
-0.4679814007050583
 10
-8.003113533045683
 20
-0.662303910303308
 10
-8.241985867352303
 20
-0.662303910303308
 97
        0
 72
     1
 10
-8.241985867352303
 20
-0.6623039103033081
 11
-8.241985867352303
 21
-0.662303910303308
 97
        0
 75
     2
 76
     1
 98
        1
 10
0.0
 20
0.0
450
        0
451
        0
460
0.0
461
0.0
452
        0
462
0.0
453
        0
470

  0
LWPOLYLINE
  5
D0
330
C9
100
AcDbEntity
  8
Layer 2
100
AcDbPolyline
 90
        8
 70
     1
 43
0.0
 10
-8.431386484874249
 20
-0.2014826414340152
 10
-8.431386484874249
 20
-0.0365348967328221
 10
-8.479988095670591
 20
-0.0365348967328221
 10
-8.479988095670591
 20
-0.4121751862587896
 10
-8.431386484874249
 20
-0.4121751862587896
 10
-8.431386484874249
 20
-0.2456934142616471
 10
-8.377455754816057
 20
-0.2456934142616471
 10
-8.377455754816057
 20
-0.2014826414340152
  0
HATCH
  5
D1
330
C9
100
AcDbEntity
  8
Layer 2
 62
   250
420
  2170655
440
 33554687
100
AcDbHatch
 10
0.0
 20
0.0
 30
0.0
210
0.0
220
0.0
230
1.0
  2
SOLID
 70
     1
 71
     1
 91
        1
 92
        1
 93
        8
 72
     1
 10
-8.431386484874249
 20
-0.2014826414340152
 11
-8.431386484874249
 21
-0.0365348967328222
 72
     1
 10
-8.431386484874249
 20
-0.0365348967328221
 11
-8.479988095670591
 21
-0.0365348967328221
 72
     1
 10
-8.479988095670591
 20
-0.0365348967328221
 11
-8.479988095670591
 21
-0.4121751862587896
 72
     1
 10
-8.479988095670591
 20
-0.4121751862587896
 11
-8.431386484874249
 21
-0.4121751862587896
 72
     1
 10
-8.431386484874249
 20
-0.4121751862587896
 11
-8.431386484874249
 21
-0.2456934142616471
 72
     1
 10
-8.431386484874249
 20
-0.2456934142616471
 11
-8.377455754816057
 21
-0.2456934142616471
 72
     1
 10
-8.377455754816057
 20
-0.2456934142616471
 11
-8.377455754816057
 21
-0.2014826414340152
 72
     1
 10
-8.377455754816057
 20
-0.2014826414340152
 11
-8.431386484874249
 21
-0.2014826414340152
 97
        1
330
D0
 75
     2
 76
     1
 98
        1
 10
0.0
 20
0.0
450
        0
451
        0
460
0.0
461
0.0
452
        0
462
0.0
453
        0
470

  0
LWPOLYLINE
  5
D2
330
C9
100
AcDbEntity
  8
Layer 2
100
AcDbPolyline
 90
        8
 70
     1
 43
0.0
 10
-8.05189818872965
 20
-0.2014826414340152
 10
-8.05189818872965
 20
-0.0365348967328221
 10
-8.003339125295079
 20
-0.0365348967328221
 10
-8.003339125295079
 20
-0.4121751862587896
 10
-8.05189818872965
 20
-0.4121751862587896
 10
-8.05189818872965
 20
-0.2456934142616471
 10
-8.105743575249396
 20
-0.2456934142616471
 10
-8.105743575249396
 20
-0.2014826414340152
  0
HATCH
  5
D3
330
C9
100
AcDbEntity
  8
Layer 2
 62
   250
420
  2170655
440
 33554687
100
AcDbHatch
 10
0.0
 20
0.0
 30
0.0
210
0.0
220
0.0
230
1.0
  2
SOLID
 70
     1
 71
     1
 91
        1
 92
        1
 93
        8
 72
     1
 10
-8.05189818872965
 20
-0.2014826414340152
 11
-8.05189818872965
 21
-0.0365348967328222
 72
     1
 10
-8.05189818872965
 20
-0.0365348967328221
 11
-8.003339125295079
 21
-0.0365348967328221
 72
     1
 10
-8.003339125295079
 20
-0.0365348967328221
 11
-8.003339125295079
 21
-0.4121751862587896
 72
     1
 10
-8.003339125295079
 20
-0.4121751862587896
 11
-8.05189818872965
 21
-0.4121751862587896
 72
     1
 10
-8.05189818872965
 20
-0.4121751862587896
 11
-8.05189818872965
 21
-0.2456934142616471
 72
     1
 10
-8.05189818872965
 20
-0.2456934142616471
 11
-8.105743575249396
 21
-0.2456934142616471
 72
     1
 10
-8.105743575249396
 20
-0.2456934142616471
 11
-8.105743575249396
 21
-0.2014826414340152
 72
     1
 10
-8.105743575249396
 20
-0.2014826414340152
 11
-8.05189818872965
 21
-0.2014826414340152
 97
        1
330
D2
 75
     2
 76
     1
 98
        1
 10
0.0
 20
0.0
450
        0
451
        0
460
0.0
461
0.0
452
        0
462
0.0
453
        0
470

  0
SPLINE
  5
D4
330
C9
100
AcDbEntity
  8
Layer 2
100
AcDbSpline
210
0.0
220
0.0
230
1.0
 70
     9
 71
     3
 72
   155
 73
   151
 74
     0
 42
0.0000000001
 43
0.0000000001
 40
0.0
 40
0.0
 40
0.0
 40
0.0
 40
1.0
 40
1.0
 40
1.0
 40
2.0
 40
2.0
 40
2.0
 40
3.0
 40
3.0
 40
3.0
 40
4.0
 40
4.0
 40
4.0
 40
5.0
 40
5.0
 40
5.0
 40
6.0
 40
6.0
 40
6.0
 40
7.0
 40
7.0
 40
7.0
 40
8.0
 40
8.0
 40
8.0
 40
9.0
 40
9.0
 40
9.0
 40
10.0
 40
10.0
 40
10.0
 40
11.0
 40
11.0
 40
11.0
 40
12.0
 40
12.0
 40
12.0
 40
13.0
 40
13.0
 40
13.0
 40
14.0
 40
14.0
 40
14.0
 40
15.0
 40
15.0
 40
15.0
 40
16.0
 40
16.0
 40
16.0
 40
17.0
 40
17.0
 40
17.0
 40
18.0
 40
18.0
 40
18.0
 40
19.0
 40
19.0
 40
19.0
 40
20.0
 40
20.0
 40
20.0
 40
21.0
 40
21.0
 40
21.0
 40
22.0
 40
22.0
 40
22.0
 40
23.0
 40
23.0
 40
23.0
 40
24.0
 40
24.0
 40
24.0
 40
25.0
 40
25.0
 40
25.0
 40
26.0
 40
26.0
 40
26.0
 40
27.0
 40
27.0
 40
27.0
 40
28.0
 40
28.0
 40
28.0
 40
29.0
 40
29.0
 40
29.0
 40
30.0
 40
30.0
 40
30.0
 40
31.0
 40
31.0
 40
31.0
 40
32.0
 40
32.0
 40
32.0
 40
33.0
 40
33.0
 40
33.0
 40
34.0
 40
34.0
 40
34.0
 40
35.0
 40
35.0
 40
35.0
 40
36.0
 40
36.0
 40
36.0
 40
37.0
 40
37.0
 40
37.0
 40
38.0
 40
38.0
 40
38.0
 40
39.0
 40
39.0
 40
39.0
 40
40.0
 40
40.0
 40
40.0
 40
41.0
 40
41.0
 40
41.0
 40
42.0
 40
42.0
 40
42.0
 40
43.0
 40
43.0
 40
43.0
 40
44.0
 40
44.0
 40
44.0
 40
45.0
 40
45.0
 40
45.0
 40
46.0
 40
46.0
 40
46.0
 40
47.0
 40
47.0
 40
47.0
 40
48.0
 40
48.0
 40
48.0
 40
49.0
 40
49.0
 40
49.0
 40
50.0
 40
50.0
 40
50.0
 40
50.0
 10
-8.114287135250087
 20
-0.2714507410890595
 30
0.0
 10
-8.121406975929858
 20
-0.2572543535363062
 30
0.0
 10
-8.131212442575563
 20
-0.2451891492334855
 30
0.0
 10
-8.143149590101415
 20
-0.2352975926045878
 30
0.0
 10
-8.154703230803281
 20
-0.2257908698124488
 30
0.0
 10
-8.167834109669355
 20
-0.2181180793066535
 30
0.0
 10
-8.182542558452951
 20
-0.2124039603310039
 30
0.0
 10
-8.196312974758408
 20
-0.2071171396158509
 30
0.0
 10
-8.210594954664632
 20
-0.2029397019625523
 30
0.0
 10
-8.22466386600883
 20
-0.1990170508495592
 30
0.0
 10
-8.236089449933867
 20
-0.195818948961207
 30
0.0
 10
-8.24482924201623
 20
-0.1927508943694092
 30
0.0
 10
-8.259068591622382
 20
-0.1879763007617233
 30
0.0
 10
-8.271219056525232
 20
-0.1841810429191355
 30
0.0
 10
-8.282474202188305
 20
-0.1796187714284214
 30
0.0
 10
-8.292450272972612
 20
-0.1740771641728113
 30
0.0
 10
-8.301616368055672
 20
-0.1687054146108898
 30
0.0
 10
-8.309247606459582
 20
-0.1618421021764536
 30
0.0
 10
-8.314875137821925
 20
-0.1539967999505683
 30
0.0
 10
-8.320076449121971
 20
-0.1465363315620986
 30
0.0
 10
-8.322634433002702
 20
-0.1366872393562819
 30
0.0
 10
-8.322634433002702
 20
-0.1247945467738039
 30
0.0
 10
-8.322634433002702
 20
-0.1166519935840269
 30
0.0
 10
-8.321142289561963
 20
-0.1086368336645036
 30
0.0
 10
-8.318115289442175
 20
-0.1010463179791259
 30
0.0
 10
-8.315131002560683
 20
-0.0937132428606573
 30
0.0
 10
-8.310441337799804
 20
-0.0868074660027358
 30
0.0
 10
-8.304089091336271
 20
-0.0807960960631438
 30
0.0
 10
-8.297566157795838
 20
-0.0746573328533486
 30
0.0
 10
-8.289082230452221
 20
-0.0696704171285395
 30
0.0
 10
-8.279106159667865
 20
-0.0658751592860022
 30
0.0
 10
-8.268533098805948
 20
-0.0619949725963428
 30
0.0
 10
-8.25578589264046
 20
-0.0601185758866652
 30
0.0
 10
-8.241162870333658
 20
-0.0601185758866652
 30
0.0
 10
-8.227733413490442
 20
-0.0601185758866652
 30
0.0
 10
-8.216222568965324
 20
-0.0614827454889261
 30
0.0
 10
-8.206374389081183
 20
-0.0640412269996583
 30
0.0
 10
-8.196654017158936
 20
-0.0668544950508476
 30
0.0
 10
-8.188084746276835
 20
-0.0700525969392503
 30
0.0
 10
-8.180879810873596
 20
-0.0742300345928015
 30
0.0
 10
-8.174186439071224
 20
-0.0781102212822083
 30
0.0
 10
-8.168004630869644
 20
-0.0826724927728214
 30
0.0
 10
-8.162931376346477
 20
-0.0874046219571735
 30
0.0
 10
-8.157602257084628
 20
-0.0926489782488918
 30
0.0
 10
-8.153509416524672
 20
-0.0972085957129012
 30
0.0
 10
-8.150397238743039
 20
-0.1012612941225497
 30
0.0
 10
-8.150397238743039
 20
-0.1012612941225497
 30
0.0
 10
-8.144215513479769
 20
-0.1096586338528343
 30
0.0
 10
-8.144215513479769
 20
-0.1096586338528343
 30
0.0
 10
-8.144215513479769
 20
-0.1096586338528343
 30
0.0
 10
-8.10938440192721
 20
-0.0800290824152196
 30
0.0
 10
-8.10938440192721
 20
-0.0800290824152196
 30
0.0
 10
-8.10938440192721
 20
-0.0800290824152196
 30
0.0
 10
-8.114713521189134
 20
-0.072611078450033
 30
0.0
 10
-8.114713521189134
 20
-0.072611078450033
 30
0.0
 10
-8.118976717072643
 20
-0.0667695662040791
 30
0.0
 10
-8.124732305211864
 20
-0.0603760164537764
 30
0.0
 10
-8.131937240615091
 20
-0.0532977278757143
 30
0.0
 10
-8.139014285118111
 20
-0.0463919510178938
 30
0.0
 10
-8.147754077200463
 20
-0.0401682589611786
 30
0.0
 10
-8.158071190385346
 20
-0.0343267467152752
 30
0.0
 10
-8.167834109669355
 20
-0.0289549971532526
 30
0.0
 10
-8.179856600733627
 20
-0.0242228679690015
 30
0.0
 10
-8.193499209077179
 20
-0.0202577524327757
 30
0.0
 10
-8.206971213282169
 20
-0.0165898878602396
 30
0.0
 10
-8.222660158967325
 20
-0.0147586096006004
 30
0.0
 10
-8.23992642575504
 20
-0.0147586096006004
 30
0.0
 10
-8.260091801762388
 20
-0.0147586096006004
 30
0.0
 10
-8.278466705166843
 20
-0.0175718776517897
 30
0.0
 10
-8.294453980014168
 20
-0.0231134849073998
 30
0.0
 10
-8.310441337799804
 20
-0.0286550921630098
 30
0.0
 10
-8.32429709764373
 20
-0.0365428588122793
 30
0.0
 10
-8.335637420968572
 20
-0.0463919510178938
 30
0.0
 10
-8.347148265493741
 20
-0.0561534603503889
 30
0.0
 10
-8.356015948476271
 20
-0.0681337358061379
 30
0.0
 10
-8.362027235477613
 20
-0.0813932520173795
 30
0.0
 10
-8.3679106315787
 20
-0.0948650903456433
 30
0.0
 10
-8.370937548760227
 20
-0.1090190134752649
 30
0.0
 10
-8.370937548760227
 20
-0.1235577704416957
 30
0.0
 10
-8.370937548760227
 20
-0.1446174704289357
 30
0.0
 10
-8.366930051738791
 20
-0.1623092108339834
 30
0.0
 10
-8.358829714157485
 20
-0.1764206695400692
 30
0.0
 10
-8.350644198914336
 20
-0.1899376263182199
 30
0.0
 10
-8.340156481590813
 20
-0.2012331629465128
 30
0.0
 10
-8.327409275425376
 20
-0.2098454788202717
 30
0.0
 10
-8.315301523760947
 20
-0.2183728658471611
 30
0.0
 10
-8.301019460916361
 20
-0.2251087850114446
 30
0.0
 10
-8.285202624331013
 20
-0.2303531413031123
 30
0.0
 10
-8.271091165625028
 20
-0.2351277349108992
 30
0.0
 10
-8.261882357303584
 20
-0.2384532300694546
 30
0.0
 10
-8.245042393516579
 20
-0.2436551219377381
 30
0.0
 10
-8.233019985390594
 20
-0.2472778680602864
 30
0.0
 10
-8.220997411387985
 20
-0.2510306614796415
 30
0.0
 10
-8.209443853624481
 20
-0.2552930279797591
 30
0.0
 10
-8.198402025338383
 20
-0.2592581435162376
 30
0.0
 10
-8.188511132215845
 20
-0.2643724525110984
 30
0.0
 10
-8.1800698351723
 20
-0.2705138697474973
 30
0.0
 10
-8.171756429028972
 20
-0.2768649550744158
 30
0.0
 10
-8.165105604588283
 20
-0.2844528167333919
 30
0.0
 10
-8.160288048927251
 20
-0.2930226681837161
 30
0.0
 10
-8.155385315604361
 20
-0.301550055210555
 30
0.0
 10
-8.152869962023638
 20
-0.3125483408749561
 30
0.0
 10
-8.152869962023638
 20
-0.3250833078617587
 30
0.0
 10
-8.152869962023638
 20
-0.3369361900475067
 30
0.0
 10
-8.155129450865652
 20
-0.347637224748016
 30
0.0
 10
-8.159520703526002
 20
-0.3568865069728923
 30
0.0
 10
-8.16421036828688
 20
-0.3660110499540173
 30
0.0
 10
-8.170392093550111
 20
-0.3734715183427903
 30
0.0
 10
-8.178151305792601
 20
-0.3791405188686036
 30
0.0
 10
-8.186294190735679
 20
-0.3853244005284877
 30
0.0
 10
-8.196398235358502
 20
-0.3900565297125871
 30
0.0
 10
-8.207781188983492
 20
-0.3930821198808492
 30
0.0
 10
-8.219334746746969
 20
-0.3962377573460192
 30
0.0
 10
-8.232465708551355
 20
-0.3980716896321104
 30
0.0
 10
-8.246918209657906
 20
-0.3980716896321104
 30
0.0
 10
-8.271901141326338
 20
-0.3980716896321104
 30
0.0
 10
-8.293047097173598
 20
-0.3931670487277188
 30
0.0
 10
-8.309972404499072
 20
-0.3840451597729952
 30
0.0
 10
-8.326386065285406
 20
-0.3749206167919207
 30
0.0
 10
-8.340796019030209
 20
-0.3632402463262123
 30
0.0
 10
-8.352903770694613
 20
-0.349213716467097
 30
0.0
 10
-8.352903770694613
 20
-0.349213716467097
 30
0.0
 10
-8.387948033747534
 20
-0.3829357767113934
 30
0.0
 10
-8.387948033747534
 20
-0.3829357767113934
 30
0.0
 10
-8.382405845923623
 20
-0.3899264824159319
 30
0.0
 10
-8.375712391182888
 20
-0.3968349133002044
 30
0.0
 10
-8.367740110378399
 20
-0.4034434391940825
 30
0.0
 10
-8.358616562657136
 20
-0.4110313008530082
 30
0.0
 10
-8.347787885871412
 20
-0.4179370777109297
 30
0.0
 10
-8.335424269468237
 20
-0.4239484476504711
 30
0.0
 10
-8.323614929904287
 20
-0.4298748887432441
 30
0.0
 10
-8.310100295399289
 20
-0.4346070179275456
 30
0.0
 10
-8.295008173915055
 20
-0.438572133463822
 30
0.0
 10
-8.280044026269377
 20
-0.441982557469449
 30
0.0
 10
-8.263800886683332
 20
-0.4439438830257435
 30
0.0
 10
-8.246918209657906
 20
-0.4439438830257435
 30
0.0
 10
-8.227392371089889
 20
-0.4439438830257435
 30
0.0
 10
-8.208676508223208
 20
-0.4413429370916776
 30
0.0
 10
-8.191367528197094
 20
-0.435886258682836
 30
0.0
 10
-8.173930574332466
 20
-0.4304720446974797
 30
0.0
 10
-8.158710727824756
 20
-0.4226692068950797
 30
0.0
 10
-8.145579766020306
 20
-0.4125228637255734
 30
0.0
 10
-8.132704586016302
 20
-0.4023340561324302
 30
0.0
 10
-8.122344842531358
 20
-0.3898415535690623
 30
0.0
 10
-8.114585713227205
 20
-0.3752205217821634
 30
0.0
 10
-8.106826335108141
 20
-0.3602969309783677
 30
0.0
 10
-8.103031989587027
 20
-0.3434571330680127
 30
0.0
 10
-8.103031989587027
 20
-0.3250833078617587
 30
0.0
 10
-8.103031989587027
 20
-0.3040660722979535
 30
0.0
 10
-8.106783787746394
 20
-0.2859470336323587
 30
0.0
 10
-8.114287135250087
 20
-0.2714507410890595
 30
0.0
  0
HATCH
  5
D5
330
C9
100
AcDbEntity
  8
Layer 2
 62
   250
420
  2170655
440
 33554687
100
AcDbHatch
 10
0.0
 20
0.0
 30
0.0
210
0.0
220
0.0
230
1.0
  2
SOLID
 70
     1
 71
     1
 91
        1
 92
        1
 93
        2
 72
     4
 94
        3
 73
     0
 74
     0
 95
      155
 96
      151
 40
0.0
 40
0.0
 40
0.0
 40
0.0
 40
1.0
 40
1.0
 40
1.0
 40
2.0
 40
2.0
 40
2.0
 40
3.0
 40
3.0
 40
3.0
 40
4.0
 40
4.0
 40
4.0
 40
5.0
 40
5.0
 40
5.0
 40
6.0
 40
6.0
 40
6.0
 40
7.0
 40
7.0
 40
7.0
 40
8.0
 40
8.0
 40
8.0
 40
9.0
 40
9.0
 40
9.0
 40
10.0
 40
10.0
 40
10.0
 40
11.0
 40
11.0
 40
11.0
 40
12.0
 40
12.0
 40
12.0
 40
13.0
 40
13.0
 40
13.0
 40
14.0
 40
14.0
 40
14.0
 40
15.0
 40
15.0
 40
15.0
 40
16.0
 40
16.0
 40
16.0
 40
17.0
 40
17.0
 40
17.0
 40
18.0
 40
18.0
 40
18.0
 40
19.0
 40
19.0
 40
19.0
 40
20.0
 40
20.0
 40
20.0
 40
21.0
 40
21.0
 40
21.0
 40
22.0
 40
22.0
 40
22.0
 40
23.0
 40
23.0
 40
23.0
 40
24.0
 40
24.0
 40
24.0
 40
25.0
 40
25.0
 40
25.0
 40
26.0
 40
26.0
 40
26.0
 40
27.0
 40
27.0
 40
27.0
 40
28.0
 40
28.0
 40
28.0
 40
29.0
 40
29.0
 40
29.0
 40
30.0
 40
30.0
 40
30.0
 40
31.0
 40
31.0
 40
31.0
 40
32.0
 40
32.0
 40
32.0
 40
33.0
 40
33.0
 40
33.0
 40
34.0
 40
34.0
 40
34.0
 40
35.0
 40
35.0
 40
35.0
 40
36.0
 40
36.0
 40
36.0
 40
37.0
 40
37.0
 40
37.0
 40
38.0
 40
38.0
 40
38.0
 40
39.0
 40
39.0
 40
39.0
 40
40.0
 40
40.0
 40
40.0
 40
41.0
 40
41.0
 40
41.0
 40
42.0
 40
42.0
 40
42.0
 40
43.0
 40
43.0
 40
43.0
 40
44.0
 40
44.0
 40
44.0
 40
45.0
 40
45.0
 40
45.0
 40
46.0
 40
46.0
 40
46.0
 40
47.0
 40
47.0
 40
47.0
 40
48.0
 40
48.0
 40
48.0
 40
49.0
 40
49.0
 40
49.0
 40
50.0
 40
50.0
 40
50.0
 40
50.0
 10
-8.114287135250087
 20
-0.2714507410890595
 10
-8.121406975929858
 20
-0.2572543535363062
 10
-8.131212442575563
 20
-0.2451891492334855
 10
-8.143149590101415
 20
-0.2352975926045878
 10
-8.154703230803281
 20
-0.2257908698124488
 10
-8.167834109669355
 20
-0.2181180793066535
 10
-8.182542558452951
 20
-0.2124039603310039
 10
-8.196312974758408
 20
-0.2071171396158509
 10
-8.210594954664632
 20
-0.2029397019625523
 10
-8.22466386600883
 20
-0.1990170508495592
 10
-8.236089449933867
 20
-0.195818948961207
 10
-8.24482924201623
 20
-0.1927508943694092
 10
-8.259068591622382
 20
-0.1879763007617233
 10
-8.271219056525232
 20
-0.1841810429191355
 10
-8.282474202188305
 20
-0.1796187714284214
 10
-8.292450272972612
 20
-0.1740771641728113
 10
-8.301616368055672
 20
-0.1687054146108898
 10
-8.309247606459582
 20
-0.1618421021764536
 10
-8.314875137821925
 20
-0.1539967999505683
 10
-8.320076449121971
 20
-0.1465363315620986
 10
-8.322634433002702
 20
-0.1366872393562819
 10
-8.322634433002702
 20
-0.1247945467738039
 10
-8.322634433002702
 20
-0.1166519935840269
 10
-8.321142289561963
 20
-0.1086368336645036
 10
-8.318115289442175
 20
-0.1010463179791259
 10
-8.315131002560683
 20
-0.0937132428606573
 10
-8.310441337799804
 20
-0.0868074660027358
 10
-8.304089091336271
 20
-0.0807960960631438
 10
-8.297566157795838
 20
-0.0746573328533486
 10
-8.289082230452221
 20
-0.0696704171285395
 10
-8.279106159667865
 20
-0.0658751592860022
 10
-8.268533098805948
 20
-0.0619949725963428
 10
-8.25578589264046
 20
-0.0601185758866652
 10
-8.241162870333658
 20
-0.0601185758866652
 10
-8.227733413490442
 20
-0.0601185758866652
 10
-8.216222568965324
 20
-0.0614827454889261
 10
-8.206374389081183
 20
-0.0640412269996583
 10
-8.196654017158936
 20
-0.0668544950508476
 10
-8.188084746276835
 20
-0.0700525969392503
 10
-8.180879810873596
 20
-0.0742300345928015
 10
-8.174186439071224
 20
-0.0781102212822083
 10
-8.168004630869644
 20
-0.0826724927728214
 10
-8.162931376346477
 20
-0.0874046219571735
 10
-8.157602257084628
 20
-0.0926489782488918
 10
-8.153509416524672
 20
-0.0972085957129012
 10
-8.150397238743039
 20
-0.1012612941225497
 10
-8.150397238743039
 20
-0.1012612941225497
 10
-8.144215513479769
 20
-0.1096586338528343
 10
-8.144215513479769
 20
-0.1096586338528343
 10
-8.144215513479769
 20
-0.1096586338528343
 10
-8.10938440192721
 20
-0.0800290824152196
 10
-8.10938440192721
 20
-0.0800290824152196
 10
-8.10938440192721
 20
-0.0800290824152196
 10
-8.114713521189134
 20
-0.072611078450033
 10
-8.114713521189134
 20
-0.072611078450033
 10
-8.118976717072643
 20
-0.0667695662040791
 10
-8.124732305211864
 20
-0.0603760164537764
 10
-8.131937240615091
 20
-0.0532977278757143
 10
-8.139014285118111
 20
-0.0463919510178938
 10
-8.147754077200463
 20
-0.0401682589611786
 10
-8.158071190385346
 20
-0.0343267467152752
 10
-8.167834109669355
 20
-0.0289549971532526
 10
-8.179856600733627
 20
-0.0242228679690015
 10
-8.193499209077179
 20
-0.0202577524327757
 10
-8.206971213282169
 20
-0.0165898878602396
 10
-8.222660158967325
 20
-0.0147586096006004
 10
-8.23992642575504
 20
-0.0147586096006004
 10
-8.260091801762388
 20
-0.0147586096006004
 10
-8.278466705166843
 20
-0.0175718776517897
 10
-8.294453980014168
 20
-0.0231134849073998
 10
-8.310441337799804
 20
-0.0286550921630098
 10
-8.32429709764373
 20
-0.0365428588122793
 10
-8.335637420968572
 20
-0.0463919510178938
 10
-8.347148265493741
 20
-0.0561534603503889
 10
-8.356015948476271
 20
-0.0681337358061379
 10
-8.362027235477613
 20
-0.0813932520173795
 10
-8.3679106315787
 20
-0.0948650903456433
 10
-8.370937548760227
 20
-0.1090190134752649
 10
-8.370937548760227
 20
-0.1235577704416957
 10
-8.370937548760227
 20
-0.1446174704289357
 10
-8.366930051738791
 20
-0.1623092108339834
 10
-8.358829714157485
 20
-0.1764206695400692
 10
-8.350644198914336
 20
-0.1899376263182199
 10
-8.340156481590813
 20
-0.2012331629465128
 10
-8.327409275425376
 20
-0.2098454788202717
 10
-8.315301523760947
 20
-0.2183728658471611
 10
-8.301019460916361
 20
-0.2251087850114446
 10
-8.285202624331013
 20
-0.2303531413031123
 10
-8.271091165625028
 20
-0.2351277349108992
 10
-8.261882357303584
 20
-0.2384532300694546
 10
-8.245042393516579
 20
-0.2436551219377381
 10
-8.233019985390594
 20
-0.2472778680602864
 10
-8.220997411387985
 20
-0.2510306614796415
 10
-8.209443853624481
 20
-0.2552930279797591
 10
-8.198402025338383
 20
-0.2592581435162376
 10
-8.188511132215845
 20
-0.2643724525110984
 10
-8.1800698351723
 20
-0.2705138697474973
 10
-8.171756429028972
 20
-0.2768649550744158
 10
-8.165105604588283
 20
-0.2844528167333919
 10
-8.160288048927251
 20
-0.2930226681837161
 10
-8.155385315604361
 20
-0.301550055210555
 10
-8.152869962023638
 20
-0.3125483408749561
 10
-8.152869962023638
 20
-0.3250833078617587
 10
-8.152869962023638
 20
-0.3369361900475067
 10
-8.155129450865652
 20
-0.347637224748016
 10
-8.159520703526002
 20
-0.3568865069728923
 10
-8.16421036828688
 20
-0.3660110499540173
 10
-8.170392093550111
 20
-0.3734715183427903
 10
-8.178151305792601
 20
-0.3791405188686036
 10
-8.186294190735679
 20
-0.3853244005284877
 10
-8.196398235358502
 20
-0.3900565297125871
 10
-8.207781188983492
 20
-0.3930821198808492
 10
-8.219334746746969
 20
-0.3962377573460192
 10
-8.232465708551355
 20
-0.3980716896321104
 10
-8.246918209657906
 20
-0.3980716896321104
 10
-8.271901141326338
 20
-0.3980716896321104
 10
-8.293047097173598
 20
-0.3931670487277188
 10
-8.309972404499072
 20
-0.3840451597729952
 10
-8.326386065285406
 20
-0.3749206167919207
 10
-8.340796019030209
 20
-0.3632402463262123
 10
-8.352903770694613
 20
-0.349213716467097
 10
-8.352903770694613
 20
-0.349213716467097
 10
-8.387948033747534
 20
-0.3829357767113934
 10
-8.387948033747534
 20
-0.3829357767113934
 10
-8.382405845923623
 20
-0.3899264824159319
 10
-8.375712391182888
 20
-0.3968349133002044
 10
-8.367740110378399
 20
-0.4034434391940825
 10
-8.358616562657136
 20
-0.4110313008530082
 10
-8.347787885871412
 20
-0.4179370777109297
 10
-8.335424269468237
 20
-0.4239484476504711
 10
-8.323614929904287
 20
-0.4298748887432441
 10
-8.310100295399289
 20
-0.4346070179275456
 10
-8.295008173915055
 20
-0.438572133463822
 10
-8.280044026269377
 20
-0.441982557469449
 10
-8.263800886683332
 20
-0.4439438830257435
 10
-8.246918209657906
 20
-0.4439438830257435
 10
-8.227392371089889
 20
-0.4439438830257435
 10
-8.208676508223208
 20
-0.4413429370916776
 10
-8.191367528197094
 20
-0.435886258682836
 10
-8.173930574332466
 20
-0.4304720446974797
 10
-8.158710727824756
 20
-0.4226692068950797
 10
-8.145579766020306
 20
-0.4125228637255734
 10
-8.132704586016302
 20
-0.4023340561324302
 10
-8.122344842531358
 20
-0.3898415535690623
 10
-8.114585713227205
 20
-0.3752205217821634
 10
-8.106826335108141
 20
-0.3602969309783677
 10
-8.103031989587027
 20
-0.3434571330680127
 10
-8.103031989587027
 20
-0.3250833078617587
 10
-8.103031989587027
 20
-0.3040660722979535
 10
-8.106783787746394
 20
-0.2859470336323587
 10
-8.114287135250087
 20
-0.2714507410890595
 97
        0
 72
     1
 10
-8.114287135250087
 20
-0.2714507410890595
 11
-8.114287135250087
 21
-0.2714507410890595
 97
        0
 75
     2
 76
     1
 98
        1
 10
0.0
 20
0.0
450
        0
451
        0
460
0.0
461
0.0
452
        0
462
0.0
453
        0
470

  0
SPLINE
  5
D6
330
C9
100
AcDbEntity
  8
Layer 2
100
AcDbSpline
210
0.0
220
0.0
230
1.0
 70
     9
 71
     3
 72
   149
 73
   145
 74
     0
 42
0.0000000001
 43
0.0000000001
 40
0.0
 40
0.0
 40
0.0
 40
0.0
 40
1.0
 40
1.0
 40
1.0
 40
2.0
 40
2.0
 40
2.0
 40
3.0
 40
3.0
 40
3.0
 40
4.0
 40
4.0
 40
4.0
 40
5.0
 40
5.0
 40
5.0
 40
6.0
 40
6.0
 40
6.0
 40
7.0
 40
7.0
 40
7.0
 40
8.0
 40
8.0
 40
8.0
 40
9.0
 40
9.0
 40
9.0
 40
10.0
 40
10.0
 40
10.0
 40
11.0
 40
11.0
 40
11.0
 40
12.0
 40
12.0
 40
12.0
 40
13.0
 40
13.0
 40
13.0
 40
14.0
 40
14.0
 40
14.0
 40
15.0
 40
15.0
 40
15.0
 40
16.0
 40
16.0
 40
16.0
 40
17.0
 40
17.0
 40
17.0
 40
18.0
 40
18.0
 40
18.0
 40
19.0
 40
19.0
 40
19.0
 40
20.0
 40
20.0
 40
20.0
 40
21.0
 40
21.0
 40
21.0
 40
22.0
 40
22.0
 40
22.0
 40
23.0
 40
23.0
 40
23.0
 40
24.0
 40
24.0
 40
24.0
 40
25.0
 40
25.0
 40
25.0
 40
26.0
 40
26.0
 40
26.0
 40
27.0
 40
27.0
 40
27.0
 40
28.0
 40
28.0
 40
28.0
 40
29.0
 40
29.0
 40
29.0
 40
30.0
 40
30.0
 40
30.0
 40
31.0
 40
31.0
 40
31.0
 40
32.0
 40
32.0
 40
32.0
 40
33.0
 40
33.0
 40
33.0
 40
34.0
 40
34.0
 40
34.0
 40
35.0
 40
35.0
 40
35.0
 40
36.0
 40
36.0
 40
36.0
 40
37.0
 40
37.0
 40
37.0
 40
38.0
 40
38.0
 40
38.0
 40
39.0
 40
39.0
 40
39.0
 40
40.0
 40
40.0
 40
40.0
 40
41.0
 40
41.0
 40
41.0
 40
42.0
 40
42.0
 40
42.0
 40
43.0
 40
43.0
 40
43.0
 40
44.0
 40
44.0
 40
44.0
 40
45.0
 40
45.0
 40
45.0
 40
46.0
 40
46.0
 40
46.0
 40
47.0
 40
47.0
 40
47.0
 40
48.0
 40
48.0
 40
48.0
 40
48.0
 10
-7.52060355991739
 20
-0.3406969455460663
 30
0.0
 10
-7.508026957890542
 20
-0.3558753228904202
 30
0.0
 10
-7.492977466706393
 20
-0.3682377781568801
 30
0.0
 10
-7.475412787818223
 20
-0.3778718942192225
 30
0.0
 10
-7.457890573353412
 20
-0.3874237354608441
 30
0.0
 10
-7.436531466005829
 20
-0.3922407934919647
 30
0.0
 10
-7.411420726375543
 20
-0.3922407934919647
 30
0.0
 10
-7.396968059392368
 20
-0.3922407934919647
 30
0.0
 10
-7.383751836987849
 20
-0.3905342544759756
 30
0.0
 10
-7.371772059161912
 20
-0.387251223740754
 30
0.0
 10
-7.359749485159353
 20
-0.3839257285821481
 30
0.0
 10
-7.349389658736021
 20
-0.3790237417041579
 30
0.0
 10
-7.340735210192128
 20
-0.37258507350412
 30
0.0
 10
-7.332038131348199
 20
-0.366106594906695
 30
0.0
 10
-7.325302046307342
 20
-0.3580065061404032
 30
0.0
 10
-7.320484656522971
 20
-0.3481574139347888
 30
0.0
 10
-7.315709565285323
 20
-0.3383959046022432
 30
0.0
 10
-7.31327963818142
 20
-0.3270127851006792
 30
0.0
 10
-7.31327963818142
 20
-0.3140929842767642
 30
0.0
 10
-7.31327963818142
 20
-0.3004088238314276
 30
0.0
 10
-7.315965347085718
 20
-0.2887709177894572
 30
0.0
 10
-7.321294466347593
 20
-0.2791766121240976
 30
0.0
 10
-7.326666215909552
 20
-0.2695000316384216
 30
0.0
 10
-7.333828769827719
 20
-0.2614848717188983
 30
0.0
 10
-7.342653573695214
 20
-0.2550462035187087
 30
0.0
 10
-7.351564135792866
 20
-0.248567724921587
 30
0.0
 10
-7.361582753938919
 20
-0.2432809042064339
 30
0.0
 10
-7.372880612840339
 20
-0.239230859823187
 30
0.0
 10
-7.384135675565087
 20
-0.2351808154401422
 30
0.0
 10
-7.395518629190013
 20
-0.2314704864441713
 30
0.0
 10
-7.406944213115012
 20
-0.2281449912855149
 30
0.0
 10
-7.421013041520937
 20
-0.2244373163161981
 30
0.0
 10
-7.435082035803512
 20
-0.2203023430861322
 30
0.0
 10
-7.449108233909314
 20
-0.2156976071720338
 30
0.0
 10
-7.463134432015205
 20
-0.2110504068347533
 30
0.0
 10
-7.475711199918678
 20
-0.2049541080481908
 30
0.0
 10
-7.486795741443162
 20
-0.1973662463894167
 30
0.0
 10
-7.497880282967634
 20
-0.1898181951274233
 30
0.0
 10
-7.50683314361197
 20
-0.1801840790651315
 30
0.0
 10
-7.513697119552981
 20
-0.1685461730231105
 30
0.0
 10
-7.52051829931727
 20
-0.1569056129544859
 30
0.0
 10
-7.523886424775973
 20
-0.1418997473303736
 30
0.0
 10
-7.523886424775973
 20
-0.1233534104040801
 30
0.0
 10
-7.523886424775973
 20
-0.1108210974437295
 30
0.0
 10
-7.521328440895204
 20
-0.0987983575645457
 30
0.0
 10
-7.516169842833606
 20
-0.0873303092162132
 30
0.0
 10
-7.511011244772007
 20
-0.0759047252910629
 30
0.0
 10
-7.503550444630023
 20
-0.0659282398151946
 30
0.0
 10
-7.493702347684208
 20
-0.0574008527881031
 30
0.0
 10
-7.4839393454619
 20
-0.0488734657612137
 30
0.0
 10
-7.471916771459278
 20
-0.0421375465971323
 30
0.0
 10
-7.457720052153161
 20
-0.0371930952957579
 30
0.0
 10
-7.44348070254696
 20
-0.0321610611211125
 30
0.0
 10
-7.427322657684397
 20
-0.0296901624836513
 30
0.0
 10
-7.409203784895301
 20
-0.0296901624836513
 30
0.0
 10
-7.393642730110349
 20
-0.0296901624836513
 30
0.0
 10
-7.379914778228352
 20
-0.031351583049804
 30
0.0
 10
-7.367892535979017
 20
-0.0347195426318447
 30
0.0
 10
-7.355869961976408
 20
-0.0379601089436316
 30
0.0
 10
-7.3453394484762
 20
-0.0421375465971323
 30
0.0
 10
-7.336301327231681
 20
-0.0471695807718283
 30
0.0
 10
-7.327263205987163
 20
-0.0521140320730006
 30
0.0
 10
-7.319674514944999
 20
-0.0576131749051759
 30
0.0
 10
-7.313578050281888
 20
-0.0634971515747667
 30
0.0
 10
-7.307438789442041
 20
-0.0694235926674891
 30
0.0
 10
-7.302365451980575
 20
-0.0751350576167372
 30
0.0
 10
-7.298315407597404
 20
-0.0807217833221835
 30
0.0
 10
-7.298315407597404
 20
-0.0807217833221835
 30
0.0
 10
-7.317159161364302
 20
-0.0967521031611796
 30
0.0
 10
-7.317159161364302
 20
-0.0967521031611796
 30
0.0
 10
-7.320484656522971
 20
-0.0923172249407698
 30
0.0
 10
-7.324747852406517
 20
-0.0875850957566703
 30
0.0
 10
-7.329906450468089
 20
-0.0826406444552453
 30
0.0
 10
-7.335107678829798
 20
-0.0776086102806504
 30
0.0
 10
-7.341374664693148
 20
-0.0730038743666026
 30
0.0
 10
-7.348750204234963
 20
-0.0687839722898692
 30
0.0
 10
-7.356168374076875
 20
-0.0645640702128832
 30
0.0
 10
-7.364908249097576
 20
-0.0609811344874187
 30
0.0
 10
-7.375054758143871
 20
-0.0582952597064327
 30
0.0
 10
-7.385286527790285
 20
-0.0554819916552434
 30
0.0
 10
-7.396968059392368
 20
-0.0541178220528814
 30
0.0
 10
-7.410312172697116
 20
-0.0541178220528814
 30
0.0
 10
-7.425446924481383
 20
-0.0541178220528814
 30
0.0
 10
-7.438449995385578
 20
-0.0561216120328128
 30
0.0
 10
-7.449364015709748
 20
-0.0601716564159081
 30
0.0
 10
-7.460278036033969
 20
-0.0642217007991551
 30
0.0
 10
-7.469230896678292
 20
-0.0696359147845114
 30
0.0
 10
-7.476265393819592
 20
-0.0762444406783895
 30
0.0
 10
-7.483257094784157
 20
-0.0828954309957529
 30
0.0
 10
-7.488458489022491
 20
-0.0903983638079101
 30
0.0
 10
-7.491741188004412
 20
-0.0987134287177267
 30
0.0
 10
-7.495109147586453
 20
-0.1070258396011417
 30
0.0
 10
-7.496771895165807
 20
-0.1156381554749007
 30
0.0
 10
-7.496771895165807
 20
-0.1245052578891167
 30
0.0
 10
-7.496771895165807
 20
-0.1377647741003582
 30
0.0
 10
-7.493702347684208
 20
-0.1487630597647088
 30
0.0
 10
-7.487605717144459
 20
-0.1575027689088731
 30
0.0
 10
-7.48155188278142
 20
-0.1661575492060163
 30
0.0
 10
-7.473494258438474
 20
-0.1733632310542311
 30
0.0
 10
-7.463518104715793
 20
-0.1790746960035297
 30
0.0
 10
-7.453541950993111
 20
-0.1847888149791793
 30
0.0
 10
-7.442372148868558
 20
-0.1895209441635315
 30
0.0
 10
-7.429965902165299
 20
-0.1932286191328482
 30
0.0
 10
-7.417602451638812
 20
-0.1968964837052327
 30
0.0
 10
-7.405110944335407
 20
-0.2003918365577293
 30
0.0
 10
-7.392534342308534
 20
-0.2037597961396689
 30
0.0
 10
-7.379616366127834
 20
-0.2070852912983254
 30
0.0
 10
-7.366698721700445
 20
-0.2112627289518261
 30
0.0
 10
-7.353738281096322
 20
-0.2162098342796526
 30
0.0
 10
-7.340820470792272
 20
-0.2211967500042596
 30
0.0
 10
-7.329266995967056
 20
-0.2278477403216736
 30
0.0
 10
-7.319120321044086
 20
-0.2362026156284729
 30
0.0
 10
-7.308973646121152
 20
-0.2444752161149053
 30
0.0
 10
-7.300617609677752
 20
-0.2549612746719402
 30
0.0
 10
-7.294137472314016
 20
-0.2674962416586923
 30
0.0
 10
-7.287699799373664
 20
-0.2800736730686266
 30
0.0
 10
-7.284459730691827
 20
-0.2955917658002565
 30
0.0
 10
-7.284459730691827
 20
-0.3140929842767642
 30
0.0
 10
-7.284459730691827
 20
-0.3299534464221728
 30
0.0
 10
-7.287785059973859
 20
-0.3442772272451293
 30
0.0
 10
-7.294435884414509
 20
-0.3570245163490047
 30
0.0
 10
-7.301086542978534
 20
-0.3697718054528801
 30
0.0
 10
-7.31003940362287
 20
-0.3805577690001579
 30
0.0
 10
-7.321294466347593
 20
-0.3894275254408259
 30
0.0
 10
-7.33259232524905
 20
-0.3983370922784262
 30
0.0
 10
-7.346021699153917
 20
-0.4051579402894782
 30
0.0
 10
-7.361497493338762
 20
-0.4099749983206494
 30
0.0
 10
-7.377058548123752
 20
-0.4147920563516183
 30
0.0
 10
-7.393642730110349
 20
-0.4171806801686621
 30
0.0
 10
-7.411420726375543
 20
-0.4171806801686621
 30
0.0
 10
-7.42693898498381
 20
-0.4171806801686621
 30
0.0
 10
-7.4413490216669
 20
-0.4155166055762594
 30
0.0
 10
-7.454650504671563
 20
-0.4121911104174514
 30
0.0
 10
-7.467951987676238
 20
-0.4088231508354613
 30
0.0
 10
-7.480059822278993
 20
-0.4045607843353436
 30
0.0
 10
-7.49093104642644
 20
-0.3991465703498862
 30
0.0
 10
-7.50184506675061
 20
-0.3937748207880152
 30
0.0
 10
-7.51143771364938
 20
-0.3877209864247864
 30
0.0
 10
-7.519793584216093
 20
-0.3809001384138355
 30
0.0
 10
-7.528107156236096
 20
-0.3740368259794498
 30
0.0
 10
-7.534843075400266
 20
-0.3669585374016404
 30
0.0
 10
-7.540001673461826
 20
-0.3595405334363022
 30
0.0
 10
-7.540001673461826
 20
-0.3595405334363022
 30
0.0
 10
-7.52060355991739
 20
-0.3406969455460663
 30
0.0
 10
-7.52060355991739
 20
-0.3406969455460663
 30
0.0
  0
HATCH
  5
D7
330
C9
100
AcDbEntity
  8
Layer 2
 62
   250
420
  2170655
440
 33554687
100
AcDbHatch
 10
0.0
 20
0.0
 30
0.0
210
0.0
220
0.0
230
1.0
  2
SOLID
 70
     1
 71
     1
 91
        1
 92
        1
 93
        1
 72
     4
 94
        3
 73
     0
 74
     0
 95
      149
 96
      145
 40
0.0
 40
0.0
 40
0.0
 40
0.0
 40
1.0
 40
1.0
 40
1.0
 40
2.0
 40
2.0
 40
2.0
 40
3.0
 40
3.0
 40
3.0
 40
4.0
 40
4.0
 40
4.0
 40
5.0
 40
5.0
 40
5.0
 40
6.0
 40
6.0
 40
6.0
 40
7.0
 40
7.0
 40
7.0
 40
8.0
 40
8.0
 40
8.0
 40
9.0
 40
9.0
 40
9.0
 40
10.0
 40
10.0
 40
10.0
 40
11.0
 40
11.0
 40
11.0
 40
12.0
 40
12.0
 40
12.0
 40
13.0
 40
13.0
 40
13.0
 40
14.0
 40
14.0
 40
14.0
 40
15.0
 40
15.0
 40
15.0
 40
16.0
 40
16.0
 40
16.0
 40
17.0
 40
17.0
 40
17.0
 40
18.0
 40
18.0
 40
18.0
 40
19.0
 40
19.0
 40
19.0
 40
20.0
 40
20.0
 40
20.0
 40
21.0
 40
21.0
 40
21.0
 40
22.0
 40
22.0
 40
22.0
 40
23.0
 40
23.0
 40
23.0
 40
24.0
 40
24.0
 40
24.0
 40
25.0
 40
25.0
 40
25.0
 40
26.0
 40
26.0
 40
26.0
 40
27.0
 40
27.0
 40
27.0
 40
28.0
 40
28.0
 40
28.0
 40
29.0
 40
29.0
 40
29.0
 40
30.0
 40
30.0
 40
30.0
 40
31.0
 40
31.0
 40
31.0
 40
32.0
 40
32.0
 40
32.0
 40
33.0
 40
33.0
 40
33.0
 40
34.0
 40
34.0
 40
34.0
 40
35.0
 40
35.0
 40
35.0
 40
36.0
 40
36.0
 40
36.0
 40
37.0
 40
37.0
 40
37.0
 40
38.0
 40
38.0
 40
38.0
 40
39.0
 40
39.0
 40
39.0
 40
40.0
 40
40.0
 40
40.0
 40
41.0
 40
41.0
 40
41.0
 40
42.0
 40
42.0
 40
42.0
 40
43.0
 40
43.0
 40
43.0
 40
44.0
 40
44.0
 40
44.0
 40
45.0
 40
45.0
 40
45.0
 40
46.0
 40
46.0
 40
46.0
 40
47.0
 40
47.0
 40
47.0
 40
48.0
 40
48.0
 40
48.0
 40
48.0
 10
-7.52060355991739
 20
-0.3406969455460663
 10
-7.508026957890542
 20
-0.3558753228904202
 10
-7.492977466706393
 20
-0.3682377781568801
 10
-7.475412787818223
 20
-0.3778718942192225
 10
-7.457890573353412
 20
-0.3874237354608441
 10
-7.436531466005829
 20
-0.3922407934919647
 10
-7.411420726375543
 20
-0.3922407934919647
 10
-7.396968059392368
 20
-0.3922407934919647
 10
-7.383751836987849
 20
-0.3905342544759756
 10
-7.371772059161912
 20
-0.387251223740754
 10
-7.359749485159353
 20
-0.3839257285821481
 10
-7.349389658736021
 20
-0.3790237417041579
 10
-7.340735210192128
 20
-0.37258507350412
 10
-7.332038131348199
 20
-0.366106594906695
 10
-7.325302046307342
 20
-0.3580065061404032
 10
-7.320484656522971
 20
-0.3481574139347888
 10
-7.315709565285323
 20
-0.3383959046022432
 10
-7.31327963818142
 20
-0.3270127851006792
 10
-7.31327963818142
 20
-0.3140929842767642
 10
-7.31327963818142
 20
-0.3004088238314276
 10
-7.315965347085718
 20
-0.2887709177894572
 10
-7.321294466347593
 20
-0.2791766121240976
 10
-7.326666215909552
 20
-0.2695000316384216
 10
-7.333828769827719
 20
-0.2614848717188983
 10
-7.342653573695214
 20
-0.2550462035187087
 10
-7.351564135792866
 20
-0.248567724921587
 10
-7.361582753938919
 20
-0.2432809042064339
 10
-7.372880612840339
 20
-0.239230859823187
 10
-7.384135675565087
 20
-0.2351808154401422
 10
-7.395518629190013
 20
-0.2314704864441713
 10
-7.406944213115012
 20
-0.2281449912855149
 10
-7.421013041520937
 20
-0.2244373163161981
 10
-7.435082035803512
 20
-0.2203023430861322
 10
-7.449108233909314
 20
-0.2156976071720338
 10
-7.463134432015205
 20
-0.2110504068347533
 10
-7.475711199918678
 20
-0.2049541080481908
 10
-7.486795741443162
 20
-0.1973662463894167
 10
-7.497880282967634
 20
-0.1898181951274233
 10
-7.50683314361197
 20
-0.1801840790651315
 10
-7.513697119552981
 20
-0.1685461730231105
 10
-7.52051829931727
 20
-0.1569056129544859
 10
-7.523886424775973
 20
-0.1418997473303736
 10
-7.523886424775973
 20
-0.1233534104040801
 10
-7.523886424775973
 20
-0.1108210974437295
 10
-7.521328440895204
 20
-0.0987983575645457
 10
-7.516169842833606
 20
-0.0873303092162132
 10
-7.511011244772007
 20
-0.0759047252910629
 10
-7.503550444630023
 20
-0.0659282398151946
 10
-7.493702347684208
 20
-0.0574008527881031
 10
-7.4839393454619
 20
-0.0488734657612137
 10
-7.471916771459278
 20
-0.0421375465971323
 10
-7.457720052153161
 20
-0.0371930952957579
 10
-7.44348070254696
 20
-0.0321610611211125
 10
-7.427322657684397
 20
-0.0296901624836513
 10
-7.409203784895301
 20
-0.0296901624836513
 10
-7.393642730110349
 20
-0.0296901624836513
 10
-7.379914778228352
 20
-0.031351583049804
 10
-7.367892535979017
 20
-0.0347195426318447
 10
-7.355869961976408
 20
-0.0379601089436316
 10
-7.3453394484762
 20
-0.0421375465971323
 10
-7.336301327231681
 20
-0.0471695807718283
 10
-7.327263205987163
 20
-0.0521140320730006
 10
-7.319674514944999
 20
-0.0576131749051759
 10
-7.313578050281888
 20
-0.0634971515747667
 10
-7.307438789442041
 20
-0.0694235926674891
 10
-7.302365451980575
 20
-0.0751350576167372
 10
-7.298315407597404
 20
-0.0807217833221835
 10
-7.298315407597404
 20
-0.0807217833221835
 10
-7.317159161364302
 20
-0.0967521031611796
 10
-7.317159161364302
 20
-0.0967521031611796
 10
-7.320484656522971
 20
-0.0923172249407698
 10
-7.324747852406517
 20
-0.0875850957566703
 10
-7.329906450468089
 20
-0.0826406444552453
 10
-7.335107678829798
 20
-0.0776086102806504
 10
-7.341374664693148
 20
-0.0730038743666026
 10
-7.348750204234963
 20
-0.0687839722898692
 10
-7.356168374076875
 20
-0.0645640702128832
 10
-7.364908249097576
 20
-0.0609811344874187
 10
-7.375054758143871
 20
-0.0582952597064327
 10
-7.385286527790285
 20
-0.0554819916552434
 10
-7.396968059392368
 20
-0.0541178220528814
 10
-7.410312172697116
 20
-0.0541178220528814
 10
-7.425446924481383
 20
-0.0541178220528814
 10
-7.438449995385578
 20
-0.0561216120328128
 10
-7.449364015709748
 20
-0.0601716564159081
 10
-7.460278036033969
 20
-0.0642217007991551
 10
-7.469230896678292
 20
-0.0696359147845114
 10
-7.476265393819592
 20
-0.0762444406783895
 10
-7.483257094784157
 20
-0.0828954309957529
 10
-7.488458489022491
 20
-0.0903983638079101
 10
-7.491741188004412
 20
-0.0987134287177267
 10
-7.495109147586453
 20
-0.1070258396011417
 10
-7.496771895165807
 20
-0.1156381554749007
 10
-7.496771895165807
 20
-0.1245052578891167
 10
-7.496771895165807
 20
-0.1377647741003582
 10
-7.493702347684208
 20
-0.1487630597647088
 10
-7.487605717144459
 20
-0.1575027689088731
 10
-7.48155188278142
 20
-0.1661575492060163
 10
-7.473494258438474
 20
-0.1733632310542311
 10
-7.463518104715793
 20
-0.1790746960035297
 10
-7.453541950993111
 20
-0.1847888149791793
 10
-7.442372148868558
 20
-0.1895209441635315
 10
-7.429965902165299
 20
-0.1932286191328482
 10
-7.417602451638812
 20
-0.1968964837052327
 10
-7.405110944335407
 20
-0.2003918365577293
 10
-7.392534342308534
 20
-0.2037597961396689
 10
-7.379616366127834
 20
-0.2070852912983254
 10
-7.366698721700445
 20
-0.2112627289518261
 10
-7.353738281096322
 20
-0.2162098342796526
 10
-7.340820470792272
 20
-0.2211967500042596
 10
-7.329266995967056
 20
-0.2278477403216736
 10
-7.319120321044086
 20
-0.2362026156284729
 10
-7.308973646121152
 20
-0.2444752161149053
 10
-7.300617609677752
 20
-0.2549612746719402
 10
-7.294137472314016
 20
-0.2674962416586923
 10
-7.287699799373664
 20
-0.2800736730686266
 10
-7.284459730691827
 20
-0.2955917658002565
 10
-7.284459730691827
 20
-0.3140929842767642
 10
-7.284459730691827
 20
-0.3299534464221728
 10
-7.287785059973859
 20
-0.3442772272451293
 10
-7.294435884414509
 20
-0.3570245163490047
 10
-7.301086542978534
 20
-0.3697718054528801
 10
-7.31003940362287
 20
-0.3805577690001579
 10
-7.321294466347593
 20
-0.3894275254408259
 10
-7.33259232524905
 20
-0.3983370922784262
 10
-7.346021699153917
 20
-0.4051579402894782
 10
-7.361497493338762
 20
-0.4099749983206494
 10
-7.377058548123752
 20
-0.4147920563516183
 10
-7.393642730110349
 20
-0.4171806801686621
 10
-7.411420726375543
 20
-0.4171806801686621
 10
-7.42693898498381
 20
-0.4171806801686621
 10
-7.4413490216669
 20
-0.4155166055762594
 10
-7.454650504671563
 20
-0.4121911104174514
 10
-7.467951987676238
 20
-0.4088231508354613
 10
-7.480059822278993
 20
-0.4045607843353436
 10
-7.49093104642644
 20
-0.3991465703498862
 10
-7.50184506675061
 20
-0.3937748207880152
 10
-7.51143771364938
 20
-0.3877209864247864
 10
-7.519793584216093
 20
-0.3809001384138355
 10
-7.528107156236096
 20
-0.3740368259794498
 10
-7.534843075400266
 20
-0.3669585374016404
 10
-7.540001673461826
 20
-0.3595405334363022
 10
-7.540001673461826
 20
-0.3595405334363022
 10
-7.52060355991739
 20
-0.3406969455460663
 10
-7.52060355991739
 20
-0.3406969455460663
 97
        0
 97
        1
330
D6
 75
     2
 76
     1
 98
        1
 10
0.0
 20
0.0
450
        0
451
        0
460
0.0
461
0.0
452
        0
462
0.0
453
        0
470

  0
LWPOLYLINE
  5
D8
330
C9
100
AcDbEntity
  8
Layer 2
100
AcDbPolyline
 90
        4
 70
     1
 43
0.0
 10
-7.172518368394548
 20
-0.0385811511361377
 10
-7.145872772085125
 20
-0.0385811511361377
 10
-7.145872772085125
 20
-0.4083348099661635
 10
-7.172518368394548
 20
-0.4083348099661635
  0
HATCH
  5
D9
330
C9
100
AcDbEntity
  8
Layer 2
 62
   250
420
  2170655
440
 33554687
100
AcDbHatch
 10
0.0
 20
0.0
 30
0.0
210
0.0
220
0.0
230
1.0
  2
SOLID
 70
     1
 71
     1
 91
        1
 92
        1
 93
        4
 72
     1
 10
-7.172518368394548
 20
-0.0385811511361377
 11
-7.145872772085125
 21
-0.0385811511361377
 72
     1
 10
-7.145872772085125
 20
-0.0385811511361377
 11
-7.145872772085125
 21
-0.4083348099661635
 72
     1
 10
-7.145872772085125
 20
-0.4083348099661635
 11
-7.172518368394548
 21
-0.4083348099661635
 72
     1
 10
-7.172518368394548
 20
-0.4083348099661635
 11
-7.172518368394548
 21
-0.0385811511361378
 97
        1
330
D8
 75
     2
 76
     1
 98
        1
 10
0.0
 20
0.0
450
        0
451
        0
460
0.0
461
0.0
452
        0
462
0.0
453
        0
470

  0
SPLINE
  5
DA
330
C9
100
AcDbEntity
  8
Layer 2
100
AcDbSpline
210
0.0
220
0.0
230
1.0
 70
    11
 71
     3
 72
   113
 73
   109
 74
     0
 42
0.0000000001
 43
0.0000000001
 40
0.0
 40
0.0
 40
0.0
 40
0.0
 40
1.0
 40
1.0
 40
1.0
 40
2.0
 40
2.0
 40
2.0
 40
3.0
 40
3.0
 40
3.0
 40
4.0
 40
4.0
 40
4.0
 40
5.0
 40
5.0
 40
5.0
 40
6.0
 40
6.0
 40
6.0
 40
7.0
 40
7.0
 40
7.0
 40
8.0
 40
8.0
 40
8.0
 40
9.0
 40
9.0
 40
9.0
 40
10.0
 40
10.0
 40
10.0
 40
11.0
 40
11.0
 40
11.0
 40
12.0
 40
12.0
 40
12.0
 40
13.0
 40
13.0
 40
13.0
 40
14.0
 40
14.0
 40
14.0
 40
15.0
 40
15.0
 40
15.0
 40
16.0
 40
16.0
 40
16.0
 40
17.0
 40
17.0
 40
17.0
 40
18.0
 40
18.0
 40
18.0
 40
19.0
 40
19.0
 40
19.0
 40
20.0
 40
20.0
 40
20.0
 40
21.0
 40
21.0
 40
21.0
 40
22.0
 40
22.0
 40
22.0
 40
23.0
 40
23.0
 40
23.0
 40
24.0
 40
24.0
 40
24.0
 40
25.0
 40
25.0
 40
25.0
 40
26.0
 40
26.0
 40
26.0
 40
27.0
 40
27.0
 40
27.0
 40
28.0
 40
28.0
 40
28.0
 40
29.0
 40
29.0
 40
29.0
 40
30.0
 40
30.0
 40
30.0
 40
31.0
 40
31.0
 40
31.0
 40
32.0
 40
32.0
 40
32.0
 40
33.0
 40
33.0
 40
33.0
 40
34.0
 40
34.0
 40
34.0
 40
35.0
 40
35.0
 40
35.0
 40
36.0
 40
36.0
 40
36.0
 40
36.0
 10
-6.739001889657565
 20
-0.2580930258987387
 30
0.0
 10
-6.739001889657565
 20
-0.2580930258987387
 30
0.0
 10
-6.837654707329193
 20
-0.2580930258987387
 30
0.0
 10
-6.837654707329193
 20
-0.2580930258987387
 30
0.0
 10
-6.837654707329193
 20
-0.2580930258987387
 30
0.0
 10
-6.837654707329193
 20
-0.2331531392220919
 30
0.0
 10
-6.837654707329193
 20
-0.2331531392220919
 30
0.0
 10
-6.837654707329193
 20
-0.2331531392220919
 30
0.0
 10
-6.712399255401502
 20
-0.2331531392220919
 30
0.0
 10
-6.712399255401502
 20
-0.2331531392220919
 30
0.0
 10
-6.712399255401502
 20
-0.2331531392220919
 30
0.0
 10
-6.712399255401502
 20
-0.3717092447710557
 30
0.0
 10
-6.712399255401502
 20
-0.3717092447710557
 30
0.0
 10
-6.718666075388265
 20
-0.3772959704764515
 30
0.0
 10
-6.726254766430429
 20
-0.3827101844618583
 30
0.0
 10
-6.735122532351333
 20
-0.3880819340237798
 30
0.0
 10
-6.743990132395563
 20
-0.3934536835857519
 30
0.0
 10
-6.754264532342012
 20
-0.3983556704636915
 30
0.0
 10
-6.765903433644072
 20
-0.4027905486841014
 30
0.0
 10
-6.777542169069394
 20
-0.4072227728779581
 30
0.0
 10
-6.790673130873819
 20
-0.4107181257304547
 30
0.0
 10
-6.80525352288056
 20
-0.4133190716645711
 30
0.0
 10
-6.819834080763926
 20
-0.4159200175986876
 30
0.0
 10
-6.836205111250174
 20
-0.4171567939305937
 30
0.0
 10
-6.854281519615874
 20
-0.4171567939305937
 30
0.0
 10
-6.880927115925272
 20
-0.4171567939305937
 30
0.0
 10
-6.905313140454419
 20
-0.4124671291696763
 30
0.0
 10
-6.927482223503286
 20
-0.4030028708011742
 30
0.0
 10
-6.949651472428891
 20
-0.3936235412794404
 30
0.0
 10
-6.968623117095969
 20
-0.3803215606448146
 30
0.0
 10
-6.984312062781137
 20
-0.3631420473471331
 30
0.0
 10
-7.000000842589656
 20
-0.3459598800231005
 30
0.0
 10
-7.012193937792567
 20
-0.3254522175402093
 30
0.0
 10
-7.020891182513196
 20
-0.3016217139251643
 30
0.0
 10
-7.029588261357136
 20
-0.2777460918602324
 30
0.0
 10
-7.033894087540728
 20
-0.2515694288515786
 30
0.0
 10
-7.033894087540728
 20
-0.2231766537460721
 30
0.0
 10
-7.033894087540728
 20
-0.1962329770894434
 30
0.0
 10
-7.029588261357136
 20
-0.1709931854223012
 30
0.0
 10
-7.020891182513196
 20
-0.1475023971947343
 30
0.0
 10
-7.012193937792567
 20
-0.1240540733904001
 30
0.0
 10
-7.000000842589656
 20
-0.103549064933961
 30
0.0
 10
-6.984312062781137
 20
-0.0859422533757829
 30
0.0
 10
-6.968623117095969
 20
-0.0684177166377696
 30
0.0
 10
-6.949651472428891
 20
-0.0546486273456139
 30
0.0
 10
-6.927482223503286
 20
-0.0446721418695941
 30
0.0
 10
-6.905313140454419
 20
-0.0347381208171606
 30
0.0
 10
-6.880927115925272
 20
-0.0296662762454819
 30
0.0
 10
-6.854281519615874
 20
-0.0296662762454819
 30
0.0
 10
-6.832495943390906
 20
-0.0296662762454819
 30
0.0
 10
-6.813737616100789
 20
-0.0326918664137944
 30
0.0
 10
-6.798006040115599
 20
-0.0385758430830821
 30
0.0
 10
-6.782317094430405
 20
-0.0445022841759055
 30
0.0
 10
-6.769100872025887
 20
-0.0514080610337765
 30
0.0
 10
-6.758400003202015
 20
-0.0593382921064808
 30
0.0
 10
-6.747699134378207
 20
-0.067268523179185
 30
0.0
 10
-6.739300467634696
 20
-0.0751562898284546
 30
0.0
 10
-6.733204002971584
 20
-0.0829140091810688
 30
0.0
 10
-6.727064742131737
 20
-0.090674382560135
 30
0.0
 10
-6.722929271271797
 20
-0.0964283119327673
 30
0.0
 10
-6.720712661544868
 20
-0.1000537120816666
 30
0.0
 10
-6.720712661544868
 20
-0.1000537120816666
 30
0.0
 10
-6.740664637236894
 20
-0.1139501946441265
 30
0.0
 10
-6.740664637236894
 20
-0.1139501946441265
 30
0.0
 10
-6.742881578717148
 20
-0.1110519977460677
 30
0.0
 10
-6.746547950399669
 20
-0.1063198685617661
 30
0.0
 10
-6.751749344638015
 20
-0.0998387359381923
 30
0.0
 10
-6.756950572999685
 20
-0.0933177929176863
 30
0.0
 10
-6.76407033074108
 20
-0.0867941958704756
 30
0.0
 10
-6.773065821685526
 20
-0.0801432055532637
 30
0.0
 10
-6.782146407353492
 20
-0.073449750812415
 30
0.0
 10
-6.793145688277743
 20
-0.0676082385664611
 30
0.0
 10
-6.806063664458506
 20
-0.0624090007246297
 30
0.0
 10
-6.819024105062642
 20
-0.0572495732796799
 30
0.0
 10
-6.834158690970247
 20
-0.0546486273456139
 30
0.0
 10
-6.851510218358093
 20
-0.0546486273456139
 30
0.0
 10
-6.875555366363338
 20
-0.0546486273456139
 30
0.0
 10
-6.897084829034572
 20
-0.0589959226928032
 30
0.0
 10
-6.916099269878397
 20
-0.0676931674132801
 30
0.0
 10
-6.935156175145619
 20
-0.0763904121339086
 30
0.0
 10
-6.951228793531387
 20
-0.0882857587430408
 30
0.0
 10
-6.964317125035752
 20
-0.1034216716637073
 30
0.0
 10
-6.977490717140236
 20
-0.1185973949816091
 30
0.0
 10
-6.987509501162953
 20
-0.1364191826835647
 30
0.0
 10
-6.9945866286043
 20
-0.1569241911398017
 30
0.0
 10
-7.001578329568878
 20
-0.1773893891992076
 30
0.0
 10
-7.005074180051135
 20
-0.1995160078246651
 30
0.0
 10
-7.005074180051135
 20
-0.2231766537460721
 30
0.0
 10
-7.005074180051135
 20
-0.2468372996674285
 30
0.0
 10
-7.001706220469069
 20
-0.2688789894460165
 30
0.0
 10
-6.994842410404733
 20
-0.2894291163523929
 30
0.0
 10
-6.987978434463721
 20
-0.3099341248085289
 30
0.0
 10
-6.9780449110411
 20
-0.3277983769338688
 30
0.0
 10
-6.964871318936641
 20
-0.3431890763952954
 30
0.0
 10
-6.951782987432301
 20
-0.3585373114330852
 30
0.0
 10
-6.935880890246797
 20
-0.3705600513124207
 30
0.0
 10
-6.917250453856872
 20
-0.3792121775831623
 30
0.0
 10
-6.898534425113539
 20
-0.3878669578803561
 30
0.0
 10
-6.877601786643278
 20
-0.3922593716772806
 30
0.0
 10
-6.854281519615874
 20
-0.3922593716772806
 30
0.0
 10
-6.825845284826893
 20
-0.3922593716772806
 30
0.0
 10
-6.80248238749943
 20
-0.3891037342124137
 30
0.0
 10
-6.784192827633419
 20
-0.3827951133086268
 30
0.0
 10
-6.765903433644072
 20
-0.3764838383787921
 30
0.0
 10
-6.750854108336574
 20
-0.3691082988368887
 30
0.0
 10
-6.739001889657565
 20
-0.3606260302597851
 30
0.0
 10
-6.739001889657565
 20
-0.3606260302597851
 30
0.0
 10
-6.739001889657565
 20
-0.2580930258987387
 30
0.0
 10
-6.739001889657565
 20
-0.2580930258987387
 30
0.0
  0
HATCH
  5
DB
330
C9
100
AcDbEntity
  8
Layer 2
 62
   250
420
  2170655
440
 33554687
100
AcDbHatch
 10
0.0
 20
0.0
 30
0.0
210
0.0
220
0.0
230
1.0
  2
SOLID
 70
     1
 71
     1
 91
        1
 92
        1
 93
        1
 72
     4
 94
        3
 73
     0
 74
     0
 95
      113
 96
      109
 40
0.0
 40
0.0
 40
0.0
 40
0.0
 40
1.0
 40
1.0
 40
1.0
 40
2.0
 40
2.0
 40
2.0
 40
3.0
 40
3.0
 40
3.0
 40
4.0
 40
4.0
 40
4.0
 40
5.0
 40
5.0
 40
5.0
 40
6.0
 40
6.0
 40
6.0
 40
7.0
 40
7.0
 40
7.0
 40
8.0
 40
8.0
 40
8.0
 40
9.0
 40
9.0
 40
9.0
 40
10.0
 40
10.0
 40
10.0
 40
11.0
 40
11.0
 40
11.0
 40
12.0
 40
12.0
 40
12.0
 40
13.0
 40
13.0
 40
13.0
 40
14.0
 40
14.0
 40
14.0
 40
15.0
 40
15.0
 40
15.0
 40
16.0
 40
16.0
 40
16.0
 40
17.0
 40
17.0
 40
17.0
 40
18.0
 40
18.0
 40
18.0
 40
19.0
 40
19.0
 40
19.0
 40
20.0
 40
20.0
 40
20.0
 40
21.0
 40
21.0
 40
21.0
 40
22.0
 40
22.0
 40
22.0
 40
23.0
 40
23.0
 40
23.0
 40
24.0
 40
24.0
 40
24.0
 40
25.0
 40
25.0
 40
25.0
 40
26.0
 40
26.0
 40
26.0
 40
27.0
 40
27.0
 40
27.0
 40
28.0
 40
28.0
 40
28.0
 40
29.0
 40
29.0
 40
29.0
 40
30.0
 40
30.0
 40
30.0
 40
31.0
 40
31.0
 40
31.0
 40
32.0
 40
32.0
 40
32.0
 40
33.0
 40
33.0
 40
33.0
 40
34.0
 40
34.0
 40
34.0
 40
35.0
 40
35.0
 40
35.0
 40
36.0
 40
36.0
 40
36.0
 40
36.0
 10
-6.739001889657565
 20
-0.2580930258987387
 10
-6.739001889657565
 20
-0.2580930258987387
 10
-6.837654707329193
 20
-0.2580930258987387
 10
-6.837654707329193
 20
-0.2580930258987387
 10
-6.837654707329193
 20
-0.2580930258987387
 10
-6.837654707329193
 20
-0.2331531392220919
 10
-6.837654707329193
 20
-0.2331531392220919
 10
-6.837654707329193
 20
-0.2331531392220919
 10
-6.712399255401502
 20
-0.2331531392220919
 10
-6.712399255401502
 20
-0.2331531392220919
 10
-6.712399255401502
 20
-0.2331531392220919
 10
-6.712399255401502
 20
-0.3717092447710557
 10
-6.712399255401502
 20
-0.3717092447710557
 10
-6.718666075388265
 20
-0.3772959704764515
 10
-6.726254766430429
 20
-0.3827101844618583
 10
-6.735122532351333
 20
-0.3880819340237798
 10
-6.743990132395563
 20
-0.3934536835857519
 10
-6.754264532342012
 20
-0.3983556704636915
 10
-6.765903433644072
 20
-0.4027905486841014
 10
-6.777542169069394
 20
-0.4072227728779581
 10
-6.790673130873819
 20
-0.4107181257304547
 10
-6.80525352288056
 20
-0.4133190716645711
 10
-6.819834080763926
 20
-0.4159200175986876
 10
-6.836205111250174
 20
-0.4171567939305937
 10
-6.854281519615874
 20
-0.4171567939305937
 10
-6.880927115925272
 20
-0.4171567939305937
 10
-6.905313140454419
 20
-0.4124671291696763
 10
-6.927482223503286
 20
-0.4030028708011742
 10
-6.949651472428891
 20
-0.3936235412794404
 10
-6.968623117095969
 20
-0.3803215606448146
 10
-6.984312062781137
 20
-0.3631420473471331
 10
-7.000000842589656
 20
-0.3459598800231005
 10
-7.012193937792567
 20
-0.3254522175402093
 10
-7.020891182513196
 20
-0.3016217139251643
 10
-7.029588261357136
 20
-0.2777460918602324
 10
-7.033894087540728
 20
-0.2515694288515786
 10
-7.033894087540728
 20
-0.2231766537460721
 10
-7.033894087540728
 20
-0.1962329770894434
 10
-7.029588261357136
 20
-0.1709931854223012
 10
-7.020891182513196
 20
-0.1475023971947343
 10
-7.012193937792567
 20
-0.1240540733904001
 10
-7.000000842589656
 20
-0.103549064933961
 10
-6.984312062781137
 20
-0.0859422533757829
 10
-6.968623117095969
 20
-0.0684177166377696
 10
-6.949651472428891
 20
-0.0546486273456139
 10
-6.927482223503286
 20
-0.0446721418695941
 10
-6.905313140454419
 20
-0.0347381208171606
 10
-6.880927115925272
 20
-0.0296662762454819
 10
-6.854281519615874
 20
-0.0296662762454819
 10
-6.832495943390906
 20
-0.0296662762454819
 10
-6.813737616100789
 20
-0.0326918664137944
 10
-6.798006040115599
 20
-0.0385758430830821
 10
-6.782317094430405
 20
-0.0445022841759055
 10
-6.769100872025887
 20
-0.0514080610337765
 10
-6.758400003202015
 20
-0.0593382921064808
 10
-6.747699134378207
 20
-0.067268523179185
 10
-6.739300467634696
 20
-0.0751562898284546
 10
-6.733204002971584
 20
-0.0829140091810688
 10
-6.727064742131737
 20
-0.090674382560135
 10
-6.722929271271797
 20
-0.0964283119327673
 10
-6.720712661544868
 20
-0.1000537120816666
 10
-6.720712661544868
 20
-0.1000537120816666
 10
-6.740664637236894
 20
-0.1139501946441265
 10
-6.740664637236894
 20
-0.1139501946441265
 10
-6.742881578717148
 20
-0.1110519977460677
 10
-6.746547950399669
 20
-0.1063198685617661
 10
-6.751749344638015
 20
-0.0998387359381923
 10
-6.756950572999685
 20
-0.0933177929176863
 10
-6.76407033074108
 20
-0.0867941958704756
 10
-6.773065821685526
 20
-0.0801432055532637
 10
-6.782146407353492
 20
-0.073449750812415
 10
-6.793145688277743
 20
-0.0676082385664611
 10
-6.806063664458506
 20
-0.0624090007246297
 10
-6.819024105062642
 20
-0.0572495732796799
 10
-6.834158690970247
 20
-0.0546486273456139
 10
-6.851510218358093
 20
-0.0546486273456139
 10
-6.875555366363338
 20
-0.0546486273456139
 10
-6.897084829034572
 20
-0.0589959226928032
 10
-6.916099269878397
 20
-0.0676931674132801
 10
-6.935156175145619
 20
-0.0763904121339086
 10
-6.951228793531387
 20
-0.0882857587430408
 10
-6.964317125035752
 20
-0.1034216716637073
 10
-6.977490717140236
 20
-0.1185973949816091
 10
-6.987509501162953
 20
-0.1364191826835647
 10
-6.9945866286043
 20
-0.1569241911398017
 10
-7.001578329568878
 20
-0.1773893891992076
 10
-7.005074180051135
 20
-0.1995160078246651
 10
-7.005074180051135
 20
-0.2231766537460721
 10
-7.005074180051135
 20
-0.2468372996674285
 10
-7.001706220469069
 20
-0.2688789894460165
 10
-6.994842410404733
 20
-0.2894291163523929
 10
-6.987978434463721
 20
-0.3099341248085289
 10
-6.9780449110411
 20
-0.3277983769338688
 10
-6.964871318936641
 20
-0.3431890763952954
 10
-6.951782987432301
 20
-0.3585373114330852
 10
-6.935880890246797
 20
-0.3705600513124207
 10
-6.917250453856872
 20
-0.3792121775831623
 10
-6.898534425113539
 20
-0.3878669578803561
 10
-6.877601786643278
 20
-0.3922593716772806
 10
-6.854281519615874
 20
-0.3922593716772806
 10
-6.825845284826893
 20
-0.3922593716772806
 10
-6.80248238749943
 20
-0.3891037342124137
 10
-6.784192827633419
 20
-0.3827951133086268
 10
-6.765903433644072
 20
-0.3764838383787921
 10
-6.750854108336574
 20
-0.3691082988368887
 10
-6.739001889657565
 20
-0.3606260302597851
 10
-6.739001889657565
 20
-0.3606260302597851
 10
-6.739001889657565
 20
-0.2580930258987387
 10
-6.739001889657565
 20
-0.2580930258987387
 97
        0
 97
        1
330
DA
 75
     2
 76
     1
 98
        1
 10
0.0
 20
0.0
450
        0
451
        0
460
0.0
461
0.0
452
        0
462
0.0
453
        0
470

  0
LWPOLYLINE
  5
DC
330
C9
100
AcDbEntity
  8
Layer 2
100
AcDbPolyline
 90
       10
 70
     1
 43
0.0
 10
-6.586572690154272
 20
-0.038567881003726
 10
-6.558818871919722
 20
-0.038567881003726
 10
-6.321566489015721
 20
-0.3684182519564274
 10
-6.321566489015721
 20
-0.038567881003726
 10
-6.295517551030608
 20
-0.038567881003726
 10
-6.295517551030608
 20
-0.4083241938603553
 10
-6.323229236595048
 20
-0.4083241938603553
 10
-6.560481287745763
 20
-0.0829060471016116
 10
-6.560481287745763
 20
-0.4083241938603553
 10
-6.586572690154272
 20
-0.4083241938603553
  0
HATCH
  5
DD
330
C9
100
AcDbEntity
  8
Layer 2
 62
   250
420
  2170655
440
 33554687
100
AcDbHatch
 10
0.0
 20
0.0
 30
0.0
210
0.0
220
0.0
230
1.0
  2
SOLID
 70
     1
 71
     1
 91
        1
 92
        1
 93
       10
 72
     1
 10
-6.586572690154272
 20
-0.038567881003726
 11
-6.558818871919722
 21
-0.038567881003726
 72
     1
 10
-6.558818871919722
 20
-0.038567881003726
 11
-6.321566489015721
 21
-0.3684182519564274
 72
     1
 10
-6.321566489015721
 20
-0.3684182519564274
 11
-6.321566489015721
 21
-0.0385678810037259
 72
     1
 10
-6.321566489015721
 20
-0.038567881003726
 11
-6.295517551030608
 21
-0.038567881003726
 72
     1
 10
-6.295517551030608
 20
-0.038567881003726
 11
-6.295517551030608
 21
-0.4083241938603553
 72
     1
 10
-6.295517551030608
 20
-0.4083241938603553
 11
-6.323229236595048
 21
-0.4083241938603553
 72
     1
 10
-6.323229236595048
 20
-0.4083241938603553
 11
-6.560481287745763
 21
-0.0829060471016116
 72
     1
 10
-6.560481287745763
 20
-0.0829060471016116
 11
-6.560481287745763
 21
-0.4083241938603553
 72
     1
 10
-6.560481287745763
 20
-0.4083241938603553
 11
-6.586572690154272
 21
-0.4083241938603553
 72
     1
 10
-6.586572690154272
 20
-0.4083241938603553
 11
-6.586572690154272
 21
-0.0385678810037259
 97
        1
330
DC
 75
     2
 76
     1
 98
        1
 10
0.0
 20
0.0
450
        0
451
        0
460
0.0
461
0.0
452
        0
462
0.0
453
        0
470

  0
SPLINE
  5
DE
330
C9
100
AcDbEntity
  8
Layer 2
100
AcDbSpline
210
0.0
220
0.0
230
1.0
 70
    11
 71
     3
 72
    14
 73
    10
 74
     0
 42
0.0000000001
 43
0.0000000001
 40
0.0
 40
0.0
 40
0.0
 40
0.0
 40
1.0
 40
1.0
 40
1.0
 40
2.0
 40
2.0
 40
2.0
 40
3.0
 40
3.0
 40
3.0
 40
3.0
 10
-5.962913627622166
 20
-0.2641813626056924
 30
0.0
 10
-5.962913627622166
 20
-0.2641813626056924
 30
0.0
 10
-6.0399945181992
 20
-0.0723748700947908
 30
0.0
 10
-6.0399945181992
 20
-0.0723748700947908
 30
0.0
 10
-6.0399945181992
 20
-0.0723748700947908
 30
0.0
 10
-6.117032280846097
 20
-0.2641813626056924
 30
0.0
 10
-6.117032280846097
 20
-0.2641813626056924
 30
0.0
 10
-6.117032280846097
 20
-0.2641813626056924
 30
0.0
 10
-5.962913627622166
 20
-0.2641813626056924
 30
0.0
 10
-5.962913627622166
 20
-0.2641813626056924
 30
0.0
  0
SPLINE
  5
DF
330
C9
100
AcDbEntity
  8
Layer 2
100
AcDbSpline
210
0.0
220
0.0
230
1.0
 70
    11
 71
     3
 72
    29
 73
    25
 74
     0
 42
0.0000000001
 43
0.0000000001
 40
0.0
 40
0.0
 40
0.0
 40
0.0
 40
1.0
 40
1.0
 40
1.0
 40
2.0
 40
2.0
 40
2.0
 40
3.0
 40
3.0
 40
3.0
 40
4.0
 40
4.0
 40
4.0
 40
5.0
 40
5.0
 40
5.0
 40
6.0
 40
6.0
 40
6.0
 40
7.0
 40
7.0
 40
7.0
 40
8.0
 40
8.0
 40
8.0
 40
8.0
 10
-6.0521446513487
 20
-0.038567881003726
 30
0.0
 10
-6.0521446513487
 20
-0.038567881003726
 30
0.0
 10
-6.025541685339324
 20
-0.038567881003726
 30
0.0
 10
-6.025541685339324
 20
-0.038567881003726
 30
0.0
 10
-6.025541685339324
 20
-0.038567881003726
 30
0.0
 10
-5.874194831003124
 20
-0.4083241938603553
 30
0.0
 10
-5.874194831003124
 20
-0.4083241938603553
 30
0.0
 10
-5.874194831003124
 20
-0.4083241938603553
 30
0.0
 10
-5.904719784618792
 20
-0.4083241938603553
 30
0.0
 10
-5.904719784618792
 20
-0.4083241938603553
 30
0.0
 10
-5.904719784618792
 20
-0.4083241938603553
 30
0.0
 10
-5.952937805652823
 20
-0.2891212492825919
 30
0.0
 10
-5.952937805652823
 20
-0.2891212492825919
 30
0.0
 10
-5.952937805652823
 20
-0.2891212492825919
 30
0.0
 10
-6.127008434568753
 20
-0.2891212492825919
 30
0.0
 10
-6.127008434568753
 20
-0.2891212492825919
 30
0.0
 10
-6.127008434568753
 20
-0.2891212492825919
 30
0.0
 10
-6.174671764071919
 20
-0.4083241938603553
 30
0.0
 10
-6.174671764071919
 20
-0.4083241938603553
 30
0.0
 10
-6.174671764071919
 20
-0.4083241938603553
 30
0.0
 10
-6.203491837438124
 20
-0.4083241938603553
 30
0.0
 10
-6.203491837438124
 20
-0.4083241938603553
 30
0.0
 10
-6.203491837438124
 20
-0.4083241938603553
 30
0.0
 10
-6.0521446513487
 20
-0.038567881003726
 30
0.0
 10
-6.0521446513487
 20
-0.038567881003726
 30
0.0
  0
HATCH
  5
E0
330
C9
100
AcDbEntity
  8
Layer 2
 62
   250
420
  2170655
440
 33554687
100
AcDbHatch
 10
0.0
 20
0.0
 30
0.0
210
0.0
220
0.0
230
1.0
  2
SOLID
 70
     1
 71
     1
 91
        2
 92
        1
 93
        1
 72
     4
 94
        3
 73
     0
 74
     0
 95
       14
 96
       10
 40
0.0
 40
0.0
 40
0.0
 40
0.0
 40
1.0
 40
1.0
 40
1.0
 40
2.0
 40
2.0
 40
2.0
 40
3.0
 40
3.0
 40
3.0
 40
3.0
 10
-5.962913627622166
 20
-0.2641813626056924
 10
-5.962913627622166
 20
-0.2641813626056924
 10
-6.0399945181992
 20
-0.0723748700947908
 10
-6.0399945181992
 20
-0.0723748700947908
 10
-6.0399945181992
 20
-0.0723748700947908
 10
-6.117032280846097
 20
-0.2641813626056924
 10
-6.117032280846097
 20
-0.2641813626056924
 10
-6.117032280846097
 20
-0.2641813626056924
 10
-5.962913627622166
 20
-0.2641813626056924
 10
-5.962913627622166
 20
-0.2641813626056924
 97
        0
 97
        1
330
DE
 92
        1
 93
        1
 72
     4
 94
        3
 73
     0
 74
     0
 95
       29
 96
       25
 40
0.0
 40
0.0
 40
0.0
 40
0.0
 40
1.0
 40
1.0
 40
1.0
 40
2.0
 40
2.0
 40
2.0
 40
3.0
 40
3.0
 40
3.0
 40
4.0
 40
4.0
 40
4.0
 40
5.0
 40
5.0
 40
5.0
 40
6.0
 40
6.0
 40
6.0
 40
7.0
 40
7.0
 40
7.0
 40
8.0
 40
8.0
 40
8.0
 40
8.0
 10
-6.0521446513487
 20
-0.038567881003726
 10
-6.0521446513487
 20
-0.038567881003726
 10
-6.025541685339324
 20
-0.038567881003726
 10
-6.025541685339324
 20
-0.038567881003726
 10
-6.025541685339324
 20
-0.038567881003726
 10
-5.874194831003124
 20
-0.4083241938603553
 10
-5.874194831003124
 20
-0.4083241938603553
 10
-5.874194831003124
 20
-0.4083241938603553
 10
-5.904719784618792
 20
-0.4083241938603553
 10
-5.904719784618792
 20
-0.4083241938603553
 10
-5.904719784618792
 20
-0.4083241938603553
 10
-5.952937805652823
 20
-0.2891212492825919
 10
-5.952937805652823
 20
-0.2891212492825919
 10
-5.952937805652823
 20
-0.2891212492825919
 10
-6.127008434568753
 20
-0.2891212492825919
 10
-6.127008434568753
 20
-0.2891212492825919
 10
-6.127008434568753
 20
-0.2891212492825919
 10
-6.174671764071919
 20
-0.4083241938603553
 10
-6.174671764071919
 20
-0.4083241938603553
 10
-6.174671764071919
 20
-0.4083241938603553
 10
-6.203491837438124
 20
-0.4083241938603553
 10
-6.203491837438124
 20
-0.4083241938603553
 10
-6.203491837438124
 20
-0.4083241938603553
 10
-6.0521446513487
 20
-0.038567881003726
 10
-6.0521446513487
 20
-0.038567881003726
 97
        0
 97
        1
330
DF
 75
     2
 76
     1
 98
        1
 10
0.0
 20
0.0
450
        0
451
        0
460
0.0
461
0.0
452
        0
462
0.0
453
        0
470

  0
LWPOLYLINE
  5
E1
330
C9
100
AcDbEntity
  8
Layer 2
100
AcDbPolyline
 90
        8
 70
     1
 43
0.0
 10
-5.736230573355416
 20
-0.0624116547510312
 10
-5.879775916902366
 20
-0.0624116547510312
 10
-5.879775916902366
 20
-0.0385811511361377
 10
-5.566040131128955
 20
-0.0385811511361377
 10
-5.566040131128955
 20
-0.0624116547510312
 10
-5.70962793909934
 20
-0.0624116547510312
 10
-5.70962793909934
 20
-0.4082923455427287
 10
-5.736230573355416
 20
-0.4082923455427287
  0
HATCH
  5
E2
330
C9
100
AcDbEntity
  8
Layer 2
 62
   250
420
  2170655
440
 33554687
100
AcDbHatch
 10
0.0
 20
0.0
 30
0.0
210
0.0
220
0.0
230
1.0
  2
SOLID
 70
     1
 71
     1
 91
        1
 92
        1
 93
        8
 72
     1
 10
-5.736230573355416
 20
-0.0624116547510312
 11
-5.879775916902366
 21
-0.0624116547510312
 72
     1
 10
-5.879775916902366
 20
-0.0624116547510312
 11
-5.879775916902366
 21
-0.0385811511361377
 72
     1
 10
-5.879775916902366
 20
-0.0385811511361377
 11
-5.566040131128955
 21
-0.0385811511361377
 72
     1
 10
-5.566040131128955
 20
-0.0385811511361377
 11
-5.566040131128955
 21
-0.0624116547510312
 72
     1
 10
-5.566040131128955
 20
-0.0624116547510312
 11
-5.70962793909934
 21
-0.0624116547510312
 72
     1
 10
-5.70962793909934
 20
-0.0624116547510312
 11
-5.70962793909934
 21
-0.4082923455427287
 72
     1
 10
-5.70962793909934
 20
-0.4082923455427287
 11
-5.736230573355416
 21
-0.4082923455427287
 72
     1
 10
-5.736230573355416
 20
-0.4082923455427287
 11
-5.736230573355416
 21
-0.0624116547510312
 97
        1
330
E1
 75
     2
 76
     1
 98
        1
 10
0.0
 20
0.0
450
        0
451
        0
460
0.0
461
0.0
452
        0
462
0.0
453
        0
470

  0
SPLINE
  5
E3
330
C9
100
AcDbEntity
  8
Layer 2
100
AcDbSpline
210
0.0
220
0.0
230
1.0
 70
    11
 71
     3
 72
    71
 73
    67
 74
     0
 42
0.0000000001
 43
0.0000000001
 40
0.0
 40
0.0
 40
0.0
 40
0.0
 40
1.0
 40
1.0
 40
1.0
 40
2.0
 40
2.0
 40
2.0
 40
3.0
 40
3.0
 40
3.0
 40
4.0
 40
4.0
 40
4.0
 40
5.0
 40
5.0
 40
5.0
 40
6.0
 40
6.0
 40
6.0
 40
7.0
 40
7.0
 40
7.0
 40
8.0
 40
8.0
 40
8.0
 40
9.0
 40
9.0
 40
9.0
 40
10.0
 40
10.0
 40
10.0
 40
11.0
 40
11.0
 40
11.0
 40
12.0
 40
12.0
 40
12.0
 40
13.0
 40
13.0
 40
13.0
 40
14.0
 40
14.0
 40
14.0
 40
15.0
 40
15.0
 40
15.0
 40
16.0
 40
16.0
 40
16.0
 40
17.0
 40
17.0
 40
17.0
 40
18.0
 40
18.0
 40
18.0
 40
19.0
 40
19.0
 40
19.0
 40
20.0
 40
20.0
 40
20.0
 40
21.0
 40
21.0
 40
21.0
 40
22.0
 40
22.0
 40
22.0
 40
22.0
 10
-5.474000815650911
 20
-0.038567881003726
 30
0.0
 10
-5.474000815650911
 20
-0.038567881003726
 30
0.0
 10
-5.447398181394886
 20
-0.038567881003726
 30
0.0
 10
-5.447398181394886
 20
-0.038567881003726
 30
0.0
 10
-5.447398181394886
 20
-0.038567881003726
 30
0.0
 10
-5.447398181394886
 20
-0.2469991952816094
 30
0.0
 10
-5.447398181394886
 20
-0.2469991952816094
 30
0.0
 10
-5.447398181394886
 20
-0.2681040137187361
 30
0.0
 10
-5.445735433815532
 20
-0.2875022931398234
 30
0.0
 10
-5.442409938656851
 20
-0.3052364979684575
 30
0.0
 10
-5.439084775251495
 20
-0.322973356823291
 30
0.0
 10
-5.433073405311877
 20
-0.3382764734114465
 30
0.0
 10
-5.424376492344574
 20
-0.3512387386587963
 30
0.0
 10
-5.415679247623946
 20
-0.364198349879694
 30
0.0
 10
-5.403997550145214
 20
-0.3742172997789465
 30
0.0
 10
-5.389204006638149
 20
-0.3814229816271614
 30
0.0
 10
-5.374410463131084
 20
-0.3886260094489242
 30
0.0
 10
-5.355566543487535
 20
-0.3922514095978234
 30
0.0
 10
-5.332630446790706
 20
-0.3922514095978234
 30
0.0
 10
-5.309736151010648
 20
-0.3922514095978234
 30
0.0
 10
-5.29084976694369
 20
-0.3886260094489242
 30
0.0
 10
-5.276098687860022
 20
-0.3814229816271614
 30
0.0
 10
-5.261347940529654
 20
-0.3742172997789465
 30
0.0
 10
-5.249580982450803
 20
-0.364198349879694
 30
0.0
 10
-5.24092686566021
 20
-0.3512387386587963
 30
0.0
 10
-5.232186824762885
 20
-0.3382764734114465
 30
0.0
 10
-5.226175786576542
 20
-0.322973356823291
 30
0.0
 10
-5.22289275584132
 20
-0.3052364979684575
 30
0.0
 10
-5.219567592435951
 20
-0.2875022931398234
 30
0.0
 10
-5.217904844856661
 20
-0.2681040137187361
 30
0.0
 10
-5.217904844856661
 20
-0.2469991952816094
 30
0.0
 10
-5.217904844856661
 20
-0.2469991952816094
 30
0.0
 10
-5.217904844856661
 20
-0.038567881003726
 30
0.0
 10
-5.217904844856661
 20
-0.038567881003726
 30
0.0
 10
-5.217904844856661
 20
-0.038567881003726
 30
0.0
 10
-5.19130187884726
 20
-0.038567881003726
 30
0.0
 10
-5.19130187884726
 20
-0.038567881003726
 30
0.0
 10
-5.19130187884726
 20
-0.038567881003726
 30
0.0
 10
-5.19130187884726
 20
-0.2608983318704708
 30
0.0
 10
-5.19130187884726
 20
-0.2608983318704708
 30
0.0
 10
-5.19130187884726
 20
-0.2826852351086523
 30
0.0
 10
-5.193604246804309
 20
-0.3031053147182723
 30
0.0
 10
-5.19825111538844
 20
-0.3220762958787114
 30
0.0
 10
-5.202855519549138
 20
-0.3411348599125227
 30
0.0
 10
-5.210614897668253
 20
-0.3576747528324833
 30
0.0
 10
-5.221528586239123
 20
-0.3717012826915985
 30
0.0
 10
-5.232400142139895
 20
-0.3857702769743506
 30
0.0
 10
-5.246937903846552
 20
-0.3968561455119217
 30
0.0
 10
-5.265014478088876
 20
-0.4049986987016988
 30
0.0
 10
-5.283133185001323
 20
-0.4130987874680411
 30
0.0
 10
-5.305686106627477
 20
-0.4171912962745207
 30
0.0
 10
-5.332630446790706
 20
-0.4171912962745207
 30
0.0
 10
-5.359616919624007
 20
-0.4171912962745207
 30
0.0
 10
-5.382169509496899
 20
-0.4130987874680411
 30
0.0
 10
-5.400246083739185
 20
-0.4049986987016988
 30
0.0
 10
-5.418407918581642
 20
-0.3968561455119217
 30
0.0
 10
-5.432902884111588
 20
-0.3857702769743506
 30
0.0
 10
-5.443817236189084
 20
-0.3717012826915985
 30
0.0
 10
-5.454688460336543
 20
-0.3576747528324833
 30
0.0
 10
-5.462447506702321
 20
-0.3411348599125227
 30
0.0
 10
-5.467051910863056
 20
-0.3220762958787114
 30
0.0
 10
-5.471699111200513
 20
-0.3031053147182723
 30
0.0
 10
-5.474000815650911
 20
-0.2826852351086523
 30
0.0
 10
-5.474000815650911
 20
-0.2608983318704708
 30
0.0
 10
-5.474000815650911
 20
-0.2608983318704708
 30
0.0
 10
-5.474000815650911
 20
-0.038567881003726
 30
0.0
 10
-5.474000815650911
 20
-0.038567881003726
 30
0.0
  0
HATCH
  5
E4
330
C9
100
AcDbEntity
  8
Layer 2
 62
   250
420
  2170655
440
 33554687
100
AcDbHatch
 10
0.0
 20
0.0
 30
0.0
210
0.0
220
0.0
230
1.0
  2
SOLID
 70
     1
 71
     1
 91
        1
 92
        1
 93
        1
 72
     4
 94
        3
 73
     0
 74
     0
 95
       71
 96
       67
 40
0.0
 40
0.0
 40
0.0
 40
0.0
 40
1.0
 40
1.0
 40
1.0
 40
2.0
 40
2.0
 40
2.0
 40
3.0
 40
3.0
 40
3.0
 40
4.0
 40
4.0
 40
4.0
 40
5.0
 40
5.0
 40
5.0
 40
6.0
 40
6.0
 40
6.0
 40
7.0
 40
7.0
 40
7.0
 40
8.0
 40
8.0
 40
8.0
 40
9.0
 40
9.0
 40
9.0
 40
10.0
 40
10.0
 40
10.0
 40
11.0
 40
11.0
 40
11.0
 40
12.0
 40
12.0
 40
12.0
 40
13.0
 40
13.0
 40
13.0
 40
14.0
 40
14.0
 40
14.0
 40
15.0
 40
15.0
 40
15.0
 40
16.0
 40
16.0
 40
16.0
 40
17.0
 40
17.0
 40
17.0
 40
18.0
 40
18.0
 40
18.0
 40
19.0
 40
19.0
 40
19.0
 40
20.0
 40
20.0
 40
20.0
 40
21.0
 40
21.0
 40
21.0
 40
22.0
 40
22.0
 40
22.0
 40
22.0
 10
-5.474000815650911
 20
-0.038567881003726
 10
-5.474000815650911
 20
-0.038567881003726
 10
-5.447398181394886
 20
-0.038567881003726
 10
-5.447398181394886
 20
-0.038567881003726
 10
-5.447398181394886
 20
-0.038567881003726
 10
-5.447398181394886
 20
-0.2469991952816094
 10
-5.447398181394886
 20
-0.2469991952816094
 10
-5.447398181394886
 20
-0.2681040137187361
 10
-5.445735433815532
 20
-0.2875022931398234
 10
-5.442409938656851
 20
-0.3052364979684575
 10
-5.439084775251495
 20
-0.322973356823291
 10
-5.433073405311877
 20
-0.3382764734114465
 10
-5.424376492344574
 20
-0.3512387386587963
 10
-5.415679247623946
 20
-0.364198349879694
 10
-5.403997550145214
 20
-0.3742172997789465
 10
-5.389204006638149
 20
-0.3814229816271614
 10
-5.374410463131084
 20
-0.3886260094489242
 10
-5.355566543487535
 20
-0.3922514095978234
 10
-5.332630446790706
 20
-0.3922514095978234
 10
-5.309736151010648
 20
-0.3922514095978234
 10
-5.29084976694369
 20
-0.3886260094489242
 10
-5.276098687860022
 20
-0.3814229816271614
 10
-5.261347940529654
 20
-0.3742172997789465
 10
-5.249580982450803
 20
-0.364198349879694
 10
-5.24092686566021
 20
-0.3512387386587963
 10
-5.232186824762885
 20
-0.3382764734114465
 10
-5.226175786576542
 20
-0.322973356823291
 10
-5.22289275584132
 20
-0.3052364979684575
 10
-5.219567592435951
 20
-0.2875022931398234
 10
-5.217904844856661
 20
-0.2681040137187361
 10
-5.217904844856661
 20
-0.2469991952816094
 10
-5.217904844856661
 20
-0.2469991952816094
 10
-5.217904844856661
 20
-0.038567881003726
 10
-5.217904844856661
 20
-0.038567881003726
 10
-5.217904844856661
 20
-0.038567881003726
 10
-5.19130187884726
 20
-0.038567881003726
 10
-5.19130187884726
 20
-0.038567881003726
 10
-5.19130187884726
 20
-0.038567881003726
 10
-5.19130187884726
 20
-0.2608983318704708
 10
-5.19130187884726
 20
-0.2608983318704708
 10
-5.19130187884726
 20
-0.2826852351086523
 10
-5.193604246804309
 20
-0.3031053147182723
 10
-5.19825111538844
 20
-0.3220762958787114
 10
-5.202855519549138
 20
-0.3411348599125227
 10
-5.210614897668253
 20
-0.3576747528324833
 10
-5.221528586239123
 20
-0.3717012826915985
 10
-5.232400142139895
 20
-0.3857702769743506
 10
-5.246937903846552
 20
-0.3968561455119217
 10
-5.265014478088876
 20
-0.4049986987016988
 10
-5.283133185001323
 20
-0.4130987874680411
 10
-5.305686106627477
 20
-0.4171912962745207
 10
-5.332630446790706
 20
-0.4171912962745207
 10
-5.359616919624007
 20
-0.4171912962745207
 10
-5.382169509496899
 20
-0.4130987874680411
 10
-5.400246083739185
 20
-0.4049986987016988
 10
-5.418407918581642
 20
-0.3968561455119217
 10
-5.432902884111588
 20
-0.3857702769743506
 10
-5.443817236189084
 20
-0.3717012826915985
 10
-5.454688460336543
 20
-0.3576747528324833
 10
-5.462447506702321
 20
-0.3411348599125227
 10
-5.467051910863056
 20
-0.3220762958787114
 10
-5.471699111200513
 20
-0.3031053147182723
 10
-5.474000815650911
 20
-0.2826852351086523
 10
-5.474000815650911
 20
-0.2608983318704708
 10
-5.474000815650911
 20
-0.2608983318704708
 10
-5.474000815650911
 20
-0.038567881003726
 10
-5.474000815650911
 20
-0.038567881003726
 97
        0
 97
        1
330
E3
 75
     2
 76
     1
 98
        1
 10
0.0
 20
0.0
450
        0
451
        0
460
0.0
461
0.0
452
        0
462
0.0
453
        0
470

  0
SPLINE
  5
E5
330
C9
100
AcDbEntity
  8
Layer 2
100
AcDbSpline
210
0.0
220
0.0
230
1.0
 70
     9
 71
     3
 72
    23
 73
    19
 74
     0
 42
0.0000000001
 43
0.0000000001
 40
0.0
 40
0.0
 40
0.0
 40
0.0
 40
1.0
 40
1.0
 40
1.0
 40
2.0
 40
2.0
 40
2.0
 40
3.0
 40
3.0
 40
3.0
 40
4.0
 40
4.0
 40
4.0
 40
5.0
 40
5.0
 40
5.0
 40
6.0
 40
6.0
 40
6.0
 40
6.0
 10
-4.942948035000136
 20
-0.2231713456930164
 30
0.0
 10
-4.881983056615644
 20
-0.2231713456930164
 30
0.0
 10
-4.851500235670098
 20
-0.1965673844237648
 30
0.0
 10
-4.851500235670098
 20
-0.1433621159118653
 30
0.0
 10
-4.851500235670098
 20
-0.1167608086689142
 30
0.0
 10
-4.859515395589596
 20
-0.0967653732934903
 30
0.0
 10
-4.875588179852065
 20
-0.0835058570822993
 30
0.0
 10
-4.891703096784554
 20
-0.0701614120242387
 30
0.0
 10
-4.915236681189008
 20
-0.0635104217069764
 30
0.0
 10
-4.946273530158792
 20
-0.0635104217069764
 30
0.0
 10
-4.946273530158792
 20
-0.0635104217069764
 30
0.0
 10
-5.03882938553732
 20
-0.0635104217069764
 30
0.0
 10
-5.03882938553732
 20
-0.0635104217069764
 30
0.0
 10
-5.03882938553732
 20
-0.0635104217069764
 30
0.0
 10
-5.03882938553732
 20
-0.2231713456930164
 30
0.0
 10
-5.03882938553732
 20
-0.2231713456930164
 30
0.0
 10
-5.03882938553732
 20
-0.2231713456930164
 30
0.0
 10
-4.942948035000136
 20
-0.2231713456930164
 30
0.0
 10
-4.942948035000136
 20
-0.2231713456930164
 30
0.0
  0
SPLINE
  5
E6
330
C9
100
AcDbEntity
  8
Layer 2
100
AcDbSpline
210
0.0
220
0.0
230
1.0
 70
    11
 71
     3
 72
    47
 73
    43
 74
     0
 42
0.0000000001
 43
0.0000000001
 40
0.0
 40
0.0
 40
0.0
 40
0.0
 40
1.0
 40
1.0
 40
1.0
 40
2.0
 40
2.0
 40
2.0
 40
3.0
 40
3.0
 40
3.0
 40
4.0
 40
4.0
 40
4.0
 40
5.0
 40
5.0
 40
5.0
 40
6.0
 40
6.0
 40
6.0
 40
7.0
 40
7.0
 40
7.0
 40
8.0
 40
8.0
 40
8.0
 40
9.0
 40
9.0
 40
9.0
 40
10.0
 40
10.0
 40
10.0
 40
11.0
 40
11.0
 40
11.0
 40
12.0
 40
12.0
 40
12.0
 40
13.0
 40
13.0
 40
13.0
 40
14.0
 40
14.0
 40
14.0
 40
14.0
 10
-5.06547514772338
 20
-0.038570535030279
 30
0.0
 10
-5.06547514772338
 20
-0.038570535030279
 30
0.0
 10
-4.954032576524569
 20
-0.038570535030279
 30
0.0
 10
-4.954032576524569
 20
-0.038570535030279
 30
0.0
 10
-4.929987760272638
 20
-0.038570535030279
 30
0.0
 10
-4.909694078673459
 20
-0.0411290165410618
 30
0.0
 10
-4.893067266386765
 20
-0.0462884439859611
 30
0.0
 10
-4.876440454100095
 20
-0.0515301462510252
 30
0.0
 10
-4.862925819595059
 20
-0.0588207569461095
 30
0.0
 10
-4.852608955225175
 20
-0.0682000864678937
 30
0.0
 10
-4.842291427348627
 20
-0.0776218804129106
 30
0.0
 10
-4.834745698359824
 20
-0.088750213373967
 30
0.0
 10
-4.830141294199127
 20
-0.1014975024777414
 30
0.0
 10
-4.825536890038392
 20
-0.1142023271582325
 30
0.0
 10
-4.823192057657958
 20
-0.128186392593913
 30
0.0
 10
-4.823192057657958
 20
-0.1433621159118653
 30
0.0
 10
-4.823192057657958
 20
-0.1673651312468994
 30
0.0
 10
-4.829416413221324
 20
-0.1887247362245337
 30
0.0
 10
-4.841780195501112
 20
-0.2073533479710932
 30
0.0
 10
-4.854186442204396
 20
-0.2259846137442562
 30
0.0
 10
-4.873840171672541
 20
-0.2384771163075735
 30
0.0
 10
-4.90082664450588
 20
-0.2447857372110573
 30
0.0
 10
-4.90082664450588
 20
-0.2447857372110573
 30
0.0
 10
-4.812661544157763
 20
-0.4083268478867569
 30
0.0
 10
-4.812661544157763
 20
-0.4083268478867569
 30
0.0
 10
-4.812661544157763
 20
-0.4083268478867569
 30
0.0
 10
-4.843186829526731
 20
-0.4083268478867569
 30
0.0
 10
-4.843186829526731
 20
-0.4083268478867569
 30
0.0
 10
-4.843186829526731
 20
-0.4083268478867569
 30
0.0
 10
-4.929092358094572
 20
-0.2481112323699159
 30
0.0
 10
-4.929092358094572
 20
-0.2481112323699159
 30
0.0
 10
-4.929092358094572
 20
-0.2481112323699159
 30
0.0
 10
-5.03882938553732
 20
-0.2481112323699159
 30
0.0
 10
-5.03882938553732
 20
-0.2481112323699159
 30
0.0
 10
-5.03882938553732
 20
-0.2481112323699159
 30
0.0
 10
-5.03882938553732
 20
-0.4083268478867569
 30
0.0
 10
-5.03882938553732
 20
-0.4083268478867569
 30
0.0
 10
-5.03882938553732
 20
-0.4083268478867569
 30
0.0
 10
-5.06547514772338
 20
-0.4083268478867569
 30
0.0
 10
-5.06547514772338
 20
-0.4083268478867569
 30
0.0
 10
-5.06547514772338
 20
-0.4083268478867569
 30
0.0
 10
-5.06547514772338
 20
-0.038570535030279
 30
0.0
 10
-5.06547514772338
 20
-0.038570535030279
 30
0.0
  0
HATCH
  5
E7
330
C9
100
AcDbEntity
  8
Layer 2
 62
   250
420
  2170655
440
 33554687
100
AcDbHatch
 10
0.0
 20
0.0
 30
0.0
210
0.0
220
0.0
230
1.0
  2
SOLID
 70
     1
 71
     1
 91
        2
 92
        1
 93
        1
 72
     4
 94
        3
 73
     0
 74
     0
 95
       23
 96
       19
 40
0.0
 40
0.0
 40
0.0
 40
0.0
 40
1.0
 40
1.0
 40
1.0
 40
2.0
 40
2.0
 40
2.0
 40
3.0
 40
3.0
 40
3.0
 40
4.0
 40
4.0
 40
4.0
 40
5.0
 40
5.0
 40
5.0
 40
6.0
 40
6.0
 40
6.0
 40
6.0
 10
-4.942948035000136
 20
-0.2231713456930164
 10
-4.881983056615644
 20
-0.2231713456930164
 10
-4.851500235670098
 20
-0.1965673844237648
 10
-4.851500235670098
 20
-0.1433621159118653
 10
-4.851500235670098
 20
-0.1167608086689142
 10
-4.859515395589596
 20
-0.0967653732934903
 10
-4.875588179852065
 20
-0.0835058570822993
 10
-4.891703096784554
 20
-0.0701614120242387
 10
-4.915236681189008
 20
-0.0635104217069764
 10
-4.946273530158792
 20
-0.0635104217069764
 10
-4.946273530158792
 20
-0.0635104217069764
 10
-5.03882938553732
 20
-0.0635104217069764
 10
-5.03882938553732
 20
-0.0635104217069764
 10
-5.03882938553732
 20
-0.0635104217069764
 10
-5.03882938553732
 20
-0.2231713456930164
 10
-5.03882938553732
 20
-0.2231713456930164
 10
-5.03882938553732
 20
-0.2231713456930164
 10
-4.942948035000136
 20
-0.2231713456930164
 10
-4.942948035000136
 20
-0.2231713456930164
 97
        0
 97
        1
330
E5
 92
        1
 93
        1
 72
     4
 94
        3
 73
     0
 74
     0
 95
       47
 96
       43
 40
0.0
 40
0.0
 40
0.0
 40
0.0
 40
1.0
 40
1.0
 40
1.0
 40
2.0
 40
2.0
 40
2.0
 40
3.0
 40
3.0
 40
3.0
 40
4.0
 40
4.0
 40
4.0
 40
5.0
 40
5.0
 40
5.0
 40
6.0
 40
6.0
 40
6.0
 40
7.0
 40
7.0
 40
7.0
 40
8.0
 40
8.0
 40
8.0
 40
9.0
 40
9.0
 40
9.0
 40
10.0
 40
10.0
 40
10.0
 40
11.0
 40
11.0
 40
11.0
 40
12.0
 40
12.0
 40
12.0
 40
13.0
 40
13.0
 40
13.0
 40
14.0
 40
14.0
 40
14.0
 40
14.0
 10
-5.06547514772338
 20
-0.038570535030279
 10
-5.06547514772338
 20
-0.038570535030279
 10
-4.954032576524569
 20
-0.038570535030279
 10
-4.954032576524569
 20
-0.038570535030279
 10
-4.929987760272638
 20
-0.038570535030279
 10
-4.909694078673459
 20
-0.0411290165410618
 10
-4.893067266386765
 20
-0.0462884439859611
 10
-4.876440454100095
 20
-0.0515301462510252
 10
-4.862925819595059
 20
-0.0588207569461095
 10
-4.852608955225175
 20
-0.0682000864678937
 10
-4.842291427348627
 20
-0.0776218804129106
 10
-4.834745698359824
 20
-0.088750213373967
 10
-4.830141294199127
 20
-0.1014975024777414
 10
-4.825536890038392
 20
-0.1142023271582325
 10
-4.823192057657958
 20
-0.128186392593913
 10
-4.823192057657958
 20
-0.1433621159118653
 10
-4.823192057657958
 20
-0.1673651312468994
 10
-4.829416413221324
 20
-0.1887247362245337
 10
-4.841780195501112
 20
-0.2073533479710932
 10
-4.854186442204396
 20
-0.2259846137442562
 10
-4.873840171672541
 20
-0.2384771163075735
 10
-4.90082664450588
 20
-0.2447857372110573
 10
-4.90082664450588
 20
-0.2447857372110573
 10
-4.812661544157763
 20
-0.4083268478867569
 10
-4.812661544157763
 20
-0.4083268478867569
 10
-4.812661544157763
 20
-0.4083268478867569
 10
-4.843186829526731
 20
-0.4083268478867569
 10
-4.843186829526731
 20
-0.4083268478867569
 10
-4.843186829526731
 20
-0.4083268478867569
 10
-4.929092358094572
 20
-0.2481112323699159
 10
-4.929092358094572
 20
-0.2481112323699159
 10
-4.929092358094572
 20
-0.2481112323699159
 10
-5.03882938553732
 20
-0.2481112323699159
 10
-5.03882938553732
 20
-0.2481112323699159
 10
-5.03882938553732
 20
-0.2481112323699159
 10
-5.03882938553732
 20
-0.4083268478867569
 10
-5.03882938553732
 20
-0.4083268478867569
 10
-5.03882938553732
 20
-0.4083268478867569
 10
-5.06547514772338
 20
-0.4083268478867569
 10
-5.06547514772338
 20
-0.4083268478867569
 10
-5.06547514772338
 20
-0.4083268478867569
 10
-5.06547514772338
 20
-0.038570535030279
 10
-5.06547514772338
 20
-0.038570535030279
 97
        0
 97
        1
330
E6
 75
     2
 76
     1
 98
        1
 10
0.0
 20
0.0
450
        0
451
        0
460
0.0
461
0.0
452
        0
462
0.0
453
        0
470

  0
LWPOLYLINE
  5
E8
330
C9
100
AcDbEntity
  8
Layer 2
100
AcDbPolyline
 90
       12
 70
     1
 43
0.0
 10
-4.701821768719455
 20
-0.038567881003726
 10
-4.480088142053646
 20
-0.038567881003726
 10
-4.480088142053646
 20
-0.0635077676805749
 10
-4.675219134463418
 20
-0.0635077676805749
 10
-4.675219134463418
 20
-0.2032157207147267
 10
-4.522763560572141
 20
-0.2032157207147267
 10
-4.522763560572141
 20
-0.2281556073913735
 10
-4.675219134463418
 20
-0.2281556073913735
 10
-4.675219134463418
 20
-0.383384307183658
 10
-4.465720901547279
 20
-0.383384307183658
 10
-4.465720901547279
 20
-0.4083241938603553
 10
-4.701821768719455
 20
-0.4083241938603553
  0
HATCH
  5
E9
330
C9
100
AcDbEntity
  8
Layer 2
 62
   250
420
  2170655
440
 33554687
100
AcDbHatch
 10
0.0
 20
0.0
 30
0.0
210
0.0
220
0.0
230
1.0
  2
SOLID
 70
     1
 71
     1
 91
        1
 92
        1
 93
       12
 72
     1
 10
-4.701821768719455
 20
-0.038567881003726
 11
-4.480088142053646
 21
-0.038567881003726
 72
     1
 10
-4.480088142053646
 20
-0.038567881003726
 11
-4.480088142053646
 21
-0.0635077676805749
 72
     1
 10
-4.480088142053646
 20
-0.0635077676805749
 11
-4.675219134463418
 21
-0.0635077676805749
 72
     1
 10
-4.675219134463418
 20
-0.0635077676805749
 11
-4.675219134463418
 21
-0.2032157207147267
 72
     1
 10
-4.675219134463418
 20
-0.2032157207147267
 11
-4.522763560572141
 21
-0.2032157207147267
 72
     1
 10
-4.522763560572141
 20
-0.2032157207147267
 11
-4.522763560572141
 21
-0.2281556073913735
 72
     1
 10
-4.522763560572141
 20
-0.2281556073913735
 11
-4.675219134463418
 21
-0.2281556073913735
 72
     1
 10
-4.675219134463418
 20
-0.2281556073913735
 11
-4.675219134463418
 21
-0.383384307183658
 72
     1
 10
-4.675219134463418
 20
-0.383384307183658
 11
-4.465720901547279
 21
-0.383384307183658
 72
     1
 10
-4.465720901547279
 20
-0.383384307183658
 11
-4.465720901547279
 21
-0.4083241938603553
 72
     1
 10
-4.465720901547279
 20
-0.4083241938603553
 11
-4.701821768719455
 21
-0.4083241938603553
 72
     1
 10
-4.701821768719455
 20
-0.4083241938603553
 11
-4.701821768719455
 21
-0.0385678810037259
 97
        1
330
E8
 75
     2
 76
     1
 98
        1
 10
0.0
 20
0.0
450
        0
451
        0
460
0.0
461
0.0
452
        0
462
0.0
453
        0
470

  0
LWPOLYLINE
  5
EA
330
C9
100
AcDbEntity
  8
Layer 2
100
AcDbPolyline
 90
       12
 70
     1
 43
0.0
 10
-4.148621800738093
 20
-0.038567881003726
 10
-4.12193357412861
 20
-0.038567881003726
 10
-4.12193357412861
 20
-0.2032157207147267
 10
-3.889158202115102
 20
-0.2032157207147267
 10
-3.889158202115102
 20
-0.038567881003726
 10
-3.862554904352426
 20
-0.038567881003726
 10
-3.862554904352426
 20
-0.4083241938603553
 10
-3.889158202115102
 20
-0.4083241938603553
 10
-3.889158202115102
 20
-0.2281556073913735
 10
-4.12193357412861
 20
-0.2281556073913735
 10
-4.12193357412861
 20
-0.4083241938603553
 10
-4.148621800738093
 20
-0.4083241938603553
  0
HATCH
  5
EB
330
C9
100
AcDbEntity
  8
Layer 2
 62
   250
420
  2170655
440
 33554687
100
AcDbHatch
 10
0.0
 20
0.0
 30
0.0
210
0.0
220
0.0
230
1.0
  2
SOLID
 70
     1
 71
     1
 91
        1
 92
        1
 93
       12
 72
     1
 10
-4.148621800738093
 20
-0.038567881003726
 11
-4.12193357412861
 21
-0.038567881003726
 72
     1
 10
-4.12193357412861
 20
-0.038567881003726
 11
-4.12193357412861
 21
-0.2032157207147267
 72
     1
 10
-4.12193357412861
 20
-0.2032157207147267
 11
-3.889158202115102
 21
-0.2032157207147267
 72
     1
 10
-3.889158202115102
 20
-0.2032157207147267
 11
-3.889158202115102
 21
-0.0385678810037259
 72
     1
 10
-3.889158202115102
 20
-0.038567881003726
 11
-3.862554904352426
 21
-0.038567881003726
 72
     1
 10
-3.862554904352426
 20
-0.038567881003726
 11
-3.862554904352426
 21
-0.4083241938603553
 72
     1
 10
-3.862554904352426
 20
-0.4083241938603553
 11
-3.889158202115102
 21
-0.4083241938603553
 72
     1
 10
-3.889158202115102
 20
-0.4083241938603553
 11
-3.889158202115102
 21
-0.2281556073913735
 72
     1
 10
-3.889158202115102
 20
-0.2281556073913735
 11
-4.12193357412861
 21
-0.2281556073913735
 72
     1
 10
-4.12193357412861
 20
-0.2281556073913735
 11
-4.12193357412861
 21
-0.4083241938603553
 72
     1
 10
-4.12193357412861
 20
-0.4083241938603553
 11
-4.148621800738093
 21
-0.4083241938603553
 72
     1
 10
-4.148621800738093
 20
-0.4083241938603553
 11
-4.148621800738093
 21
-0.0385678810037259
 97
        1
330
EA
 75
     2
 76
     1
 98
        1
 10
0.0
 20
0.0
450
        0
451
        0
460
0.0
461
0.0
452
        0
462
0.0
453
        0
470

  0
SPLINE
  5
EC
330
C9
100
AcDbEntity
  8
Layer 2
100
AcDbSpline
210
0.0
220
0.0
230
1.0
 70
    11
 71
     3
 72
    14
 73
    10
 74
     0
 42
0.0000000001
 43
0.0000000001
 40
0.0
 40
0.0
 40
0.0
 40
0.0
 40
1.0
 40
1.0
 40
1.0
 40
2.0
 40
2.0
 40
2.0
 40
3.0
 40
3.0
 40
3.0
 40
3.0
 10
-3.529946336397693
 20
-0.2641813626056924
 30
0.0
 10
-3.529946336397693
 20
-0.2641813626056924
 30
0.0
 10
-3.607027226974675
 20
-0.0723748700947908
 30
0.0
 10
-3.607027226974675
 20
-0.0723748700947908
 30
0.0
 10
-3.607027226974675
 20
-0.0723748700947908
 30
0.0
 10
-3.684064326114973
 20
-0.2641813626056924
 30
0.0
 10
-3.684064326114973
 20
-0.2641813626056924
 30
0.0
 10
-3.684064326114973
 20
-0.2641813626056924
 30
0.0
 10
-3.529946336397693
 20
-0.2641813626056924
 30
0.0
 10
-3.529946336397693
 20
-0.2641813626056924
 30
0.0
  0
SPLINE
  5
ED
330
C9
100
AcDbEntity
  8
Layer 2
100
AcDbSpline
210
0.0
220
0.0
230
1.0
 70
    11
 71
     3
 72
    29
 73
    25
 74
     0
 42
0.0000000001
 43
0.0000000001
 40
0.0
 40
0.0
 40
0.0
 40
0.0
 40
1.0
 40
1.0
 40
1.0
 40
2.0
 40
2.0
 40
2.0
 40
3.0
 40
3.0
 40
3.0
 40
4.0
 40
4.0
 40
4.0
 40
5.0
 40
5.0
 40
5.0
 40
6.0
 40
6.0
 40
6.0
 40
7.0
 40
7.0
 40
7.0
 40
8.0
 40
8.0
 40
8.0
 40
8.0
 10
-3.619219824547611
 20
-0.038567881003726
 30
0.0
 10
-3.619219824547611
 20
-0.038567881003726
 30
0.0
 10
-3.592616526784922
 20
-0.038567881003726
 30
0.0
 10
-3.592616526784922
 20
-0.038567881003726
 30
0.0
 10
-3.592616526784922
 20
-0.038567881003726
 30
0.0
 10
-3.44127000420206
 20
-0.4083241938603553
 30
0.0
 10
-3.44127000420206
 20
-0.4083241938603553
 30
0.0
 10
-3.44127000420206
 20
-0.4083241938603553
 30
0.0
 10
-3.471752825147594
 20
-0.4083241938603553
 30
0.0
 10
-3.471752825147594
 20
-0.4083241938603553
 30
0.0
 10
-3.471752825147594
 20
-0.4083241938603553
 30
0.0
 10
-3.519970514428298
 20
-0.2891212492825919
 30
0.0
 10
-3.519970514428298
 20
-0.2891212492825919
 30
0.0
 10
-3.519970514428298
 20
-0.2891212492825919
 30
0.0
 10
-3.694040811590955
 20
-0.2891212492825919
 30
0.0
 10
-3.694040811590955
 20
-0.2891212492825919
 30
0.0
 10
-3.694040811590955
 20
-0.2891212492825919
 30
0.0
 10
-3.741704472847434
 20
-0.4083241938603553
 30
0.0
 10
-3.741704472847434
 20
-0.4083241938603553
 30
0.0
 10
-3.741704472847434
 20
-0.4083241938603553
 30
0.0
 10
-3.770523882707025
 20
-0.4083241938603553
 30
0.0
 10
-3.770523882707025
 20
-0.4083241938603553
 30
0.0
 10
-3.770523882707025
 20
-0.4083241938603553
 30
0.0
 10
-3.619219824547611
 20
-0.038567881003726
 30
0.0
 10
-3.619219824547611
 20
-0.038567881003726
 30
0.0
  0
HATCH
  5
EE
330
C9
100
AcDbEntity
  8
Layer 2
 62
   250
420
  2170655
440
 33554687
100
AcDbHatch
 10
0.0
 20
0.0
 30
0.0
210
0.0
220
0.0
230
1.0
  2
SOLID
 70
     1
 71
     1
 91
        2
 92
        1
 93
        1
 72
     4
 94
        3
 73
     0
 74
     0
 95
       14
 96
       10
 40
0.0
 40
0.0
 40
0.0
 40
0.0
 40
1.0
 40
1.0
 40
1.0
 40
2.0
 40
2.0
 40
2.0
 40
3.0
 40
3.0
 40
3.0
 40
3.0
 10
-3.529946336397693
 20
-0.2641813626056924
 10
-3.529946336397693
 20
-0.2641813626056924
 10
-3.607027226974675
 20
-0.0723748700947908
 10
-3.607027226974675
 20
-0.0723748700947908
 10
-3.607027226974675
 20
-0.0723748700947908
 10
-3.684064326114973
 20
-0.2641813626056924
 10
-3.684064326114973
 20
-0.2641813626056924
 10
-3.684064326114973
 20
-0.2641813626056924
 10
-3.529946336397693
 20
-0.2641813626056924
 10
-3.529946336397693
 20
-0.2641813626056924
 97
        0
 97
        1
330
EC
 92
        1
 93
        1
 72
     4
 94
        3
 73
     0
 74
     0
 95
       29
 96
       25
 40
0.0
 40
0.0
 40
0.0
 40
0.0
 40
1.0
 40
1.0
 40
1.0
 40
2.0
 40
2.0
 40
2.0
 40
3.0
 40
3.0
 40
3.0
 40
4.0
 40
4.0
 40
4.0
 40
5.0
 40
5.0
 40
5.0
 40
6.0
 40
6.0
 40
6.0
 40
7.0
 40
7.0
 40
7.0
 40
8.0
 40
8.0
 40
8.0
 40
8.0
 10
-3.619219824547611
 20
-0.038567881003726
 10
-3.619219824547611
 20
-0.038567881003726
 10
-3.592616526784922
 20
-0.038567881003726
 10
-3.592616526784922
 20
-0.038567881003726
 10
-3.592616526784922
 20
-0.038567881003726
 10
-3.44127000420206
 20
-0.4083241938603553
 10
-3.44127000420206
 20
-0.4083241938603553
 10
-3.44127000420206
 20
-0.4083241938603553
 10
-3.471752825147594
 20
-0.4083241938603553
 10
-3.471752825147594
 20
-0.4083241938603553
 10
-3.471752825147594
 20
-0.4083241938603553
 10
-3.519970514428298
 20
-0.2891212492825919
 10
-3.519970514428298
 20
-0.2891212492825919
 10
-3.519970514428298
 20
-0.2891212492825919
 10
-3.694040811590955
 20
-0.2891212492825919
 10
-3.694040811590955
 20
-0.2891212492825919
 10
-3.694040811590955
 20
-0.2891212492825919
 10
-3.741704472847434
 20
-0.4083241938603553
 10
-3.741704472847434
 20
-0.4083241938603553
 10
-3.741704472847434
 20
-0.4083241938603553
 10
-3.770523882707025
 20
-0.4083241938603553
 10
-3.770523882707025
 20
-0.4083241938603553
 10
-3.770523882707025
 20
-0.4083241938603553
 10
-3.619219824547611
 20
-0.038567881003726
 10
-3.619219824547611
 20
-0.038567881003726
 97
        0
 97
        1
330
ED
 75
     2
 76
     1
 98
        1
 10
0.0
 20
0.0
450
        0
451
        0
460
0.0
461
0.0
452
        0
462
0.0
453
        0
470

  0
SPLINE
  5
EF
330
C9
100
AcDbEntity
  8
Layer 2
100
AcDbSpline
210
0.0
220
0.0
230
1.0
 70
     9
 71
     3
 72
    23
 73
    19
 74
     0
 42
0.0000000001
 43
0.0000000001
 40
0.0
 40
0.0
 40
0.0
 40
0.0
 40
1.0
 40
1.0
 40
1.0
 40
2.0
 40
2.0
 40
2.0
 40
3.0
 40
3.0
 40
3.0
 40
4.0
 40
4.0
 40
4.0
 40
5.0
 40
5.0
 40
5.0
 40
6.0
 40
6.0
 40
6.0
 40
6.0
 10
-3.226707225287074
 20
-0.2231713456930164
 30
0.0
 10
-3.165742246902595
 20
-0.2231713456930164
 30
0.0
 10
-3.135260089463649
 20
-0.1965673844237648
 30
0.0
 10
-3.135260089463649
 20
-0.1433621159118653
 30
0.0
 10
-3.135260089463649
 20
-0.1167608086689142
 30
0.0
 10
-3.143317713806582
 20
-0.0967653732934903
 30
0.0
 10
-3.1593898345624
 20
-0.0835058570822993
 30
0.0
 10
-3.175462618824831
 20
-0.0701614120242387
 30
0.0
 10
-3.198995871475959
 20
-0.0635104217069764
 30
0.0
 10
-3.230032720445743
 20
-0.0635104217069764
 30
0.0
 10
-3.230032720445743
 20
-0.0635104217069764
 30
0.0
 10
-3.322631703754306
 20
-0.0635104217069764
 30
0.0
 10
-3.322631703754306
 20
-0.0635104217069764
 30
0.0
 10
-3.322631703754306
 20
-0.0635104217069764
 30
0.0
 10
-3.322631703754306
 20
-0.2231713456930164
 30
0.0
 10
-3.322631703754306
 20
-0.2231713456930164
 30
0.0
 10
-3.322631703754306
 20
-0.2231713456930164
 30
0.0
 10
-3.226707225287074
 20
-0.2231713456930164
 30
0.0
 10
-3.226707225287074
 20
-0.2231713456930164
 30
0.0
  0
SPLINE
  5
F0
330
C9
100
AcDbEntity
  8
Layer 2
100
AcDbSpline
210
0.0
220
0.0
230
1.0
 70
    11
 71
     3
 72
    47
 73
    43
 74
     0
 42
0.0000000001
 43
0.0000000001
 40
0.0
 40
0.0
 40
0.0
 40
0.0
 40
1.0
 40
1.0
 40
1.0
 40
2.0
 40
2.0
 40
2.0
 40
3.0
 40
3.0
 40
3.0
 40
4.0
 40
4.0
 40
4.0
 40
5.0
 40
5.0
 40
5.0
 40
6.0
 40
6.0
 40
6.0
 40
7.0
 40
7.0
 40
7.0
 40
8.0
 40
8.0
 40
8.0
 40
9.0
 40
9.0
 40
9.0
 40
10.0
 40
10.0
 40
10.0
 40
11.0
 40
11.0
 40
11.0
 40
12.0
 40
12.0
 40
12.0
 40
13.0
 40
13.0
 40
13.0
 40
14.0
 40
14.0
 40
14.0
 40
14.0
 10
-3.349235001516969
 20
-0.038570535030279
 30
0.0
 10
-3.349235001516969
 20
-0.038570535030279
 30
0.0
 10
-3.237792430318146
 20
-0.038570535030279
 30
0.0
 10
-3.237792430318146
 20
-0.038570535030279
 30
0.0
 10
-3.213790078489624
 20
-0.038570535030279
 30
0.0
 10
-3.193453600713748
 20
-0.0411290165410618
 30
0.0
 10
-3.176826788427042
 20
-0.0462884439859611
 30
0.0
 10
-3.16019997614036
 20
-0.0515301462510252
 30
0.0
 10
-3.146728137812058
 20
-0.0588207569461095
 30
0.0
 10
-3.136368809018727
 20
-0.0682000864678937
 30
0.0
 10
-3.12605128114223
 20
-0.0776218804129106
 30
0.0
 10
-3.118548348330149
 20
-0.088750213373967
 30
0.0
 10
-3.113943612416101
 20
-0.1014975024777414
 30
0.0
 10
-3.109296412078681
 20
-0.1142023271582325
 30
0.0
 10
-3.106994044121658
 20
-0.128186392593913
 30
0.0
 10
-3.106994044121658
 20
-0.1433621159118653
 30
0.0
 10
-3.106994044121658
 20
-0.1673651312468994
 30
0.0
 10
-3.113175935261576
 20
-0.1887247362245337
 30
0.0
 10
-3.125582181964836
 20
-0.2073533479710932
 30
0.0
 10
-3.137945964244623
 20
-0.2259846137442562
 30
0.0
 10
-3.157642158136215
 20
-0.2384771163075735
 30
0.0
 10
-3.184586498299444
 20
-0.2447857372110573
 30
0.0
 10
-3.184586498299444
 20
-0.2447857372110573
 30
0.0
 10
-3.09646419412805
 20
-0.4083268478867569
 30
0.0
 10
-3.09646419412805
 20
-0.4083268478867569
 30
0.0
 10
-3.09646419412805
 20
-0.4083268478867569
 30
0.0
 10
-3.126946351566996
 20
-0.4083268478867569
 30
0.0
 10
-3.126946351566996
 20
-0.4083268478867569
 30
0.0
 10
-3.126946351566996
 20
-0.4083268478867569
 30
0.0
 10
-3.21285188013481
 20
-0.2481112323699159
 30
0.0
 10
-3.21285188013481
 20
-0.2481112323699159
 30
0.0
 10
-3.21285188013481
 20
-0.2481112323699159
 30
0.0
 10
-3.322631703754306
 20
-0.2481112323699159
 30
0.0
 10
-3.322631703754306
 20
-0.2481112323699159
 30
0.0
 10
-3.322631703754306
 20
-0.2481112323699159
 30
0.0
 10
-3.322631703754306
 20
-0.4083268478867569
 30
0.0
 10
-3.322631703754306
 20
-0.4083268478867569
 30
0.0
 10
-3.322631703754306
 20
-0.4083268478867569
 30
0.0
 10
-3.349235001516969
 20
-0.4083268478867569
 30
0.0
 10
-3.349235001516969
 20
-0.4083268478867569
 30
0.0
 10
-3.349235001516969
 20
-0.4083268478867569
 30
0.0
 10
-3.349235001516969
 20
-0.038570535030279
 30
0.0
 10
-3.349235001516969
 20
-0.038570535030279
 30
0.0
  0
HATCH
  5
F1
330
C9
100
AcDbEntity
  8
Layer 2
 62
   250
420
  2170655
440
 33554687
100
AcDbHatch
 10
0.0
 20
0.0
 30
0.0
210
0.0
220
0.0
230
1.0
  2
SOLID
 70
     1
 71
     1
 91
        2
 92
        1
 93
        1
 72
     4
 94
        3
 73
     0
 74
     0
 95
       23
 96
       19
 40
0.0
 40
0.0
 40
0.0
 40
0.0
 40
1.0
 40
1.0
 40
1.0
 40
2.0
 40
2.0
 40
2.0
 40
3.0
 40
3.0
 40
3.0
 40
4.0
 40
4.0
 40
4.0
 40
5.0
 40
5.0
 40
5.0
 40
6.0
 40
6.0
 40
6.0
 40
6.0
 10
-3.226707225287074
 20
-0.2231713456930164
 10
-3.165742246902595
 20
-0.2231713456930164
 10
-3.135260089463649
 20
-0.1965673844237648
 10
-3.135260089463649
 20
-0.1433621159118653
 10
-3.135260089463649
 20
-0.1167608086689142
 10
-3.143317713806582
 20
-0.0967653732934903
 10
-3.1593898345624
 20
-0.0835058570822993
 10
-3.175462618824831
 20
-0.0701614120242387
 10
-3.198995871475959
 20
-0.0635104217069764
 10
-3.230032720445743
 20
-0.0635104217069764
 10
-3.230032720445743
 20
-0.0635104217069764
 10
-3.322631703754306
 20
-0.0635104217069764
 10
-3.322631703754306
 20
-0.0635104217069764
 10
-3.322631703754306
 20
-0.0635104217069764
 10
-3.322631703754306
 20
-0.2231713456930164
 10
-3.322631703754306
 20
-0.2231713456930164
 10
-3.322631703754306
 20
-0.2231713456930164
 10
-3.226707225287074
 20
-0.2231713456930164
 10
-3.226707225287074
 20
-0.2231713456930164
 97
        0
 97
        1
330
EF
 92
        1
 93
        1
 72
     4
 94
        3
 73
     0
 74
     0
 95
       47
 96
       43
 40
0.0
 40
0.0
 40
0.0
 40
0.0
 40
1.0
 40
1.0
 40
1.0
 40
2.0
 40
2.0
 40
2.0
 40
3.0
 40
3.0
 40
3.0
 40
4.0
 40
4.0
 40
4.0
 40
5.0
 40
5.0
 40
5.0
 40
6.0
 40
6.0
 40
6.0
 40
7.0
 40
7.0
 40
7.0
 40
8.0
 40
8.0
 40
8.0
 40
9.0
 40
9.0
 40
9.0
 40
10.0
 40
10.0
 40
10.0
 40
11.0
 40
11.0
 40
11.0
 40
12.0
 40
12.0
 40
12.0
 40
13.0
 40
13.0
 40
13.0
 40
14.0
 40
14.0
 40
14.0
 40
14.0
 10
-3.349235001516969
 20
-0.038570535030279
 10
-3.349235001516969
 20
-0.038570535030279
 10
-3.237792430318146
 20
-0.038570535030279
 10
-3.237792430318146
 20
-0.038570535030279
 10
-3.213790078489624
 20
-0.038570535030279
 10
-3.193453600713748
 20
-0.0411290165410618
 10
-3.176826788427042
 20
-0.0462884439859611
 10
-3.16019997614036
 20
-0.0515301462510252
 10
-3.146728137812058
 20
-0.0588207569461095
 10
-3.136368809018727
 20
-0.0682000864678937
 10
-3.12605128114223
 20
-0.0776218804129106
 10
-3.118548348330149
 20
-0.088750213373967
 10
-3.113943612416101
 20
-0.1014975024777414
 10
-3.109296412078681
 20
-0.1142023271582325
 10
-3.106994044121658
 20
-0.128186392593913
 10
-3.106994044121658
 20
-0.1433621159118653
 10
-3.106994044121658
 20
-0.1673651312468994
 10
-3.113175935261576
 20
-0.1887247362245337
 10
-3.125582181964836
 20
-0.2073533479710932
 10
-3.137945964244623
 20
-0.2259846137442562
 10
-3.157642158136215
 20
-0.2384771163075735
 10
-3.184586498299444
 20
-0.2447857372110573
 10
-3.184586498299444
 20
-0.2447857372110573
 10
-3.09646419412805
 20
-0.4083268478867569
 10
-3.09646419412805
 20
-0.4083268478867569
 10
-3.09646419412805
 20
-0.4083268478867569
 10
-3.126946351566996
 20
-0.4083268478867569
 10
-3.126946351566996
 20
-0.4083268478867569
 10
-3.126946351566996
 20
-0.4083268478867569
 10
-3.21285188013481
 20
-0.2481112323699159
 10
-3.21285188013481
 20
-0.2481112323699159
 10
-3.21285188013481
 20
-0.2481112323699159
 10
-3.322631703754306
 20
-0.2481112323699159
 10
-3.322631703754306
 20
-0.2481112323699159
 10
-3.322631703754306
 20
-0.2481112323699159
 10
-3.322631703754306
 20
-0.4083268478867569
 10
-3.322631703754306
 20
-0.4083268478867569
 10
-3.322631703754306
 20
-0.4083268478867569
 10
-3.349235001516969
 20
-0.4083268478867569
 10
-3.349235001516969
 20
-0.4083268478867569
 10
-3.349235001516969
 20
-0.4083268478867569
 10
-3.349235001516969
 20
-0.038570535030279
 10
-3.349235001516969
 20
-0.038570535030279
 97
        0
 97
        1
330
F0
 75
     2
 76
     1
 98
        1
 10
0.0
 20
0.0
450
        0
451
        0
460
0.0
461
0.0
452
        0
462
0.0
453
        0
470

  0
SPLINE
  5
F2
330
C9
100
AcDbEntity
  8
Layer 2
100
AcDbSpline
210
0.0
220
0.0
230
1.0
 70
     9
 71
     3
 72
    38
 73
    34
 74
     0
 42
0.0000000001
 43
0.0000000001
 40
0.0
 40
0.0
 40
0.0
 40
0.0
 40
1.0
 40
1.0
 40
1.0
 40
2.0
 40
2.0
 40
2.0
 40
3.0
 40
3.0
 40
3.0
 40
4.0
 40
4.0
 40
4.0
 40
5.0
 40
5.0
 40
5.0
 40
6.0
 40
6.0
 40
6.0
 40
7.0
 40
7.0
 40
7.0
 40
8.0
 40
8.0
 40
8.0
 40
9.0
 40
9.0
 40
9.0
 40
10.0
 40
10.0
 40
10.0
 40
11.0
 40
11.0
 40
11.0
 40
11.0
 10
-2.879147862757311
 20
-0.3833816531572564
 30
0.0
 10
-2.852928735325222
 20
-0.3833816531572564
 30
0.0
 10
-2.829181833543796
 20
-0.3800986224218326
 30
0.0
 10
-2.807908484426295
 20
-0.3737050726715299
 30
0.0
 10
-2.78663380829558
 20
-0.367223940047956
 30
0.0
 10
-2.76847296871305
 20
-0.3572899189953205
 30
0.0
 10
-2.753295254875411
 20
-0.3439879383606947
 30
0.0
 10
-2.738160668967768
 20
-0.3307310761759052
 30
0.0
 10
-2.726522099419083
 20
-0.3139762071123692
 30
0.0
 10
-2.718378882722681
 20
-0.2938109140432567
 30
0.0
 10
-2.710278793956363
 20
-0.2737305498211652
 30
0.0
 10
-2.706228086066554
 20
-0.2501548327466278
 30
0.0
 10
-2.706228086066554
 20
-0.2231660376402134
 30
0.0
 10
-2.706228086066554
 20
-0.1962223609835847
 30
0.0
 10
-2.710363722803183
 20
-0.1726891083324315
 30
0.0
 10
-2.718677460699836
 20
-0.1527812558303796
 30
0.0
 10
-2.727033663019887
 20
-0.1327858204549557
 30
0.0
 10
-2.738800289345463
 20
-0.1162008090851082
 30
0.0
 10
-2.754147860876767
 20
-0.1028563640270477
 30
0.0
 10
-2.769496095914708
 20
-0.0895968478158061
 30
0.0
 10
-2.788041105827813
 20
-0.0797079452132594
 30
0.0
 10
-2.809869146476166
 20
-0.0732268125894835
 30
0.0
 10
-2.831697187124531
 20
-0.0667456799659602
 30
0.0
 10
-2.856254230483879
 20
-0.0635077676805749
 30
0.0
 10
-2.883581413964444
 20
-0.0635077676805749
 30
0.0
 10
-2.883581413964444
 20
-0.0635077676805749
 30
0.0
 10
-2.958998893455473
 20
-0.0635077676805749
 30
0.0
 10
-2.958998893455473
 20
-0.0635077676805749
 30
0.0
 10
-2.958998893455473
 20
-0.0635077676805749
 30
0.0
 10
-2.958998893455473
 20
-0.3833816531572564
 30
0.0
 10
-2.958998893455473
 20
-0.3833816531572564
 30
0.0
 10
-2.958998893455473
 20
-0.3833816531572564
 30
0.0
 10
-2.879147862757311
 20
-0.3833816531572564
 30
0.0
 10
-2.879147862757311
 20
-0.3833816531572564
 30
0.0
  0
SPLINE
  5
F3
330
C9
100
AcDbEntity
  8
Layer 2
100
AcDbSpline
210
0.0
220
0.0
230
1.0
 70
    11
 71
     3
 72
    38
 73
    34
 74
     0
 42
0.0000000001
 43
0.0000000001
 40
0.0
 40
0.0
 40
0.0
 40
0.0
 40
1.0
 40
1.0
 40
1.0
 40
2.0
 40
2.0
 40
2.0
 40
3.0
 40
3.0
 40
3.0
 40
4.0
 40
4.0
 40
4.0
 40
5.0
 40
5.0
 40
5.0
 40
6.0
 40
6.0
 40
6.0
 40
7.0
 40
7.0
 40
7.0
 40
8.0
 40
8.0
 40
8.0
 40
9.0
 40
9.0
 40
9.0
 40
10.0
 40
10.0
 40
10.0
 40
11.0
 40
11.0
 40
11.0
 40
11.0
 10
-2.985559726794702
 20
-0.0385652269772739
 30
0.0
 10
-2.985559726794702
 20
-0.0385652269772739
 30
0.0
 10
-2.884733261449557
 20
-0.0385652269772739
 30
0.0
 10
-2.884733261449557
 20
-0.0385652269772739
 30
0.0
 10
-2.854420961704274
 20
-0.0385652269772739
 30
0.0
 10
-2.82658155111628
 20
-0.0421481627030415
 30
0.0
 10
-2.801299958532417
 20
-0.0493963089744385
 30
0.0
 10
-2.775975901525144
 20
-0.0565993367962518
 30
0.0
 10
-2.754147860876767
 20
-0.0676852053338735
 30
0.0
 10
-2.735858301010731
 20
-0.0826486065347025
 30
0.0
 10
-2.717568741144746
 20
-0.09761200773538
 30
0.0
 10
-2.703372353591917
 20
-0.1167555006159091
 30
0.0
 10
-2.693140418068853
 20
-0.1399915023031705
 30
0.0
 10
-2.682993411392582
 20
-0.1632248499640304
 30
0.0
 10
-2.67796270423115
 20
-0.1909780046918664
 30
0.0
 10
-2.67796270423115
 20
-0.2231660376402134
 30
0.0
 10
-2.67796270423115
 20
-0.2552691417416402
 30
0.0
 10
-2.682993411392582
 20
-0.2830249504959283
 30
0.0
 10
-2.693140418068853
 20
-0.3063432270036072
 30
0.0
 10
-2.703372353591917
 20
-0.3295792286908687
 30
0.0
 10
-2.717568741144746
 20
-0.3488076504182673
 30
0.0
 10
-2.735858301010731
 20
-0.3639409093125828
 30
0.0
 10
-2.754147860876767
 20
-0.3791192866568862
 30
0.0
 10
-2.775975901525144
 20
-0.3902874300149253
 30
0.0
 10
-2.801299958532417
 20
-0.3974931118631401
 30
0.0
 10
-2.82658155111628
 20
-0.4046987937114056
 30
0.0
 10
-2.854420961704274
 20
-0.4083215398339032
 30
0.0
 10
-2.884733261449557
 20
-0.4083215398339032
 30
0.0
 10
-2.884733261449557
 20
-0.4083215398339032
 30
0.0
 10
-2.985559726794702
 20
-0.4083215398339032
 30
0.0
 10
-2.985559726794702
 20
-0.4083215398339032
 30
0.0
 10
-2.985559726794702
 20
-0.4083215398339032
 30
0.0
 10
-2.985559726794702
 20
-0.0385652269772739
 30
0.0
 10
-2.985559726794702
 20
-0.0385652269772739
 30
0.0
  0
HATCH
  5
F4
330
C9
100
AcDbEntity
  8
Layer 2
 62
   250
420
  2170655
440
 33554687
100
AcDbHatch
 10
0.0
 20
0.0
 30
0.0
210
0.0
220
0.0
230
1.0
  2
SOLID
 70
     1
 71
     1
 91
        2
 92
        1
 93
        1
 72
     4
 94
        3
 73
     0
 74
     0
 95
       38
 96
       34
 40
0.0
 40
0.0
 40
0.0
 40
0.0
 40
1.0
 40
1.0
 40
1.0
 40
2.0
 40
2.0
 40
2.0
 40
3.0
 40
3.0
 40
3.0
 40
4.0
 40
4.0
 40
4.0
 40
5.0
 40
5.0
 40
5.0
 40
6.0
 40
6.0
 40
6.0
 40
7.0
 40
7.0
 40
7.0
 40
8.0
 40
8.0
 40
8.0
 40
9.0
 40
9.0
 40
9.0
 40
10.0
 40
10.0
 40
10.0
 40
11.0
 40
11.0
 40
11.0
 40
11.0
 10
-2.879147862757311
 20
-0.3833816531572564
 10
-2.852928735325222
 20
-0.3833816531572564
 10
-2.829181833543796
 20
-0.3800986224218326
 10
-2.807908484426295
 20
-0.3737050726715299
 10
-2.78663380829558
 20
-0.367223940047956
 10
-2.76847296871305
 20
-0.3572899189953205
 10
-2.753295254875411
 20
-0.3439879383606947
 10
-2.738160668967768
 20
-0.3307310761759052
 10
-2.726522099419083
 20
-0.3139762071123692
 10
-2.718378882722681
 20
-0.2938109140432567
 10
-2.710278793956363
 20
-0.2737305498211652
 10
-2.706228086066554
 20
-0.2501548327466278
 10
-2.706228086066554
 20
-0.2231660376402134
 10
-2.706228086066554
 20
-0.1962223609835847
 10
-2.710363722803183
 20
-0.1726891083324315
 10
-2.718677460699836
 20
-0.1527812558303796
 10
-2.727033663019887
 20
-0.1327858204549557
 10
-2.738800289345463
 20
-0.1162008090851082
 10
-2.754147860876767
 20
-0.1028563640270477
 10
-2.769496095914708
 20
-0.0895968478158061
 10
-2.788041105827813
 20
-0.0797079452132594
 10
-2.809869146476166
 20
-0.0732268125894835
 10
-2.831697187124531
 20
-0.0667456799659602
 10
-2.856254230483879
 20
-0.0635077676805749
 10
-2.883581413964444
 20
-0.0635077676805749
 10
-2.883581413964444
 20
-0.0635077676805749
 10
-2.958998893455473
 20
-0.0635077676805749
 10
-2.958998893455473
 20
-0.0635077676805749
 10
-2.958998893455473
 20
-0.0635077676805749
 10
-2.958998893455473
 20
-0.3833816531572564
 10
-2.958998893455473
 20
-0.3833816531572564
 10
-2.958998893455473
 20
-0.3833816531572564
 10
-2.879147862757311
 20
-0.3833816531572564
 10
-2.879147862757311
 20
-0.3833816531572564
 97
        0
 97
        1
330
F2
 92
        1
 93
        1
 72
     4
 94
        3
 73
     0
 74
     0
 95
       38
 96
       34
 40
0.0
 40
0.0
 40
0.0
 40
0.0
 40
1.0
 40
1.0
 40
1.0
 40
2.0
 40
2.0
 40
2.0
 40
3.0
 40
3.0
 40
3.0
 40
4.0
 40
4.0
 40
4.0
 40
5.0
 40
5.0
 40
5.0
 40
6.0
 40
6.0
 40
6.0
 40
7.0
 40
7.0
 40
7.0
 40
8.0
 40
8.0
 40
8.0
 40
9.0
 40
9.0
 40
9.0
 40
10.0
 40
10.0
 40
10.0
 40
11.0
 40
11.0
 40
11.0
 40
11.0
 10
-2.985559726794702
 20
-0.0385652269772739
 10
-2.985559726794702
 20
-0.0385652269772739
 10
-2.884733261449557
 20
-0.0385652269772739
 10
-2.884733261449557
 20
-0.0385652269772739
 10
-2.854420961704274
 20
-0.0385652269772739
 10
-2.82658155111628
 20
-0.0421481627030415
 10
-2.801299958532417
 20
-0.0493963089744385
 10
-2.775975901525144
 20
-0.0565993367962518
 10
-2.754147860876767
 20
-0.0676852053338735
 10
-2.735858301010731
 20
-0.0826486065347025
 10
-2.717568741144746
 20
-0.09761200773538
 10
-2.703372353591917
 20
-0.1167555006159091
 10
-2.693140418068853
 20
-0.1399915023031705
 10
-2.682993411392582
 20
-0.1632248499640304
 10
-2.67796270423115
 20
-0.1909780046918664
 10
-2.67796270423115
 20
-0.2231660376402134
 10
-2.67796270423115
 20
-0.2552691417416402
 10
-2.682993411392582
 20
-0.2830249504959283
 10
-2.693140418068853
 20
-0.3063432270036072
 10
-2.703372353591917
 20
-0.3295792286908687
 10
-2.717568741144746
 20
-0.3488076504182673
 10
-2.735858301010731
 20
-0.3639409093125828
 10
-2.754147860876767
 20
-0.3791192866568862
 10
-2.775975901525144
 20
-0.3902874300149253
 10
-2.801299958532417
 20
-0.3974931118631401
 10
-2.82658155111628
 20
-0.4046987937114056
 10
-2.854420961704274
 20
-0.4083215398339032
 10
-2.884733261449557
 20
-0.4083215398339032
 10
-2.884733261449557
 20
-0.4083215398339032
 10
-2.985559726794702
 20
-0.4083215398339032
 10
-2.985559726794702
 20
-0.4083215398339032
 10
-2.985559726794702
 20
-0.4083215398339032
 10
-2.985559726794702
 20
-0.0385652269772739
 10
-2.985559726794702
 20
-0.0385652269772739
 97
        0
 97
        1
330
F3
 75
     2
 76
     1
 98
        1
 10
0.0
 20
0.0
450
        0
451
        0
460
0.0
461
0.0
452
        0
462
0.0
453
        0
470

  0
LWPOLYLINE
  5
F5
330
C9
100
AcDbEntity
  8
Layer 2
100
AcDbPolyline
 90
       13
 70
     1
 43
0.0
 10
-2.597037456321964
 20
-0.038567881003726
 10
-2.567066862483859
 20
-0.038567881003726
 10
-2.478390530288227
 20
-0.3705945536563982
 10
-2.384725291847972
 20
-0.0496537495416002
 10
-2.351983894382037
 20
-0.0496537495416002
 10
-2.262752870655567
 20
-0.3684182519564274
 10
-2.17458743855415
 20
-0.038567881003726
 10
-2.145809829611329
 20
-0.038567881003726
 10
-2.249494017950976
 20
-0.4083241938603553
 10
-2.278825654917997
 20
-0.4083241938603553
 10
-2.36920719911638
 20
-0.0890023458880731
 10
-2.463980493605112
 20
-0.4083241938603553
 10
-2.495017342574858
 20
-0.4083241938603553
  0
HATCH
  5
F6
330
C9
100
AcDbEntity
  8
Layer 2
 62
   250
420
  2170655
440
 33554687
100
AcDbHatch
 10
0.0
 20
0.0
 30
0.0
210
0.0
220
0.0
230
1.0
  2
SOLID
 70
     1
 71
     1
 91
        1
 92
        1
 93
       13
 72
     1
 10
-2.597037456321964
 20
-0.038567881003726
 11
-2.567066862483859
 21
-0.038567881003726
 72
     1
 10
-2.567066862483859
 20
-0.038567881003726
 11
-2.478390530288227
 21
-0.3705945536563982
 72
     1
 10
-2.478390530288227
 20
-0.3705945536563982
 11
-2.384725291847972
 21
-0.0496537495416002
 72
     1
 10
-2.384725291847972
 20
-0.0496537495416002
 11
-2.351983894382037
 21
-0.0496537495416002
 72
     1
 10
-2.351983894382037
 20
-0.0496537495416002
 11
-2.262752870655567
 21
-0.3684182519564274
 72
     1
 10
-2.262752870655567
 20
-0.3684182519564274
 11
-2.17458743855415
 21
-0.0385678810037259
 72
     1
 10
-2.17458743855415
 20
-0.038567881003726
 11
-2.145809829611329
 21
-0.038567881003726
 72
     1
 10
-2.145809829611329
 20
-0.038567881003726
 11
-2.249494017950976
 21
-0.4083241938603553
 72
     1
 10
-2.249494017950976
 20
-0.4083241938603553
 11
-2.278825654917997
 21
-0.4083241938603553
 72
     1
 10
-2.278825654917997
 20
-0.4083241938603553
 11
-2.36920719911638
 21
-0.0890023458880731
 72
     1
 10
-2.36920719911638
 20
-0.0890023458880731
 11
-2.463980493605112
 21
-0.4083241938603553
 72
     1
 10
-2.463980493605112
 20
-0.4083241938603553
 11
-2.495017342574858
 21
-0.4083241938603553
 72
     1
 10
-2.495017342574858
 20
-0.4083241938603553
 11
-2.597037456321964
 21
-0.0385678810037259
 97
        1
330
F5
 75
     2
 76
     1
 98
        1
 10
0.0
 20
0.0
450
        0
451
        0
460
0.0
461
0.0
452
        0
462
0.0
453
        0
470

  0
SPLINE
  5
F7
330
C9
100
AcDbEntity
  8
Layer 2
100
AcDbSpline
210
0.0
220
0.0
230
1.0
 70
    11
 71
     3
 72
    14
 73
    10
 74
     0
 42
0.0000000001
 43
0.0000000001
 40
0.0
 40
0.0
 40
0.0
 40
0.0
 40
1.0
 40
1.0
 40
1.0
 40
2.0
 40
2.0
 40
2.0
 40
3.0
 40
3.0
 40
3.0
 40
3.0
 10
-1.860878856552012
 20
-0.2641813626056924
 30
0.0
 10
-1.860878856552012
 20
-0.2641813626056924
 30
0.0
 10
-1.937916619198921
 20
-0.0723748700947908
 30
0.0
 10
-1.937916619198921
 20
-0.0723748700947908
 30
0.0
 10
-1.937916619198921
 20
-0.0723748700947908
 30
0.0
 10
-2.014996846269304
 20
-0.2641813626056924
 30
0.0
 10
-2.014996846269304
 20
-0.2641813626056924
 30
0.0
 10
-2.014996846269304
 20
-0.2641813626056924
 30
0.0
 10
-1.860878856552012
 20
-0.2641813626056924
 30
0.0
 10
-1.860878856552012
 20
-0.2641813626056924
 30
0.0
  0
SPLINE
  5
F8
330
C9
100
AcDbEntity
  8
Layer 2
100
AcDbSpline
210
0.0
220
0.0
230
1.0
 70
    11
 71
     3
 72
    29
 73
    25
 74
     0
 42
0.0000000001
 43
0.0000000001
 40
0.0
 40
0.0
 40
0.0
 40
0.0
 40
1.0
 40
1.0
 40
1.0
 40
2.0
 40
2.0
 40
2.0
 40
3.0
 40
3.0
 40
3.0
 40
4.0
 40
4.0
 40
4.0
 40
5.0
 40
5.0
 40
5.0
 40
6.0
 40
6.0
 40
6.0
 40
7.0
 40
7.0
 40
7.0
 40
8.0
 40
8.0
 40
8.0
 40
8.0
 10
-1.950109216771857
 20
-0.038567881003726
 30
0.0
 10
-1.950109216771857
 20
-0.038567881003726
 30
0.0
 10
-1.923506582515806
 20
-0.038567881003726
 30
0.0
 10
-1.923506582515806
 20
-0.038567881003726
 30
0.0
 10
-1.923506582515806
 20
-0.038567881003726
 30
0.0
 10
-1.772117595509535
 20
-0.4083241938603553
 30
0.0
 10
-1.772117595509535
 20
-0.4083241938603553
 30
0.0
 10
-1.772117595509535
 20
-0.4083241938603553
 30
0.0
 10
-1.802642217371877
 20
-0.4083241938603553
 30
0.0
 10
-1.802642217371877
 20
-0.4083241938603553
 30
0.0
 10
-1.802642217371877
 20
-0.4083241938603553
 30
0.0
 10
-1.850903034582643
 20
-0.2891212492825919
 30
0.0
 10
-1.850903034582643
 20
-0.2891212492825919
 30
0.0
 10
-1.850903034582643
 20
-0.2891212492825919
 30
0.0
 10
-2.024930203815251
 20
-0.2891212492825919
 30
0.0
 10
-2.024930203815251
 20
-0.2891212492825919
 30
0.0
 10
-2.024930203815251
 20
-0.2891212492825919
 30
0.0
 10
-2.072593865071717
 20
-0.4083241938603553
 30
0.0
 10
-2.072593865071717
 20
-0.4083241938603553
 30
0.0
 10
-2.072593865071717
 20
-0.4083241938603553
 30
0.0
 10
-2.101413938437947
 20
-0.4083241938603553
 30
0.0
 10
-2.101413938437947
 20
-0.4083241938603553
 30
0.0
 10
-2.101413938437947
 20
-0.4083241938603553
 30
0.0
 10
-1.950109216771857
 20
-0.038567881003726
 30
0.0
 10
-1.950109216771857
 20
-0.038567881003726
 30
0.0
  0
HATCH
  5
F9
330
C9
100
AcDbEntity
  8
Layer 2
 62
   250
420
  2170655
440
 33554687
100
AcDbHatch
 10
0.0
 20
0.0
 30
0.0
210
0.0
220
0.0
230
1.0
  2
SOLID
 70
     1
 71
     1
 91
        2
 92
        1
 93
        1
 72
     4
 94
        3
 73
     0
 74
     0
 95
       14
 96
       10
 40
0.0
 40
0.0
 40
0.0
 40
0.0
 40
1.0
 40
1.0
 40
1.0
 40
2.0
 40
2.0
 40
2.0
 40
3.0
 40
3.0
 40
3.0
 40
3.0
 10
-1.860878856552012
 20
-0.2641813626056924
 10
-1.860878856552012
 20
-0.2641813626056924
 10
-1.937916619198921
 20
-0.0723748700947908
 10
-1.937916619198921
 20
-0.0723748700947908
 10
-1.937916619198921
 20
-0.0723748700947908
 10
-2.014996846269304
 20
-0.2641813626056924
 10
-2.014996846269304
 20
-0.2641813626056924
 10
-2.014996846269304
 20
-0.2641813626056924
 10
-1.860878856552012
 20
-0.2641813626056924
 10
-1.860878856552012
 20
-0.2641813626056924
 97
        0
 97
        1
330
F7
 92
        1
 93
        1
 72
     4
 94
        3
 73
     0
 74
     0
 95
       29
 96
       25
 40
0.0
 40
0.0
 40
0.0
 40
0.0
 40
1.0
 40
1.0
 40
1.0
 40
2.0
 40
2.0
 40
2.0
 40
3.0
 40
3.0
 40
3.0
 40
4.0
 40
4.0
 40
4.0
 40
5.0
 40
5.0
 40
5.0
 40
6.0
 40
6.0
 40
6.0
 40
7.0
 40
7.0
 40
7.0
 40
8.0
 40
8.0
 40
8.0
 40
8.0
 10
-1.950109216771857
 20
-0.038567881003726
 10
-1.950109216771857
 20
-0.038567881003726
 10
-1.923506582515806
 20
-0.038567881003726
 10
-1.923506582515806
 20
-0.038567881003726
 10
-1.923506582515806
 20
-0.038567881003726
 10
-1.772117595509535
 20
-0.4083241938603553
 10
-1.772117595509535
 20
-0.4083241938603553
 10
-1.772117595509535
 20
-0.4083241938603553
 10
-1.802642217371877
 20
-0.4083241938603553
 10
-1.802642217371877
 20
-0.4083241938603553
 10
-1.802642217371877
 20
-0.4083241938603553
 10
-1.850903034582643
 20
-0.2891212492825919
 10
-1.850903034582643
 20
-0.2891212492825919
 10
-1.850903034582643
 20
-0.2891212492825919
 10
-2.024930203815251
 20
-0.2891212492825919
 10
-2.024930203815251
 20
-0.2891212492825919
 10
-2.024930203815251
 20
-0.2891212492825919
 10
-2.072593865071717
 20
-0.4083241938603553
 10
-2.072593865071717
 20
-0.4083241938603553
 10
-2.072593865071717
 20
-0.4083241938603553
 10
-2.101413938437947
 20
-0.4083241938603553
 10
-2.101413938437947
 20
-0.4083241938603553
 10
-2.101413938437947
 20
-0.4083241938603553
 10
-1.950109216771857
 20
-0.038567881003726
 10
-1.950109216771857
 20
-0.038567881003726
 97
        0
 97
        1
330
F8
 75
     2
 76
     1
 98
        1
 10
0.0
 20
0.0
450
        0
451
        0
460
0.0
461
0.0
452
        0
462
0.0
453
        0
470

  0
SPLINE
  5
FA
330
C9
100
AcDbEntity
  8
Layer 2
100
AcDbSpline
210
0.0
220
0.0
230
1.0
 70
     9
 71
     3
 72
    23
 73
    19
 74
     0
 42
0.0000000001
 43
0.0000000001
 40
0.0
 40
0.0
 40
0.0
 40
0.0
 40
1.0
 40
1.0
 40
1.0
 40
2.0
 40
2.0
 40
2.0
 40
3.0
 40
3.0
 40
3.0
 40
4.0
 40
4.0
 40
4.0
 40
5.0
 40
5.0
 40
5.0
 40
6.0
 40
6.0
 40
6.0
 40
6.0
 10
-1.557619176736327
 20
-0.2231713456930164
 30
0.0
 10
-1.49665419835181
 20
-0.2231713456930164
 30
0.0
 10
-1.466128912982842
 20
-0.1965673844237648
 30
0.0
 10
-1.466128912982842
 20
-0.1433621159118653
 30
0.0
 10
-1.466128912982842
 20
-0.1167608086689142
 30
0.0
 10
-1.474187200832362
 20
-0.0967653732934903
 30
0.0
 10
-1.490259321588218
 20
-0.0835058570822993
 30
0.0
 10
-1.506332105850674
 20
-0.0701614120242387
 30
0.0
 10
-1.529907822925186
 20
-0.0635104217069764
 30
0.0
 10
-1.560944671894958
 20
-0.0635104217069764
 30
0.0
 10
-1.560944671894958
 20
-0.0635104217069764
 30
0.0
 10
-1.653501190780123
 20
-0.0635104217069764
 30
0.0
 10
-1.653501190780123
 20
-0.0635104217069764
 30
0.0
 10
-1.653501190780123
 20
-0.0635104217069764
 30
0.0
 10
-1.653501190780123
 20
-0.2231713456930164
 30
0.0
 10
-1.653501190780123
 20
-0.2231713456930164
 30
0.0
 10
-1.653501190780123
 20
-0.2231713456930164
 30
0.0
 10
-1.557619176736327
 20
-0.2231713456930164
 30
0.0
 10
-1.557619176736327
 20
-0.2231713456930164
 30
0.0
  0
SPLINE
  5
FB
330
C9
100
AcDbEntity
  8
Layer 2
100
AcDbSpline
210
0.0
220
0.0
230
1.0
 70
    11
 71
     3
 72
    47
 73
    43
 74
     0
 42
0.0000000001
 43
0.0000000001
 40
0.0
 40
0.0
 40
0.0
 40
0.0
 40
1.0
 40
1.0
 40
1.0
 40
2.0
 40
2.0
 40
2.0
 40
3.0
 40
3.0
 40
3.0
 40
4.0
 40
4.0
 40
4.0
 40
5.0
 40
5.0
 40
5.0
 40
6.0
 40
6.0
 40
6.0
 40
7.0
 40
7.0
 40
7.0
 40
8.0
 40
8.0
 40
8.0
 40
9.0
 40
9.0
 40
9.0
 40
10.0
 40
10.0
 40
10.0
 40
11.0
 40
11.0
 40
11.0
 40
12.0
 40
12.0
 40
12.0
 40
13.0
 40
13.0
 40
13.0
 40
14.0
 40
14.0
 40
14.0
 40
14.0
 10
-1.680146289459571
 20
-0.038570535030279
 30
0.0
 10
-1.680146289459571
 20
-0.038570535030279
 30
0.0
 10
-1.568703718260773
 20
-0.038570535030279
 30
0.0
 10
-1.568703718260773
 20
-0.038570535030279
 30
0.0
 10
-1.544701366432238
 20
-0.038570535030279
 30
0.0
 10
-1.524365552162938
 20
-0.0411290165410618
 30
0.0
 10
-1.507738739876243
 20
-0.0462884439859611
 30
0.0
 10
-1.491111927589574
 20
-0.0515301462510252
 30
0.0
 10
-1.477596961331262
 20
-0.0588207569461095
 30
0.0
 10
-1.467280096961328
 20
-0.0682000864678937
 30
0.0
 10
-1.456963232591495
 20
-0.0776218804129106
 30
0.0
 10
-1.449459636272725
 20
-0.088750213373967
 30
0.0
 10
-1.444812435935293
 20
-0.1014975024777414
 30
0.0
 10
-1.440207700021283
 20
-0.1142023271582325
 30
0.0
 10
-1.437905995570885
 20
-0.128186392593913
 30
0.0
 10
-1.437905995570885
 20
-0.1433621159118653
 30
0.0
 10
-1.437905995570885
 20
-0.1673651312468994
 30
0.0
 10
-1.444087886710791
 20
-0.1887247362245337
 30
0.0
 10
-1.456494133414013
 20
-0.2073533479710932
 30
0.0
 10
-1.46885791569385
 20
-0.2259846137442562
 30
0.0
 10
-1.488511645162058
 20
-0.2384771163075735
 30
0.0
 10
-1.515497786242046
 20
-0.2447857372110573
 30
0.0
 10
-1.515497786242046
 20
-0.2447857372110573
 30
0.0
 10
-1.427375482070652
 20
-0.4083268478867569
 30
0.0
 10
-1.427375482070652
 20
-0.4083268478867569
 30
0.0
 10
-1.427375482070652
 20
-0.4083268478867569
 30
0.0
 10
-1.45785830301621
 20
-0.4083268478867569
 30
0.0
 10
-1.45785830301621
 20
-0.4083268478867569
 30
0.0
 10
-1.45785830301621
 20
-0.4083268478867569
 30
0.0
 10
-1.54376316807745
 20
-0.2481112323699159
 30
0.0
 10
-1.54376316807745
 20
-0.2481112323699159
 30
0.0
 10
-1.54376316807745
 20
-0.2481112323699159
 30
0.0
 10
-1.653501190780123
 20
-0.2481112323699159
 30
0.0
 10
-1.653501190780123
 20
-0.2481112323699159
 30
0.0
 10
-1.653501190780123
 20
-0.2481112323699159
 30
0.0
 10
-1.653501190780123
 20
-0.4083268478867569
 30
0.0
 10
-1.653501190780123
 20
-0.4083268478867569
 30
0.0
 10
-1.653501190780123
 20
-0.4083268478867569
 30
0.0
 10
-1.680146289459571
 20
-0.4083268478867569
 30
0.0
 10
-1.680146289459571
 20
-0.4083268478867569
 30
0.0
 10
-1.680146289459571
 20
-0.4083268478867569
 30
0.0
 10
-1.680146289459571
 20
-0.038570535030279
 30
0.0
 10
-1.680146289459571
 20
-0.038570535030279
 30
0.0
  0
HATCH
  5
FC
330
C9
100
AcDbEntity
  8
Layer 2
 62
   250
420
  2170655
440
 33554687
100
AcDbHatch
 10
0.0
 20
0.0
 30
0.0
210
0.0
220
0.0
230
1.0
  2
SOLID
 70
     1
 71
     1
 91
        2
 92
        1
 93
        1
 72
     4
 94
        3
 73
     0
 74
     0
 95
       23
 96
       19
 40
0.0
 40
0.0
 40
0.0
 40
0.0
 40
1.0
 40
1.0
 40
1.0
 40
2.0
 40
2.0
 40
2.0
 40
3.0
 40
3.0
 40
3.0
 40
4.0
 40
4.0
 40
4.0
 40
5.0
 40
5.0
 40
5.0
 40
6.0
 40
6.0
 40
6.0
 40
6.0
 10
-1.557619176736327
 20
-0.2231713456930164
 10
-1.49665419835181
 20
-0.2231713456930164
 10
-1.466128912982842
 20
-0.1965673844237648
 10
-1.466128912982842
 20
-0.1433621159118653
 10
-1.466128912982842
 20
-0.1167608086689142
 10
-1.474187200832362
 20
-0.0967653732934903
 10
-1.490259321588218
 20
-0.0835058570822993
 10
-1.506332105850674
 20
-0.0701614120242387
 10
-1.529907822925186
 20
-0.0635104217069764
 10
-1.560944671894958
 20
-0.0635104217069764
 10
-1.560944671894958
 20
-0.0635104217069764
 10
-1.653501190780123
 20
-0.0635104217069764
 10
-1.653501190780123
 20
-0.0635104217069764
 10
-1.653501190780123
 20
-0.0635104217069764
 10
-1.653501190780123
 20
-0.2231713456930164
 10
-1.653501190780123
 20
-0.2231713456930164
 10
-1.653501190780123
 20
-0.2231713456930164
 10
-1.557619176736327
 20
-0.2231713456930164
 10
-1.557619176736327
 20
-0.2231713456930164
 97
        0
 97
        1
330
FA
 92
        1
 93
        1
 72
     4
 94
        3
 73
     0
 74
     0
 95
       47
 96
       43
 40
0.0
 40
0.0
 40
0.0
 40
0.0
 40
1.0
 40
1.0
 40
1.0
 40
2.0
 40
2.0
 40
2.0
 40
3.0
 40
3.0
 40
3.0
 40
4.0
 40
4.0
 40
4.0
 40
5.0
 40
5.0
 40
5.0
 40
6.0
 40
6.0
 40
6.0
 40
7.0
 40
7.0
 40
7.0
 40
8.0
 40
8.0
 40
8.0
 40
9.0
 40
9.0
 40
9.0
 40
10.0
 40
10.0
 40
10.0
 40
11.0
 40
11.0
 40
11.0
 40
12.0
 40
12.0
 40
12.0
 40
13.0
 40
13.0
 40
13.0
 40
14.0
 40
14.0
 40
14.0
 40
14.0
 10
-1.680146289459571
 20
-0.038570535030279
 10
-1.680146289459571
 20
-0.038570535030279
 10
-1.568703718260773
 20
-0.038570535030279
 10
-1.568703718260773
 20
-0.038570535030279
 10
-1.544701366432238
 20
-0.038570535030279
 10
-1.524365552162938
 20
-0.0411290165410618
 10
-1.507738739876243
 20
-0.0462884439859611
 10
-1.491111927589574
 20
-0.0515301462510252
 10
-1.477596961331262
 20
-0.0588207569461095
 10
-1.467280096961328
 20
-0.0682000864678937
 10
-1.456963232591495
 20
-0.0776218804129106
 10
-1.449459636272725
 20
-0.088750213373967
 10
-1.444812435935293
 20
-0.1014975024777414
 10
-1.440207700021283
 20
-0.1142023271582325
 10
-1.437905995570885
 20
-0.128186392593913
 10
-1.437905995570885
 20
-0.1433621159118653
 10
-1.437905995570885
 20
-0.1673651312468994
 10
-1.444087886710791
 20
-0.1887247362245337
 10
-1.456494133414013
 20
-0.2073533479710932
 10
-1.46885791569385
 20
-0.2259846137442562
 10
-1.488511645162058
 20
-0.2384771163075735
 10
-1.515497786242046
 20
-0.2447857372110573
 10
-1.515497786242046
 20
-0.2447857372110573
 10
-1.427375482070652
 20
-0.4083268478867569
 10
-1.427375482070652
 20
-0.4083268478867569
 10
-1.427375482070652
 20
-0.4083268478867569
 10
-1.45785830301621
 20
-0.4083268478867569
 10
-1.45785830301621
 20
-0.4083268478867569
 10
-1.45785830301621
 20
-0.4083268478867569
 10
-1.54376316807745
 20
-0.2481112323699159
 10
-1.54376316807745
 20
-0.2481112323699159
 10
-1.54376316807745
 20
-0.2481112323699159
 10
-1.653501190780123
 20
-0.2481112323699159
 10
-1.653501190780123
 20
-0.2481112323699159
 10
-1.653501190780123
 20
-0.2481112323699159
 10
-1.653501190780123
 20
-0.4083268478867569
 10
-1.653501190780123
 20
-0.4083268478867569
 10
-1.653501190780123
 20
-0.4083268478867569
 10
-1.680146289459571
 20
-0.4083268478867569
 10
-1.680146289459571
 20
-0.4083268478867569
 10
-1.680146289459571
 20
-0.4083268478867569
 10
-1.680146289459571
 20
-0.038570535030279
 10
-1.680146289459571
 20
-0.038570535030279
 97
        0
 97
        1
330
FB
 75
     2
 76
     1
 98
        1
 10
0.0
 20
0.0
450
        0
451
        0
460
0.0
461
0.0
452
        0
462
0.0
453
        0
470

  0
LWPOLYLINE
  5
FD
330
C9
100
AcDbEntity
  8
Layer 2
100
AcDbPolyline
 90
       12
 70
     1
 43
0.0
 10
-1.316491583442408
 20
-0.038567881003726
 10
-1.094757625023337
 20
-0.038567881003726
 10
-1.094757625023337
 20
-0.0635077676805749
 10
-1.28988894918637
 20
-0.0635077676805749
 10
-1.28988894918637
 20
-0.2032157207147267
 10
-1.13743304354178
 20
-0.2032157207147267
 10
-1.13743304354178
 20
-0.2281556073913735
 10
-1.28988894918637
 20
-0.2281556073913735
 10
-1.28988894918637
 20
-0.383384307183658
 10
-1.080348251846809
 20
-0.383384307183658
 10
-1.080348251846809
 20
-0.4083241938603553
 10
-1.316491583442408
 20
-0.4083241938603553
  0
HATCH
  5
FE
330
C9
100
AcDbEntity
  8
Layer 2
 62
   250
420
  2170655
440
 33554687
100
AcDbHatch
 10
0.0
 20
0.0
 30
0.0
210
0.0
220
0.0
230
1.0
  2
SOLID
 70
     1
 71
     1
 91
        1
 92
        1
 93
       12
 72
     1
 10
-1.316491583442408
 20
-0.038567881003726
 11
-1.094757625023337
 21
-0.038567881003726
 72
     1
 10
-1.094757625023337
 20
-0.038567881003726
 11
-1.094757625023337
 21
-0.0635077676805749
 72
     1
 10
-1.094757625023337
 20
-0.0635077676805749
 11
-1.28988894918637
 21
-0.0635077676805749
 72
     1
 10
-1.28988894918637
 20
-0.0635077676805749
 11
-1.28988894918637
 21
-0.2032157207147267
 72
     1
 10
-1.28988894918637
 20
-0.2032157207147267
 11
-1.13743304354178
 21
-0.2032157207147267
 72
     1
 10
-1.13743304354178
 20
-0.2032157207147267
 11
-1.13743304354178
 21
-0.2281556073913735
 72
     1
 10
-1.13743304354178
 20
-0.2281556073913735
 11
-1.28988894918637
 21
-0.2281556073913735
 72
     1
 10
-1.28988894918637
 20
-0.2281556073913735
 11
-1.28988894918637
 21
-0.383384307183658
 72
     1
 10
-1.28988894918637
 20
-0.383384307183658
 11
-1.080348251846809
 21
-0.383384307183658
 72
     1
 10
-1.080348251846809
 20
-0.383384307183658
 11
-1.080348251846809
 21
-0.4083241938603553
 72
     1
 10
-1.080348251846809
 20
-0.4083241938603553
 11
-1.316491583442408
 21
-0.4083241938603553
 72
     1
 10
-1.316491583442408
 20
-0.4083241938603553
 11
-1.316491583442408
 21
-0.0385678810037259
 97
        1
330
FD
 75
     2
 76
     1
 98
        1
 10
0.0
 20
0.0
450
        0
451
        0
460
0.0
461
0.0
452
        0
462
0.0
453
        0
470

  0
ENDBLK
  5
CC
330
C9
100
AcDbEntity
  8
0
100
AcDbBlockEnd
  0
ENDSEC
  0
SECTION
  2
ENTITIES
  0
LWPOLYLINE
  5
79
330
70
100
AcDbEntity
  8
Layer 1
100
AcDbPolyline
 90
        3
 70
     1
 43
0.0
 10
7.457514948315115
 20
16.82792724503416
 10
7.260847806930566
 20
16.82792724503416
 10
7.35918137762284
 20
16.43376093440583
  0
HATCH
  5
7A
330
70
100
AcDbEntity
  8
Layer 1
 62
    18
420
        0
440
 33554687
100
AcDbHatch
 10
0.0
 20
0.0
 30
0.0
210
0.0
220
0.0
230
1.0
  2
SOLID
 70
     1
 71
     1
 91
        1
 92
        1
 93
        3
 72
     1
 10
7.457514948315115
 20
16.82792724503416
 11
7.260847806930566
 21
16.82792724503416
 72
     1
 10
7.260847806930566
 20
16.82792724503416
 11
7.35918137762284
 21
16.43376093440583
 72
     1
 10
7.35918137762284
 20
16.43376093440583
 11
7.457514948315115
 21
16.82792724503416
 97
        1
330
79
 75
     0
 76
     1
 98
        1
 10
0.0
 20
0.0
450
        0
451
        0
460
0.0
461
0.0
452
        0
462
0.0
453
        0
470

  0
LWPOLYLINE
  5
7B
330
70
100
AcDbEntity
  8
Layer 1
 62
    18
420
        0
370
     0
100
AcDbPolyline
 90
        3
 70
     1
 43
0.0
 10
7.457514948315115
 20
16.82792724503416
 10
7.260847806930566
 20
16.82792724503416
 10
7.35918137762284
 20
16.43376093440583
  0
LWPOLYLINE
  5
7C
330
70
100
AcDbEntity
  8
Layer 1
100
AcDbPolyline
 90
        3
 70
     1
 43
0.0
 10
7.35918137762284
 20
16.43376051055055
 10
7.260847806930566
 20
16.04042749934722
 10
7.457514100604612
 20
16.04042749934722
  0
HATCH
  5
7D
330
70
100
AcDbEntity
  8
Layer 1
 62
    18
420
        0
440
 33554687
100
AcDbHatch
 10
0.0
 20
0.0
 30
0.0
210
0.0
220
0.0
230
1.0
  2
SOLID
 70
     1
 71
     1
 91
        1
 92
        1
 93
        3
 72
     1
 10
7.35918137762284
 20
16.43376051055055
 11
7.260847806930566
 21
16.04042749934722
 72
     1
 10
7.260847806930566
 20
16.04042749934722
 11
7.457514100604612
 21
16.04042749934722
 72
     1
 10
7.457514100604612
 20
16.04042749934722
 11
7.35918137762284
 21
16.43376051055055
 97
        1
330
7C
 75
     0
 76
     1
 98
        1
 10
0.0
 20
0.0
450
        0
451
        0
460
0.0
461
0.0
452
        0
462
0.0
453
        0
470

  0
LWPOLYLINE
  5
7E
330
70
100
AcDbEntity
  8
Layer 1
 62
    18
420
        0
370
     0
100
AcDbPolyline
 90
        3
 70
     1
 43
0.0
 10
7.35918137762284
 20
16.43376051055055
 10
7.260847806930566
 20
16.04042749934722
 10
7.457514100604612
 20
16.04042749934722
  0
LWPOLYLINE
  5
7F
330
70
100
AcDbEntity
  8
Layer 1
100
AcDbPolyline
 90
        3
 70
     1
 43
0.0
 10
1.079181326760211
 20
9.839593860838148
 10
0.6858478917016175
 20
9.741261137856376
 10
1.079181326760211
 20
9.642927567164102
  0
HATCH
  5
80
330
70
100
AcDbEntity
  8
Layer 1
 62
    18
420
        0
440
 33554687
100
AcDbHatch
 10
0.0
 20
0.0
 30
0.0
210
0.0
220
0.0
230
1.0
  2
SOLID
 70
     1
 71
     1
 91
        1
 92
        1
 93
        3
 72
     1
 10
1.079181326760211
 20
9.839593860838148
 11
0.6858478917016175
 21
9.741261137856376
 72
     1
 10
0.6858478917016175
 20
9.741261137856376
 11
1.079181326760211
 21
9.642927567164102
 72
     1
 10
1.079181326760211
 20
9.642927567164102
 11
1.079181326760211
 21
9.839593860838148
 97
        1
330
7F
 75
     0
 76
     1
 98
        1
 10
0.0
 20
0.0
450
        0
451
        0
460
0.0
461
0.0
452
        0
462
0.0
453
        0
470

  0
LWPOLYLINE
  5
81
330
70
100
AcDbEntity
  8
Layer 1
 62
    18
420
        0
370
     0
100
AcDbPolyline
 90
        3
 70
     1
 43
0.0
 10
1.079181326760211
 20
9.839593860838148
 10
0.6858478917016175
 20
9.741261137856376
 10
1.079181326760211
 20
9.642927567164102
  0
LWPOLYLINE
  5
82
330
70
100
AcDbEntity
  8
Layer 1
100
AcDbPolyline
 90
        3
 70
     1
 43
0.0
 10
13.67751447359723
 20
9.839593860838148
 10
13.67751447359723
 20
9.642927567164102
 10
14.07167951265973
 20
9.741261137856376
  0
HATCH
  5
83
330
70
100
AcDbEntity
  8
Layer 1
 62
    18
420
        0
440
 33554687
100
AcDbHatch
 10
0.0
 20
0.0
 30
0.0
210
0.0
220
0.0
230
1.0
  2
SOLID
 70
     1
 71
     1
 91
        1
 92
        1
 93
        3
 72
     1
 10
13.67751447359723
 20
9.839593860838148
 11
13.67751447359723
 21
9.642927567164102
 72
     1
 10
13.67751447359723
 20
9.642927567164102
 11
14.07167951265973
 21
9.741261137856376
 72
     1
 10
14.07167951265973
 20
9.741261137856376
 11
13.67751447359723
 21
9.839593860838148
 97
        1
330
82
 75
     0
 76
     1
 98
        1
 10
0.0
 20
0.0
450
        0
451
        0
460
0.0
461
0.0
452
        0
462
0.0
453
        0
470

  0
LWPOLYLINE
  5
84
330
70
100
AcDbEntity
  8
Layer 1
 62
    18
420
        0
370
     0
100
AcDbPolyline
 90
        3
 70
     1
 43
0.0
 10
13.67751447359723
 20
9.839593860838148
 10
13.67751447359723
 20
9.642927567164102
 10
14.07167951265973
 20
9.741261137856376
  0
LWPOLYLINE
  5
85
330
70
100
AcDbEntity
  8
Layer 1
100
AcDbPolyline
 90
        3
 70
     1
 43
0.0
 10
7.457514948315115
 20
3.442094776365491
 10
7.260847806930566
 20
3.442094776365491
 10
7.35918137762284
 20
3.047929737302991
  0
HATCH
  5
86
330
70
100
AcDbEntity
  8
Layer 1
 62
    18
420
        0
440
 33554687
100
AcDbHatch
 10
0.0
 20
0.0
 30
0.0
210
0.0
220
0.0
230
1.0
  2
SOLID
 70
     1
 71
     1
 91
        1
 92
        1
 93
        3
 72
     1
 10
7.457514948315115
 20
3.442094776365491
 11
7.260847806930566
 21
3.442094776365491
 72
     1
 10
7.260847806930566
 20
3.442094776365491
 11
7.35918137762284
 21
3.047929737302991
 72
     1
 10
7.35918137762284
 20
3.047929737302991
 11
7.457514948315115
 21
3.442094776365491
 97
        1
330
85
 75
     0
 76
     1
 98
        1
 10
0.0
 20
0.0
450
        0
451
        0
460
0.0
461
0.0
452
        0
462
0.0
453
        0
470

  0
LWPOLYLINE
  5
87
330
70
100
AcDbEntity
  8
Layer 1
 62
    18
420
        0
370
     0
100
AcDbPolyline
 90
        3
 70
     1
 43
0.0
 10
7.457514948315115
 20
3.442094776365491
 10
7.260847806930566
 20
3.442094776365491
 10
7.35918137762284
 20
3.047929737302991
  0
LWPOLYLINE
  5
88
330
70
100
AcDbEntity
  8
Layer 1
100
AcDbPolyline
 90
        3
 70
     1
 43
0.0
 10
7.35918137762284
 20
20.96209401554528
 10
7.260847806930566
 20
20.5679274400075
 10
7.457514100604612
 20
20.5679274400075
  0
HATCH
  5
89
330
70
100
AcDbEntity
  8
Layer 1
 62
    18
420
        0
440
 33554687
100
AcDbHatch
 10
0.0
 20
0.0
 30
0.0
210
0.0
220
0.0
230
1.0
  2
SOLID
 70
     1
 71
     1
 91
        1
 92
        1
 93
        3
 72
     1
 10
7.35918137762284
 20
20.96209401554528
 11
7.260847806930566
 21
20.5679274400075
 72
     1
 10
7.260847806930566
 20
20.5679274400075
 11
7.457514100604612
 21
20.5679274400075
 72
     1
 10
7.457514100604612
 20
20.5679274400075
 11
7.35918137762284
 21
20.96209401554528
 97
        1
330
88
 75
     0
 76
     1
 98
        1
 10
0.0
 20
0.0
450
        0
451
        0
460
0.0
461
0.0
452
        0
462
0.0
453
        0
470

  0
LWPOLYLINE
  5
8A
330
70
100
AcDbEntity
  8
Layer 1
 62
    18
420
        0
370
     0
100
AcDbPolyline
 90
        3
 70
     1
 43
0.0
 10
7.35918137762284
 20
20.96209401554528
 10
7.260847806930566
 20
20.5679274400075
 10
7.457514100604612
 20
20.5679274400075
  0
LINE
  5
8B
330
70
100
AcDbEntity
  8
Layer 1
 62
    18
420
        0
370
    15
100
AcDbLine
 10
7.35918137762284
 20
15.84376078181791
 30
0.0
 11
7.35918137762284
 21
15.54792761802667
 31
0.0
  0
LINE
  5
8C
330
70
100
AcDbEntity
  8
Layer 1
 62
    18
420
        0
370
    15
100
AcDbLine
 10
1.719181564119152
 20
20.96209396256347
 30
0.0
 11
2.000848213831608
 21
21.57292728953889
 31
0.0
  0
LINE
  5
8D
330
70
100
AcDbEntity
  8
Layer 1
 62
    18
420
        0
370
    15
100
AcDbLine
 10
8.486681275897581
 20
20.96209396256347
 30
0.0
 11
8.768347501754785
 21
21.57292728953889
 31
0.0
  0
LINE
  5
8E
330
70
100
AcDbEntity
  8
Layer 1
 62
    18
420
        0
370
    15
100
AcDbLine
 10
12.99834746784639
 20
20.96209396256347
 30
0.0
 11
13.28001284599306
 21
21.57292728953889
 31
0.0
  0
LINE
  5
8F
330
70
100
AcDbEntity
  8
Layer 1
 62
    18
420
        0
370
    15
100
AcDbLine
 10
15.25501386324569
 20
20.96209396256347
 30
0.0
 11
15.53584678967791
 21
21.57292728953889
 31
0.0
  0
LINE
  5
90
330
70
100
AcDbEntity
  8
Layer 1
 62
    18
420
        0
370
    15
100
AcDbLine
 10
-0.5366528034209952
 20
20.96209396256347
 30
0.0
 11
-0.2558196650610776
 21
21.57292728953889
 31
0.0
  0
LWPOLYLINE
  5
91
330
70
100
AcDbEntity
  8
Layer 1
 62
    18
420
        0
370
    15
100
AcDbPolyline
 90
        4
 70
     0
 43
0.0
 10
-2.511652761035469
 20
21.57292728953889
 10
-2.792486111323013
 20
20.96209396256347
 10
17.51084611150958
 20
20.96209396256347
 10
17.7916790379418
 20
21.57292728953889
  0
LINE
  5
92
330
70
100
AcDbEntity
  8
Layer 1
 62
    18
420
        0
370
    15
100
AcDbLine
 10
6.230847332212684
 20
20.96209396256347
 30
0.0
 11
6.51251355806989
 21
21.57292728953889
 31
0.0
  0
LINE
  5
93
330
70
100
AcDbEntity
  8
Layer 1
 62
    18
420
        0
370
    15
100
AcDbLine
 10
3.975014236238292
 20
20.96209396256347
 30
0.0
 11
4.256680462095497
 21
21.57292728953889
 31
0.0
  0
LINE
  5
94
330
70
100
AcDbEntity
  8
Layer 1
 62
    18
420
        0
370
    15
100
AcDbLine
 10
10.74251437187195
 20
20.96209396256347
 30
0.0
 11
11.02418059772918
 21
21.57292728953889
 31
0.0
  0
LWPOLYLINE
  5
95
330
70
100
AcDbEntity
  8
Layer 1
 62
    18
420
        0
370
    15
100
AcDbPolyline
 90
        4
 70
     0
 43
0.0
 10
7.359180529912337
 20
3.047928041881985
 10
7.457513252894108
 20
3.442094776365491
 10
7.260846959220063
 20
3.442094776365491
 10
7.359180529912337
 20
3.047928041881985
  0
LINE
  5
96
330
70
100
AcDbEntity
  8
Layer 1
 62
    18
420
        0
370
    15
100
AcDbLine
 10
7.359180529912337
 20
16.82792766888931
 30
0.0
 11
7.359180529912337
 21
20.56792765193514
 31
0.0
  0
LWPOLYLINE
  5
97
330
70
100
AcDbEntity
  8
Layer 1
 62
    18
420
        0
370
    15
100
AcDbPolyline
 90
        4
 70
     1
 43
0.0
 10
0.6858470439911141
 20
16.43376178211638
 10
0.6858470439911141
 20
3.047928041881985
 10
14.07167951265973
 20
3.047928041881985
 10
14.07167951265973
 20
16.43376178211638
  0
LINE
  5
98
330
70
100
AcDbEntity
  8
Layer 1
 62
    18
420
        0
370
    15
100
AcDbLine
 10
0.6858470439911141
 20
9.761261171764797
 30
0.0
 11
0.6858470439911141
 21
9.761261171764797
 31
0.0
  0
LINE
  5
99
330
70
100
AcDbEntity
  8
Layer 1
 62
    18
420
        0
370
    15
100
AcDbLine
 10
14.07168120808069
 20
9.761261171764797
 30
0.0
 11
14.07168120808069
 21
9.761261171764797
 31
0.0
  0
LWPOLYLINE
  5
9A
330
70
100
AcDbEntity
  8
Layer 1
 62
    18
420
        0
370
    15
100
AcDbPolyline
 90
        4
 70
     0
 43
0.0
 10
0.6858474678463659
 20
9.741261137856376
 10
1.079180479049707
 20
9.642928414874605
 10
1.079180479049707
 20
9.83959470854865
 10
0.6858474678463659
 20
9.741261137856376
  0
LWPOLYLINE
  5
9B
330
70
100
AcDbEntity
  8
Layer 1
 62
    18
420
        0
370
    15
100
AcDbPolyline
 90
        4
 70
     0
 43
0.0
 10
14.07168120808069
 20
9.741261137856376
 10
13.67751447359723
 20
9.83959470854865
 10
13.67751447359723
 20
9.642928414874605
 10
14.07168120808069
 20
9.741261137856376
  0
LINE
  5
9C
330
70
100
AcDbEntity
  8
Layer 1
 62
    18
420
        0
370
    15
100
AcDbLine
 10
1.079180902904959
 20
9.741261137856376
 30
0.0
 11
13.67751447359723
 21
9.741261137856376
 31
0.0
  0
LINE
  5
9D
330
70
100
AcDbEntity
  8
Layer 1
 62
    18
420
        0
370
    15
100
AcDbLine
 10
7.378347264395844
 20
3.047928041881985
 30
0.0
 11
7.378347264395844
 21
3.047928041881985
 31
0.0
  0
LINE
  5
9E
330
70
100
AcDbEntity
  8
Layer 1
 62
    18
420
        0
370
    15
100
AcDbLine
 10
7.359180529912337
 20
3.442094776365491
 30
0.0
 11
7.359180529912337
 21
16.04042834705778
 31
0.0
  0
LWPOLYLINE
  5
9F
330
70
100
AcDbEntity
  8
Layer 1
 62
    18
420
        0
370
    15
100
AcDbPolyline
 90
        4
 70
     0
 43
0.0
 10
7.359180529912337
 20
20.96209396256347
 10
7.260846959220063
 20
20.56792733404375
 10
7.457513252894108
 20
20.56792733404375
 10
7.359180529912337
 20
20.96209396256347
  0
LWPOLYLINE
  5
A0
330
70
100
AcDbEntity
  8
Layer 1
 62
    18
420
        0
370
    15
100
AcDbPolyline
 90
        4
 70
     0
 43
0.0
 10
7.359180529912337
 20
16.43376051055055
 10
7.457513252894108
 20
16.82792724503416
 10
7.260846959220063
 20
16.82792724503416
 10
7.359180529912337
 20
16.43376051055055
  0
MTEXT
  5
A1
330
70
100
AcDbEntity
  8
Layer 1
100
AcDbMText
 10
11.15834723578559
 20
18.33792622884114
 30
0.0
 40
0.2
 41
0.0
 46
0.0
 71
     7
 72
     1
  1
\C18;\c0;\FArial|b0|i0|c1;\H0.769456;\W1.000000; min
 73
     1
 44
1.0
  0
MTEXT
  5
A2
330
70
100
AcDbEntity
  8
Layer 1
100
AcDbMText
 10
7.475825627644856
 20
17.05375332302517
 30
0.0
 40
0.2
 41
0.0
 46
0.0
 71
     7
 72
     1
  1
\C18;\c0;\FArial|b0|i0|c1;\H0.769456;\W1.000000;4-1/2" min
 73
     1
 44
1.0
  0
MTEXT
  5
A3
330
70
100
AcDbEntity
  8
Layer 1
100
AcDbMText
 10
2.541682773166232
 20
8.799594667222764
 30
0.0
 40
0.2
 41
0.0
 46
0.0
 71
     7
 72
     1
  1
\C18;\c0;\FArial|b0|i0|c1;\H0.769456;\W1.000000; 13-3/8"
 73
     1
 44
1.0
  0
SPLINE
  5
A4
330
70
100
AcDbEntity
  8
Layer 1
100
AcDbSpline
210
0.0
220
0.0
230
1.0
 70
    11
 71
     3
 72
    32
 73
    28
 74
     0
 42
0.0000000001
 43
0.0000000001
 40
0.0
 40
0.0
 40
0.0
 40
0.0
 40
1.0
 40
1.0
 40
1.0
 40
2.0
 40
2.0
 40
2.0
 40
3.0
 40
3.0
 40
3.0
 40
4.0
 40
4.0
 40
4.0
 40
5.0
 40
5.0
 40
5.0
 40
6.0
 40
6.0
 40
6.0
 40
7.0
 40
7.0
 40
7.0
 40
8.0
 40
8.0
 40
8.0
 40
9.0
 40
9.0
 40
9.0
 40
9.0
 10
8.3441811402639
 20
5.112094640731811
 30
0.0
 10
8.3441811402639
 20
5.112094640731811
 30
0.0
 10
8.3441811402639
 20
5.016262663735283
 30
0.0
 10
8.3441811402639
 20
5.016262663735283
 30
0.0
 10
8.3441811402639
 20
5.016262663735283
 30
0.0
 10
7.73501382933725
 20
5.016262663735283
 30
0.0
 10
7.73501382933725
 20
5.016262663735283
 30
0.0
 10
7.756680462095497
 20
4.993762731552124
 30
0.0
 10
7.778347094853743
 20
4.963762256834241
 30
0.0
 10
7.800847027036903
 20
4.926262935002644
 30
0.0
 10
7.822513659795149
 20
4.88876191775004
 30
0.0
 10
7.839180496003917
 20
4.855428245332505
 30
0.0
 10
7.850014236238292
 20
4.82542946603563
 30
0.0
 10
7.850014236238292
 20
4.82542946603563
 30
0.0
 10
7.75751376152041
 20
4.82542946603563
 30
0.0
 10
7.75751376152041
 20
4.82542946603563
 30
0.0
 10
7.732513931062511
 20
4.878762324651082
 30
0.0
 10
7.701681004630219
 20
4.925428787867227
 30
0.0
 10
7.665847433937945
 20
4.965428855684067
 30
0.0
 10
7.630847162670583
 20
5.005428923500908
 30
0.0
 10
7.595847739113726
 20
5.033762799368964
 30
0.0
 10
7.562514066696191
 20
5.050428787867227
 30
0.0
 10
7.562514066696191
 20
5.050428787867227
 30
0.0
 10
7.562514066696191
 20
5.112094640731811
 30
0.0
 10
7.562514066696191
 20
5.112094640731811
 30
0.0
 10
7.562514066696191
 20
5.112094640731811
 30
0.0
 10
8.3441811402639
 20
5.112094640731811
 30
0.0
 10
8.3441811402639
 20
5.112094640731811
 30
0.0
  0
HATCH
  5
A5
330
70
100
AcDbEntity
  8
Layer 1
 62
    18
420
        0
440
 33554687
100
AcDbHatch
 10
0.0
 20
0.0
 30
0.0
210
0.0
220
0.0
230
1.0
  2
SOLID
 70
     1
 71
     1
 91
        1
 92
        1
 93
        2
 72
     4
 94
        3
 73
     0
 74
     0
 95
       32
 96
       28
 40
0.0
 40
0.0
 40
0.0
 40
0.0
 40
1.0
 40
1.0
 40
1.0
 40
2.0
 40
2.0
 40
2.0
 40
3.0
 40
3.0
 40
3.0
 40
4.0
 40
4.0
 40
4.0
 40
5.0
 40
5.0
 40
5.0
 40
6.0
 40
6.0
 40
6.0
 40
7.0
 40
7.0
 40
7.0
 40
8.0
 40
8.0
 40
8.0
 40
9.0
 40
9.0
 40
9.0
 40
9.0
 10
8.3441811402639
 20
5.112094640731811
 10
8.3441811402639
 20
5.112094640731811
 10
8.3441811402639
 20
5.016262663735283
 10
8.3441811402639
 20
5.016262663735283
 10
8.3441811402639
 20
5.016262663735283
 10
7.73501382933725
 20
5.016262663735283
 10
7.73501382933725
 20
5.016262663735283
 10
7.756680462095497
 20
4.993762731552124
 10
7.778347094853743
 20
4.963762256834241
 10
7.800847027036903
 20
4.926262935002644
 10
7.822513659795149
 20
4.88876191775004
 10
7.839180496003917
 20
4.855428245332505
 10
7.850014236238292
 20
4.82542946603563
 10
7.850014236238292
 20
4.82542946603563
 10
7.75751376152041
 20
4.82542946603563
 10
7.75751376152041
 20
4.82542946603563
 10
7.732513931062511
 20
4.878762324651082
 10
7.701681004630219
 20
4.925428787867227
 10
7.665847433937945
 20
4.965428855684067
 10
7.630847162670583
 20
5.005428923500908
 10
7.595847739113726
 20
5.033762799368964
 10
7.562514066696191
 20
5.050428787867227
 10
7.562514066696191
 20
5.050428787867227
 10
7.562514066696191
 20
5.112094640731811
 10
7.562514066696191
 20
5.112094640731811
 10
7.562514066696191
 20
5.112094640731811
 10
8.3441811402639
 20
5.112094640731811
 10
8.3441811402639
 20
5.112094640731811
 97
        0
 72
     1
 10
8.344181140263899
 20
5.112094640731811
 11
8.3441811402639
 21
5.112094640731811
 97
        0
 75
     2
 76
     1
 98
        1
 10
0.0
 20
0.0
450
        0
451
        0
460
0.0
461
0.0
452
        0
462
0.0
453
        0
470

  0
SPLINE
  5
A6
330
70
100
AcDbEntity
  8
Layer 1
100
AcDbSpline
210
0.0
220
0.0
230
1.0
 70
     9
 71
     3
 72
    95
 73
    91
 74
     0
 42
0.0000000001
 43
0.0000000001
 40
0.0
 40
0.0
 40
0.0
 40
0.0
 40
1.0
 40
1.0
 40
1.0
 40
2.0
 40
2.0
 40
2.0
 40
3.0
 40
3.0
 40
3.0
 40
4.0
 40
4.0
 40
4.0
 40
5.0
 40
5.0
 40
5.0
 40
6.0
 40
6.0
 40
6.0
 40
7.0
 40
7.0
 40
7.0
 40
8.0
 40
8.0
 40
8.0
 40
9.0
 40
9.0
 40
9.0
 40
10.0
 40
10.0
 40
10.0
 40
11.0
 40
11.0
 40
11.0
 40
12.0
 40
12.0
 40
12.0
 40
13.0
 40
13.0
 40
13.0
 40
14.0
 40
14.0
 40
14.0
 40
15.0
 40
15.0
 40
15.0
 40
16.0
 40
16.0
 40
16.0
 40
17.0
 40
17.0
 40
17.0
 40
18.0
 40
18.0
 40
18.0
 40
19.0
 40
19.0
 40
19.0
 40
20.0
 40
20.0
 40
20.0
 40
21.0
 40
21.0
 40
21.0
 40
22.0
 40
22.0
 40
22.0
 40
23.0
 40
23.0
 40
23.0
 40
24.0
 40
24.0
 40
24.0
 40
25.0
 40
25.0
 40
25.0
 40
26.0
 40
26.0
 40
26.0
 40
27.0
 40
27.0
 40
27.0
 40
28.0
 40
28.0
 40
28.0
 40
29.0
 40
29.0
 40
29.0
 40
30.0
 40
30.0
 40
30.0
 40
30.0
 10
8.138347705205307
 20
5.359593894746567
 30
0.0
 10
8.138347705205307
 20
5.359593894746567
 30
0.0
 10
8.125847366121105
 20
5.455427567164102
 30
0.0
 10
8.125847366121105
 20
5.455427567164102
 30
0.0
 10
8.179180224736557
 20
5.467095454533894
 30
0.0
 10
8.218346993128482
 20
5.485428041881984
 30
0.0
 10
8.242514371871973
 20
5.511261171764797
 30
0.0
 10
8.265847603480045
 20
5.537094301647609
 30
0.0
 10
8.278347094853744
 20
5.569595522350734
 30
0.0
 10
8.278347094853744
 20
5.607927295896741
 30
0.0
 10
8.278347094853744
 20
5.652928855684067
 30
0.0
 10
8.262513558069889
 20
5.690428177515665
 30
0.0
 10
8.230847332212684
 20
5.721261103947957
 30
0.0
 10
8.200013558069889
 20
5.752094030380249
 30
0.0
 10
8.161680936813379
 20
5.767095115449692
 30
0.0
 10
8.11501362588673
 20
5.767095115449692
 30
0.0
 10
8.071680360370237
 20
5.767095115449692
 30
0.0
 10
8.035014337963552
 20
5.752928177515665
 30
0.0
 10
8.006680462095497
 20
5.724594301647609
 30
0.0
 10
7.978347433937945
 20
5.696262121200561
 30
0.0
 10
7.964180496003917
 20
5.659595251083374
 30
0.0
 10
7.964180496003917
 20
5.615427838431464
 30
0.0
 10
7.964180496003917
 20
5.597927702797783
 30
0.0
 10
7.96751369370357
 20
5.575427770614624
 30
0.0
 10
7.975014236238292
 20
5.548762189017401
 30
0.0
 10
7.975014236238292
 20
5.548762189017401
 30
0.0
 10
7.890847603480046
 20
5.558761782116359
 30
0.0
 10
7.890847603480046
 20
5.558761782116359
 30
0.0
 10
7.890847603480046
 20
5.565428177515665
 30
0.0
 10
7.891680902904958
 20
5.570427974065144
 30
0.0
 10
7.891680902904958
 20
5.574595318900214
 30
0.0
 10
7.891680902904958
 20
5.614595386717054
 30
0.0
 10
7.880847162670583
 20
5.651260561413234
 30
0.0
 10
7.86001382933725
 20
5.683761782116359
 30
0.0
 10
7.838347196579004
 20
5.716261307398477
 30
0.0
 10
7.805847671296886
 20
5.732094844182332
 30
0.0
 10
7.761680258644976
 20
5.732094844182332
 30
0.0
 10
7.726680835088118
 20
5.732094844182332
 30
0.0
 10
7.697513659795149
 20
5.720428652233547
 30
0.0
 10
7.67501372761199
 20
5.697094572914971
 30
0.0
 10
7.651680496003917
 20
5.672928041881984
 30
0.0
 10
7.640847603480046
 20
5.642927567164102
 30
0.0
 10
7.640847603480046
 20
5.605428245332505
 30
0.0
 10
7.640847603480046
 20
5.567927228079901
 30
0.0
 10
7.652513795428831
 20
5.537094301647609
 30
0.0
 10
7.675847027036903
 20
5.512927770614624
 30
0.0
 10
7.699180258644976
 20
5.487928787867227
 30
0.0
 10
7.734180529912337
 20
5.472095251083374
 30
0.0
 10
7.780846993128483
 20
5.464594708548651
 30
0.0
 10
7.780846993128483
 20
5.464594708548651
 30
0.0
 10
7.764181004630219
 20
5.368761036131116
 30
0.0
 10
7.764181004630219
 20
5.368761036131116
 30
0.0
 10
7.70001355806989
 20
5.380427228079901
 30
0.0
 10
7.65001389715409
 20
5.40709450509813
 30
0.0
 10
7.61501362588673
 20
5.448761171764797
 30
0.0
 10
7.580014202329872
 20
5.490427838431464
 30
0.0
 10
7.562514066696191
 20
5.541261646482679
 30
0.0
 10
7.562514066696191
 20
5.602927499347262
 30
0.0
 10
7.562514066696191
 20
5.645428313149346
 30
0.0
 10
7.571680360370237
 20
5.684594233830769
 30
0.0
 10
7.589180496003917
 20
5.720428652233547
 30
0.0
 10
7.607513931062511
 20
5.756261375215317
 30
0.0
 10
7.63251376152041
 20
5.783761103947957
 30
0.0
 10
7.664180835088118
 20
5.802095386717054
 30
0.0
 10
7.69501376152041
 20
5.821262121200561
 30
0.0
 10
7.728347433937945
 20
5.830427567164102
 30
0.0
 10
7.764181004630219
 20
5.830427567164102
 30
0.0
 10
7.79751382933725
 20
5.830427567164102
 30
0.0
 10
7.828347603480046
 20
5.822094572914971
 30
0.0
 10
7.855847332212684
 20
5.80376198556688
 30
0.0
 10
7.883347060945324
 20
5.785427702797783
 30
0.0
 10
7.90501369370357
 20
5.758762121200561
 30
0.0
 10
7.921680529912337
 20
5.723761849933199
 30
0.0
 10
7.931680970721799
 20
5.769594166013929
 30
0.0
 10
7.954180902904958
 20
5.805428584416707
 30
0.0
 10
7.98751372761199
 20
5.830427567164102
 30
0.0
 10
8.020847400029525
 20
5.856260697046915
 30
0.0
 10
8.062514066696191
 20
5.868761036131116
 30
0.0
 10
8.113347027036903
 20
5.868761036131116
 30
0.0
 10
8.180847671296886
 20
5.868761036131116
 30
0.0
 10
8.239180326461816
 20
5.84459450509813
 30
0.0
 10
8.285847637388465
 20
5.794594844182332
 30
0.0
 10
8.333347400029525
 20
5.745427634980942
 30
0.0
 10
8.357513931062511
 20
5.682927634980942
 30
0.0
 10
8.357513931062511
 20
5.607094844182332
 30
0.0
 10
8.357513931062511
 20
5.538760900497436
 30
0.0
 10
8.336680597729177
 20
5.482094844182332
 30
0.0
 10
8.295847230487424
 20
5.437094979816012
 30
0.0
 10
8.255847162670583
 20
5.392095115449692
 30
0.0
 10
8.202514304055132
 20
5.36626198556688
 30
0.0
 10
8.138347705205307
 20
5.359593894746567
 30
0.0
  0
HATCH
  5
A7
330
70
100
AcDbEntity
  8
Layer 1
 62
    18
420
        0
440
 33554687
100
AcDbHatch
 10
0.0
 20
0.0
 30
0.0
210
0.0
220
0.0
230
1.0
  2
SOLID
 70
     1
 71
     1
 91
        1
 92
        1
 93
        2
 72
     4
 94
        3
 73
     0
 74
     0
 95
       95
 96
       91
 40
0.0
 40
0.0
 40
0.0
 40
0.0
 40
1.0
 40
1.0
 40
1.0
 40
2.0
 40
2.0
 40
2.0
 40
3.0
 40
3.0
 40
3.0
 40
4.0
 40
4.0
 40
4.0
 40
5.0
 40
5.0
 40
5.0
 40
6.0
 40
6.0
 40
6.0
 40
7.0
 40
7.0
 40
7.0
 40
8.0
 40
8.0
 40
8.0
 40
9.0
 40
9.0
 40
9.0
 40
10.0
 40
10.0
 40
10.0
 40
11.0
 40
11.0
 40
11.0
 40
12.0
 40
12.0
 40
12.0
 40
13.0
 40
13.0
 40
13.0
 40
14.0
 40
14.0
 40
14.0
 40
15.0
 40
15.0
 40
15.0
 40
16.0
 40
16.0
 40
16.0
 40
17.0
 40
17.0
 40
17.0
 40
18.0
 40
18.0
 40
18.0
 40
19.0
 40
19.0
 40
19.0
 40
20.0
 40
20.0
 40
20.0
 40
21.0
 40
21.0
 40
21.0
 40
22.0
 40
22.0
 40
22.0
 40
23.0
 40
23.0
 40
23.0
 40
24.0
 40
24.0
 40
24.0
 40
25.0
 40
25.0
 40
25.0
 40
26.0
 40
26.0
 40
26.0
 40
27.0
 40
27.0
 40
27.0
 40
28.0
 40
28.0
 40
28.0
 40
29.0
 40
29.0
 40
29.0
 40
30.0
 40
30.0
 40
30.0
 40
30.0
 10
8.138347705205307
 20
5.359593894746567
 10
8.138347705205307
 20
5.359593894746567
 10
8.125847366121105
 20
5.455427567164102
 10
8.125847366121105
 20
5.455427567164102
 10
8.179180224736557
 20
5.467095454533894
 10
8.218346993128482
 20
5.485428041881984
 10
8.242514371871973
 20
5.511261171764797
 10
8.265847603480045
 20
5.537094301647609
 10
8.278347094853744
 20
5.569595522350734
 10
8.278347094853744
 20
5.607927295896741
 10
8.278347094853744
 20
5.652928855684067
 10
8.262513558069889
 20
5.690428177515665
 10
8.230847332212684
 20
5.721261103947957
 10
8.200013558069889
 20
5.752094030380249
 10
8.161680936813379
 20
5.767095115449692
 10
8.11501362588673
 20
5.767095115449692
 10
8.071680360370237
 20
5.767095115449692
 10
8.035014337963552
 20
5.752928177515665
 10
8.006680462095497
 20
5.724594301647609
 10
7.978347433937945
 20
5.696262121200561
 10
7.964180496003917
 20
5.659595251083374
 10
7.964180496003917
 20
5.615427838431464
 10
7.964180496003917
 20
5.597927702797783
 10
7.96751369370357
 20
5.575427770614624
 10
7.975014236238292
 20
5.548762189017401
 10
7.975014236238292
 20
5.548762189017401
 10
7.890847603480046
 20
5.558761782116359
 10
7.890847603480046
 20
5.558761782116359
 10
7.890847603480046
 20
5.565428177515665
 10
7.891680902904958
 20
5.570427974065144
 10
7.891680902904958
 20
5.574595318900214
 10
7.891680902904958
 20
5.614595386717054
 10
7.880847162670583
 20
5.651260561413234
 10
7.86001382933725
 20
5.683761782116359
 10
7.838347196579004
 20
5.716261307398477
 10
7.805847671296886
 20
5.732094844182332
 10
7.761680258644976
 20
5.732094844182332
 10
7.726680835088118
 20
5.732094844182332
 10
7.697513659795149
 20
5.720428652233547
 10
7.67501372761199
 20
5.697094572914971
 10
7.651680496003917
 20
5.672928041881984
 10
7.640847603480046
 20
5.642927567164102
 10
7.640847603480046
 20
5.605428245332505
 10
7.640847603480046
 20
5.567927228079901
 10
7.652513795428831
 20
5.537094301647609
 10
7.675847027036903
 20
5.512927770614624
 10
7.699180258644976
 20
5.487928787867227
 10
7.734180529912337
 20
5.472095251083374
 10
7.780846993128483
 20
5.464594708548651
 10
7.780846993128483
 20
5.464594708548651
 10
7.764181004630219
 20
5.368761036131116
 10
7.764181004630219
 20
5.368761036131116
 10
7.70001355806989
 20
5.380427228079901
 10
7.65001389715409
 20
5.40709450509813
 10
7.61501362588673
 20
5.448761171764797
 10
7.580014202329872
 20
5.490427838431464
 10
7.562514066696191
 20
5.541261646482679
 10
7.562514066696191
 20
5.602927499347262
 10
7.562514066696191
 20
5.645428313149346
 10
7.571680360370237
 20
5.684594233830769
 10
7.589180496003917
 20
5.720428652233547
 10
7.607513931062511
 20
5.756261375215317
 10
7.63251376152041
 20
5.783761103947957
 10
7.664180835088118
 20
5.802095386717054
 10
7.69501376152041
 20
5.821262121200561
 10
7.728347433937945
 20
5.830427567164102
 10
7.764181004630219
 20
5.830427567164102
 10
7.79751382933725
 20
5.830427567164102
 10
7.828347603480046
 20
5.822094572914971
 10
7.855847332212684
 20
5.80376198556688
 10
7.883347060945324
 20
5.785427702797783
 10
7.90501369370357
 20
5.758762121200561
 10
7.921680529912337
 20
5.723761849933199
 10
7.931680970721799
 20
5.769594166013929
 10
7.954180902904958
 20
5.805428584416707
 10
7.98751372761199
 20
5.830427567164102
 10
8.020847400029525
 20
5.856260697046915
 10
8.062514066696191
 20
5.868761036131116
 10
8.113347027036903
 20
5.868761036131116
 10
8.180847671296886
 20
5.868761036131116
 10
8.239180326461816
 20
5.84459450509813
 10
8.285847637388465
 20
5.794594844182332
 10
8.333347400029525
 20
5.745427634980942
 10
8.357513931062511
 20
5.682927634980942
 10
8.357513931062511
 20
5.607094844182332
 10
8.357513931062511
 20
5.538760900497436
 10
8.336680597729177
 20
5.482094844182332
 10
8.295847230487424
 20
5.437094979816012
 10
8.255847162670583
 20
5.392095115449692
 10
8.202514304055132
 20
5.36626198556688
 10
8.138347705205307
 20
5.359593894746567
 97
        0
 72
     1
 10
8.138347705205305
 20
5.359593894746567
 11
8.138347705205307
 21
5.359593894746567
 97
        0
 75
     2
 76
     1
 98
        1
 10
0.0
 20
0.0
450
        0
451
        0
460
0.0
461
0.0
452
        0
462
0.0
453
        0
470

  0
LWPOLYLINE
  5
A8
330
70
100
AcDbEntity
  8
Layer 1
100
AcDbPolyline
 90
        4
 70
     1
 43
0.0
 10
8.015014304055132
 20
6.248760832680595
 10
8.015014304055132
 20
5.955427567164102
 10
8.110847976472667
 20
5.955427567164102
 10
8.110847976472667
 20
6.248760832680595
  0
HATCH
  5
A9
330
70
100
AcDbEntity
  8
Layer 1
 62
    18
420
        0
440
 33554687
100
AcDbHatch
 10
0.0
 20
0.0
 30
0.0
210
0.0
220
0.0
230
1.0
  2
SOLID
 70
     1
 71
     1
 91
        1
 92
        1
 93
        4
 72
     1
 10
8.015014304055132
 20
6.248760832680595
 11
8.015014304055132
 21
5.955427567164102
 72
     1
 10
8.015014304055132
 20
5.955427567164102
 11
8.110847976472667
 21
5.955427567164102
 72
     1
 10
8.110847976472667
 20
5.955427567164102
 11
8.110847976472667
 21
6.248760832680595
 72
     1
 10
8.110847976472667
 20
6.248760832680595
 11
8.015014304055132
 21
6.248760832680595
 97
        1
330
A8
 75
     2
 76
     1
 98
        1
 10
0.0
 20
0.0
450
        0
451
        0
460
0.0
461
0.0
452
        0
462
0.0
453
        0
470

  0
SPLINE
  5
AA
330
70
100
AcDbEntity
  8
Layer 1
100
AcDbSpline
210
0.0
220
0.0
230
1.0
 70
     9
 71
     3
 72
    95
 73
    91
 74
     0
 42
0.0000000001
 43
0.0000000001
 40
0.0
 40
0.0
 40
0.0
 40
0.0
 40
1.0
 40
1.0
 40
1.0
 40
2.0
 40
2.0
 40
2.0
 40
3.0
 40
3.0
 40
3.0
 40
4.0
 40
4.0
 40
4.0
 40
5.0
 40
5.0
 40
5.0
 40
6.0
 40
6.0
 40
6.0
 40
7.0
 40
7.0
 40
7.0
 40
8.0
 40
8.0
 40
8.0
 40
9.0
 40
9.0
 40
9.0
 40
10.0
 40
10.0
 40
10.0
 40
11.0
 40
11.0
 40
11.0
 40
12.0
 40
12.0
 40
12.0
 40
13.0
 40
13.0
 40
13.0
 40
14.0
 40
14.0
 40
14.0
 40
15.0
 40
15.0
 40
15.0
 40
16.0
 40
16.0
 40
16.0
 40
17.0
 40
17.0
 40
17.0
 40
18.0
 40
18.0
 40
18.0
 40
19.0
 40
19.0
 40
19.0
 40
20.0
 40
20.0
 40
20.0
 40
21.0
 40
21.0
 40
21.0
 40
22.0
 40
22.0
 40
22.0
 40
23.0
 40
23.0
 40
23.0
 40
24.0
 40
24.0
 40
24.0
 40
25.0
 40
25.0
 40
25.0
 40
26.0
 40
26.0
 40
26.0
 40
27.0
 40
27.0
 40
27.0
 40
28.0
 40
28.0
 40
28.0
 40
29.0
 40
29.0
 40
29.0
 40
30.0
 40
30.0
 40
30.0
 40
30.0
 10
8.138347705205307
 20
6.332094166013929
 30
0.0
 10
8.138347705205307
 20
6.332094166013929
 30
0.0
 10
8.125847366121105
 20
6.427927838431464
 30
0.0
 10
8.125847366121105
 20
6.427927838431464
 30
0.0
 10
8.179180224736557
 20
6.439595725801255
 30
0.0
 10
8.218346993128482
 20
6.457928313149345
 30
0.0
 10
8.242514371871973
 20
6.483761443032157
 30
0.0
 10
8.265847603480045
 20
6.50959457291497
 30
0.0
 10
8.278347094853744
 20
6.542095793618095
 30
0.0
 10
8.278347094853744
 20
6.580427567164102
 30
0.0
 10
8.278347094853744
 20
6.625429126951429
 30
0.0
 10
8.262513558069889
 20
6.662928448783026
 30
0.0
 10
8.230847332212684
 20
6.693761375215317
 30
0.0
 10
8.200013558069889
 20
6.724594301647609
 30
0.0
 10
8.161680936813379
 20
6.739595386717054
 30
0.0
 10
8.11501362588673
 20
6.739595386717054
 30
0.0
 10
8.071680360370237
 20
6.739595386717054
 30
0.0
 10
8.035014337963552
 20
6.725428448783026
 30
0.0
 10
8.006680462095497
 20
6.69709457291497
 30
0.0
 10
7.978347433937945
 20
6.668762392467922
 30
0.0
 10
7.964180496003917
 20
6.632095522350734
 30
0.0
 10
7.964180496003917
 20
6.587928109698824
 30
0.0
 10
7.964180496003917
 20
6.570427974065144
 30
0.0
 10
7.96751369370357
 20
6.547928041881984
 30
0.0
 10
7.975014236238292
 20
6.521262460284762
 30
0.0
 10
7.975014236238292
 20
6.521262460284762
 30
0.0
 10
7.890847603480046
 20
6.53126205338372
 30
0.0
 10
7.890847603480046
 20
6.53126205338372
 30
0.0
 10
7.890847603480046
 20
6.537928448783026
 30
0.0
 10
7.891680902904958
 20
6.542928245332505
 30
0.0
 10
7.891680902904958
 20
6.547095590167574
 30
0.0
 10
7.891680902904958
 20
6.587095657984415
 30
0.0
 10
7.880847162670583
 20
6.623760832680595
 30
0.0
 10
7.86001382933725
 20
6.65626205338372
 30
0.0
 10
7.838347196579004
 20
6.688761578665839
 30
0.0
 10
7.805847671296886
 20
6.704595115449692
 30
0.0
 10
7.761680258644976
 20
6.704595115449692
 30
0.0
 10
7.726680835088118
 20
6.704595115449692
 30
0.0
 10
7.697513659795149
 20
6.692928923500907
 30
0.0
 10
7.67501372761199
 20
6.669594844182332
 30
0.0
 10
7.651680496003917
 20
6.645428313149345
 30
0.0
 10
7.640847603480046
 20
6.615427838431464
 30
0.0
 10
7.640847603480046
 20
6.577928516599866
 30
0.0
 10
7.640847603480046
 20
6.540427499347262
 30
0.0
 10
7.652513795428831
 20
6.50959457291497
 30
0.0
 10
7.675847027036903
 20
6.485428041881984
 30
0.0
 10
7.699180258644976
 20
6.460429059134589
 30
0.0
 10
7.734180529912337
 20
6.444595522350734
 30
0.0
 10
7.780846993128483
 20
6.437094979816012
 30
0.0
 10
7.780846993128483
 20
6.437094979816012
 30
0.0
 10
7.764181004630219
 20
6.341261307398477
 30
0.0
 10
7.764181004630219
 20
6.341261307398477
 30
0.0
 10
7.70001355806989
 20
6.352927499347262
 30
0.0
 10
7.65001389715409
 20
6.379594776365491
 30
0.0
 10
7.61501362588673
 20
6.421261443032157
 30
0.0
 10
7.580014202329872
 20
6.462928109698824
 30
0.0
 10
7.562514066696191
 20
6.51376191775004
 30
0.0
 10
7.562514066696191
 20
6.575427770614624
 30
0.0
 10
7.562514066696191
 20
6.617928584416707
 30
0.0
 10
7.571680360370237
 20
6.65709450509813
 30
0.0
 10
7.589180496003917
 20
6.692928923500907
 30
0.0
 10
7.607513931062511
 20
6.728761646482679
 30
0.0
 10
7.63251376152041
 20
6.756261375215317
 30
0.0
 10
7.664180835088118
 20
6.774595657984415
 30
0.0
 10
7.69501376152041
 20
6.793762392467922
 30
0.0
 10
7.728347433937945
 20
6.802927838431464
 30
0.0
 10
7.764181004630219
 20
6.802927838431464
 30
0.0
 10
7.79751382933725
 20
6.802927838431464
 30
0.0
 10
7.828347603480046
 20
6.794594844182332
 30
0.0
 10
7.855847332212684
 20
6.776262256834241
 30
0.0
 10
7.883347060945324
 20
6.757927974065144
 30
0.0
 10
7.90501369370357
 20
6.731262392467922
 30
0.0
 10
7.921680529912337
 20
6.696262121200561
 30
0.0
 10
7.931680970721799
 20
6.74209443728129
 30
0.0
 10
7.954180902904958
 20
6.777928855684067
 30
0.0
 10
7.98751372761199
 20
6.802927838431464
 30
0.0
 10
8.020847400029525
 20
6.828760968314276
 30
0.0
 10
8.062514066696191
 20
6.841261307398477
 30
0.0
 10
8.113347027036903
 20
6.841261307398477
 30
0.0
 10
8.180847671296886
 20
6.841261307398477
 30
0.0
 10
8.239180326461816
 20
6.817094776365491
 30
0.0
 10
8.285847637388465
 20
6.767095115449692
 30
0.0
 10
8.333347400029525
 20
6.717927906248304
 30
0.0
 10
8.357513931062511
 20
6.655427906248304
 30
0.0
 10
8.357513931062511
 20
6.579595115449692
 30
0.0
 10
8.357513931062511
 20
6.511261171764797
 30
0.0
 10
8.336680597729177
 20
6.454595115449692
 30
0.0
 10
8.295847230487424
 20
6.409595251083374
 30
0.0
 10
8.255847162670583
 20
6.364595386717054
 30
0.0
 10
8.202514304055132
 20
6.338762256834241
 30
0.0
 10
8.138347705205307
 20
6.332094166013929
 30
0.0
  0
HATCH
  5
AB
330
70
100
AcDbEntity
  8
Layer 1
 62
    18
420
        0
440
 33554687
100
AcDbHatch
 10
0.0
 20
0.0
 30
0.0
210
0.0
220
0.0
230
1.0
  2
SOLID
 70
     1
 71
     1
 91
        1
 92
        1
 93
        2
 72
     4
 94
        3
 73
     0
 74
     0
 95
       95
 96
       91
 40
0.0
 40
0.0
 40
0.0
 40
0.0
 40
1.0
 40
1.0
 40
1.0
 40
2.0
 40
2.0
 40
2.0
 40
3.0
 40
3.0
 40
3.0
 40
4.0
 40
4.0
 40
4.0
 40
5.0
 40
5.0
 40
5.0
 40
6.0
 40
6.0
 40
6.0
 40
7.0
 40
7.0
 40
7.0
 40
8.0
 40
8.0
 40
8.0
 40
9.0
 40
9.0
 40
9.0
 40
10.0
 40
10.0
 40
10.0
 40
11.0
 40
11.0
 40
11.0
 40
12.0
 40
12.0
 40
12.0
 40
13.0
 40
13.0
 40
13.0
 40
14.0
 40
14.0
 40
14.0
 40
15.0
 40
15.0
 40
15.0
 40
16.0
 40
16.0
 40
16.0
 40
17.0
 40
17.0
 40
17.0
 40
18.0
 40
18.0
 40
18.0
 40
19.0
 40
19.0
 40
19.0
 40
20.0
 40
20.0
 40
20.0
 40
21.0
 40
21.0
 40
21.0
 40
22.0
 40
22.0
 40
22.0
 40
23.0
 40
23.0
 40
23.0
 40
24.0
 40
24.0
 40
24.0
 40
25.0
 40
25.0
 40
25.0
 40
26.0
 40
26.0
 40
26.0
 40
27.0
 40
27.0
 40
27.0
 40
28.0
 40
28.0
 40
28.0
 40
29.0
 40
29.0
 40
29.0
 40
30.0
 40
30.0
 40
30.0
 40
30.0
 10
8.138347705205307
 20
6.332094166013929
 10
8.138347705205307
 20
6.332094166013929
 10
8.125847366121105
 20
6.427927838431464
 10
8.125847366121105
 20
6.427927838431464
 10
8.179180224736557
 20
6.439595725801255
 10
8.218346993128482
 20
6.457928313149345
 10
8.242514371871973
 20
6.483761443032157
 10
8.265847603480045
 20
6.50959457291497
 10
8.278347094853744
 20
6.542095793618095
 10
8.278347094853744
 20
6.580427567164102
 10
8.278347094853744
 20
6.625429126951429
 10
8.262513558069889
 20
6.662928448783026
 10
8.230847332212684
 20
6.693761375215317
 10
8.200013558069889
 20
6.724594301647609
 10
8.161680936813379
 20
6.739595386717054
 10
8.11501362588673
 20
6.739595386717054
 10
8.071680360370237
 20
6.739595386717054
 10
8.035014337963552
 20
6.725428448783026
 10
8.006680462095497
 20
6.69709457291497
 10
7.978347433937945
 20
6.668762392467922
 10
7.964180496003917
 20
6.632095522350734
 10
7.964180496003917
 20
6.587928109698824
 10
7.964180496003917
 20
6.570427974065144
 10
7.96751369370357
 20
6.547928041881984
 10
7.975014236238292
 20
6.521262460284762
 10
7.975014236238292
 20
6.521262460284762
 10
7.890847603480046
 20
6.53126205338372
 10
7.890847603480046
 20
6.53126205338372
 10
7.890847603480046
 20
6.537928448783026
 10
7.891680902904958
 20
6.542928245332505
 10
7.891680902904958
 20
6.547095590167574
 10
7.891680902904958
 20
6.587095657984415
 10
7.880847162670583
 20
6.623760832680595
 10
7.86001382933725
 20
6.65626205338372
 10
7.838347196579004
 20
6.688761578665839
 10
7.805847671296886
 20
6.704595115449692
 10
7.761680258644976
 20
6.704595115449692
 10
7.726680835088118
 20
6.704595115449692
 10
7.697513659795149
 20
6.692928923500907
 10
7.67501372761199
 20
6.669594844182332
 10
7.651680496003917
 20
6.645428313149345
 10
7.640847603480046
 20
6.615427838431464
 10
7.640847603480046
 20
6.577928516599866
 10
7.640847603480046
 20
6.540427499347262
 10
7.652513795428831
 20
6.50959457291497
 10
7.675847027036903
 20
6.485428041881984
 10
7.699180258644976
 20
6.460429059134589
 10
7.734180529912337
 20
6.444595522350734
 10
7.780846993128483
 20
6.437094979816012
 10
7.780846993128483
 20
6.437094979816012
 10
7.764181004630219
 20
6.341261307398477
 10
7.764181004630219
 20
6.341261307398477
 10
7.70001355806989
 20
6.352927499347262
 10
7.65001389715409
 20
6.379594776365491
 10
7.61501362588673
 20
6.421261443032157
 10
7.580014202329872
 20
6.462928109698824
 10
7.562514066696191
 20
6.51376191775004
 10
7.562514066696191
 20
6.575427770614624
 10
7.562514066696191
 20
6.617928584416707
 10
7.571680360370237
 20
6.65709450509813
 10
7.589180496003917
 20
6.692928923500907
 10
7.607513931062511
 20
6.728761646482679
 10
7.63251376152041
 20
6.756261375215317
 10
7.664180835088118
 20
6.774595657984415
 10
7.69501376152041
 20
6.793762392467922
 10
7.728347433937945
 20
6.802927838431464
 10
7.764181004630219
 20
6.802927838431464
 10
7.79751382933725
 20
6.802927838431464
 10
7.828347603480046
 20
6.794594844182332
 10
7.855847332212684
 20
6.776262256834241
 10
7.883347060945324
 20
6.757927974065144
 10
7.90501369370357
 20
6.731262392467922
 10
7.921680529912337
 20
6.696262121200561
 10
7.931680970721799
 20
6.74209443728129
 10
7.954180902904958
 20
6.777928855684067
 10
7.98751372761199
 20
6.802927838431464
 10
8.020847400029525
 20
6.828760968314276
 10
8.062514066696191
 20
6.841261307398477
 10
8.113347027036903
 20
6.841261307398477
 10
8.180847671296886
 20
6.841261307398477
 10
8.239180326461816
 20
6.817094776365491
 10
8.285847637388465
 20
6.767095115449692
 10
8.333347400029525
 20
6.717927906248304
 10
8.357513931062511
 20
6.655427906248304
 10
8.357513931062511
 20
6.579595115449692
 10
8.357513931062511
 20
6.511261171764797
 10
8.336680597729177
 20
6.454595115449692
 10
8.295847230487424
 20
6.409595251083374
 10
8.255847162670583
 20
6.364595386717054
 10
8.202514304055132
 20
6.338762256834241
 10
8.138347705205307
 20
6.332094166013929
 97
        0
 72
     1
 10
8.138347705205305
 20
6.332094166013929
 11
8.138347705205307
 21
6.332094166013929
 97
        0
 75
     2
 76
     1
 98
        1
 10
0.0
 20
0.0
450
        0
451
        0
460
0.0
461
0.0
452
        0
462
0.0
453
        0
470

  0
INSERT
  5
AD
330
70
100
AcDbEntity
  8
Layer 1
100
AcDbBlockReference
  2
Block_0
 10
0.0
 20
0.0
 30
0.0
  0
SPLINE
  5
B3
330
70
100
AcDbEntity
  8
Layer 1
100
AcDbSpline
210
0.0
220
0.0
230
1.0
 70
     9
 71
     3
 72
    53
 73
    49
 74
     0
 42
0.0000000001
 43
0.0000000001
 40
0.0
 40
0.0
 40
0.0
 40
0.0
 40
1.0
 40
1.0
 40
1.0
 40
2.0
 40
2.0
 40
2.0
 40
3.0
 40
3.0
 40
3.0
 40
4.0
 40
4.0
 40
4.0
 40
5.0
 40
5.0
 40
5.0
 40
6.0
 40
6.0
 40
6.0
 40
7.0
 40
7.0
 40
7.0
 40
8.0
 40
8.0
 40
8.0
 40
9.0
 40
9.0
 40
9.0
 40
10.0
 40
10.0
 40
10.0
 40
11.0
 40
11.0
 40
11.0
 40
12.0
 40
12.0
 40
12.0
 40
13.0
 40
13.0
 40
13.0
 40
14.0
 40
14.0
 40
14.0
 40
15.0
 40
15.0
 40
15.0
 40
16.0
 40
16.0
 40
16.0
 40
16.0
 10
7.92168137762284
 20
7.390426821178859
 30
0.0
 10
7.906681140263899
 20
7.350428448783026
 30
0.0
 10
7.885847806930566
 20
7.321260425779554
 30
0.0
 10
7.85918137762284
 20
7.302093691296047
 30
0.0
 10
7.832514100604612
 20
7.28292695681254
 30
0.0
 10
7.800014575322493
 20
7.272927363713582
 30
0.0
 10
7.762514405780393
 20
7.272927363713582
 30
0.0
 10
7.705847501754785
 20
7.272927363713582
 30
0.0
 10
7.658347739113726
 20
7.293760697046915
 30
0.0
 10
7.620014270146712
 20
7.334594911999172
 30
0.0
 10
7.581680801179699
 20
7.374594979816012
 30
0.0
 10
7.562514066696191
 20
7.428760290145874
 30
0.0
 10
7.562514066696191
 20
7.496260934405856
 30
0.0
 10
7.562514066696191
 20
7.564594030380249
 30
0.0
 10
7.581680801179699
 20
7.618760188420613
 30
0.0
 10
7.621680868996539
 20
7.66042685508728
 30
0.0
 10
7.660847637388465
 20
7.702093521753946
 30
0.0
 10
7.709180699454438
 20
7.722093555662366
 30
0.0
 10
7.765014304055132
 20
7.722093555662366
 30
0.0
 10
7.80168117417232
 20
7.722093555662366
 30
0.0
 10
7.832514100604612
 20
7.712927261988321
 30
0.0
 10
7.85918137762284
 20
7.693760527504814
 30
0.0
 10
7.88668110635548
 20
7.67542709244622
 30
0.0
 10
7.906681140263899
 20
7.646260764863755
 30
0.0
 10
7.92168137762284
 20
7.607927295896741
 30
0.0
 10
7.936680767271278
 20
7.6554270585378
 30
0.0
 10
7.96251389715409
 20
7.692093928654988
 30
0.0
 10
7.996680868996539
 20
7.717093759112887
 30
0.0
 10
8.0316811402639
 20
7.741260290145874
 30
0.0
 10
8.073347806930566
 20
7.753760629230074
 30
0.0
 10
8.120847569571626
 20
7.753760629230074
 30
0.0
 10
8.187514066696191
 20
7.753760629230074
 30
0.0
 10
8.244180970721799
 20
7.730427397622001
 30
0.0
 10
8.289180835088119
 20
7.683760934405856
 30
0.0
 10
8.334180699454439
 20
7.636260324054293
 30
0.0
 10
8.357513931062511
 20
7.574593623479207
 30
0.0
 10
8.357513931062511
 20
7.497927533255682
 30
0.0
 10
8.357513931062511
 20
7.421261443032157
 30
0.0
 10
8.334180699454439
 20
7.358761443032157
 30
0.0
 10
8.289180835088119
 20
7.312094979816012
 30
0.0
 10
8.243347671296886
 20
7.265426821178859
 30
0.0
 10
8.186680767271278
 20
7.241260290145874
 30
0.0
 10
8.118347671296886
 20
7.241260290145874
 30
0.0
 10
8.067514710956174
 20
7.241260290145874
 30
0.0
 10
8.025848044289507
 20
7.254594776365491
 30
0.0
 10
7.991681072447059
 20
7.280427906248304
 30
0.0
 10
7.957514100604612
 20
7.306261036131116
 30
0.0
 10
7.934180868996539
 20
7.342927906248304
 30
0.0
 10
7.92168137762284
 20
7.390426821178859
 30
0.0
  0
SPLINE
  5
B4
330
70
100
AcDbEntity
  8
Layer 1
100
AcDbSpline
210
0.0
220
0.0
230
1.0
 70
     9
 71
     3
 72
    29
 73
    25
 74
     0
 42
0.0000000001
 43
0.0000000001
 40
0.0
 40
0.0
 40
0.0
 40
0.0
 40
1.0
 40
1.0
 40
1.0
 40
2.0
 40
2.0
 40
2.0
 40
3.0
 40
3.0
 40
3.0
 40
4.0
 40
4.0
 40
4.0
 40
5.0
 40
5.0
 40
5.0
 40
6.0
 40
6.0
 40
6.0
 40
7.0
 40
7.0
 40
7.0
 40
8.0
 40
8.0
 40
8.0
 40
8.0
 10
7.75918120808074
 20
7.371261782116359
 30
0.0
 10
7.795847230487424
 20
7.371261782116359
 30
0.0
 10
7.826681004630219
 20
7.382927974065144
 30
0.0
 10
7.850014236238292
 20
7.40709450509813
 30
0.0
 10
7.873347467846365
 20
7.430426888995699
 30
0.0
 10
7.885014507505653
 20
7.461261510848999
 30
0.0
 10
7.885014507505653
 20
7.498760832680595
 30
0.0
 10
7.885014507505653
 20
7.53542685508728
 30
0.0
 10
7.873347467846365
 20
7.566260629230074
 30
0.0
 10
7.850014236238292
 20
7.589593860838148
 30
0.0
 10
7.826681004630219
 20
7.612093793021307
 30
0.0
 10
7.798347976472667
 20
7.623760832680595
 30
0.0
 10
7.765014304055132
 20
7.623760832680595
 30
0.0
 10
7.730014032787771
 20
7.623760832680595
 30
0.0
 10
7.700014405780393
 20
7.612093793021307
 30
0.0
 10
7.67668117417232
 20
7.587927261988321
 30
0.0
 10
7.652514643139333
 20
7.563760730955335
 30
0.0
 10
7.640847603480046
 20
7.533760256237453
 30
0.0
 10
7.640847603480046
 20
7.497927533255682
 30
0.0
 10
7.640847603480046
 20
7.461261510848999
 30
0.0
 10
7.652514643139333
 20
7.431261036131116
 30
0.0
 10
7.675847874747407
 20
7.40709450509813
 30
0.0
 10
7.69918110635548
 20
7.383760425779554
 30
0.0
 10
7.726680835088118
 20
7.371261782116359
 30
0.0
 10
7.75918120808074
 20
7.371261782116359
 30
0.0
  0
SPLINE
  5
B5
330
70
100
AcDbEntity
  8
Layer 1
100
AcDbSpline
210
0.0
220
0.0
230
1.0
 70
     9
 71
     3
 72
    32
 73
    28
 74
     0
 42
0.0000000001
 43
0.0000000001
 40
0.0
 40
0.0
 40
0.0
 40
0.0
 40
1.0
 40
1.0
 40
1.0
 40
2.0
 40
2.0
 40
2.0
 40
3.0
 40
3.0
 40
3.0
 40
4.0
 40
4.0
 40
4.0
 40
5.0
 40
5.0
 40
5.0
 40
6.0
 40
6.0
 40
6.0
 40
7.0
 40
7.0
 40
7.0
 40
8.0
 40
8.0
 40
8.0
 40
9.0
 40
9.0
 40
9.0
 40
9.0
 10
8.119180970721799
 20
7.339594708548651
 30
0.0
 10
8.146680699454439
 20
7.339594708548651
 30
0.0
 10
8.173347976472667
 20
7.346261103947957
 30
0.0
 10
8.198347806930566
 20
7.358761443032157
 30
0.0
 10
8.224180936813379
 20
7.372094233830769
 30
0.0
 10
8.244180970721799
 20
7.391260968314276
 30
0.0
 10
8.257514609230913
 20
7.416261646482679
 30
0.0
 10
8.271680699454439
 20
7.442094776365491
 30
0.0
 10
8.27918124198916
 20
7.46959450509813
 30
0.0
 10
8.27918124198916
 20
7.498760832680595
 30
0.0
 10
8.27918124198916
 20
7.544593996471828
 30
0.0
 10
8.26418100463022
 20
7.582094166013929
 30
0.0
 10
8.235014677047754
 20
7.611260493596394
 30
0.0
 10
8.205014202329872
 20
7.641260968314276
 30
0.0
 10
8.167514032787771
 20
7.6554270585378
 30
0.0
 10
8.122514168421451
 20
7.6554270585378
 30
0.0
 10
8.07668100463022
 20
7.6554270585378
 30
0.0
 10
8.038347535663206
 20
7.640426821178859
 30
0.0
 10
8.008347908655826
 20
7.610427194171481
 30
0.0
 10
7.978347433937945
 20
7.579594267739189
 30
0.0
 10
7.963348044289507
 20
7.541260798772175
 30
0.0
 10
7.963348044289507
 20
7.495427634980942
 30
0.0
 10
7.963348044289507
 20
7.450427770614624
 30
0.0
 10
7.977514134513032
 20
7.412928448783026
 30
0.0
 10
8.007514609230913
 20
7.383760425779554
 30
0.0
 10
8.037514236238292
 20
7.354594098197089
 30
0.0
 10
8.075014405780393
 20
7.339594708548651
 30
0.0
 10
8.119180970721799
 20
7.339594708548651
 30
0.0
  0
HATCH
  5
B6
330
70
100
AcDbEntity
  8
Layer 1
 62
    18
420
        0
440
 33554687
100
AcDbHatch
 10
0.0
 20
0.0
 30
0.0
210
0.0
220
0.0
230
1.0
  2
SOLID
 70
     1
 71
     1
 91
        3
 92
        1
 93
        1
 72
     4
 94
        3
 73
     0
 74
     0
 95
       53
 96
       49
 40
0.0
 40
0.0
 40
0.0
 40
0.0
 40
1.0
 40
1.0
 40
1.0
 40
2.0
 40
2.0
 40
2.0
 40
3.0
 40
3.0
 40
3.0
 40
4.0
 40
4.0
 40
4.0
 40
5.0
 40
5.0
 40
5.0
 40
6.0
 40
6.0
 40
6.0
 40
7.0
 40
7.0
 40
7.0
 40
8.0
 40
8.0
 40
8.0
 40
9.0
 40
9.0
 40
9.0
 40
10.0
 40
10.0
 40
10.0
 40
11.0
 40
11.0
 40
11.0
 40
12.0
 40
12.0
 40
12.0
 40
13.0
 40
13.0
 40
13.0
 40
14.0
 40
14.0
 40
14.0
 40
15.0
 40
15.0
 40
15.0
 40
16.0
 40
16.0
 40
16.0
 40
16.0
 10
7.92168137762284
 20
7.390426821178859
 10
7.906681140263899
 20
7.350428448783026
 10
7.885847806930566
 20
7.321260425779554
 10
7.85918137762284
 20
7.302093691296047
 10
7.832514100604612
 20
7.28292695681254
 10
7.800014575322493
 20
7.272927363713582
 10
7.762514405780393
 20
7.272927363713582
 10
7.705847501754785
 20
7.272927363713582
 10
7.658347739113726
 20
7.293760697046915
 10
7.620014270146712
 20
7.334594911999172
 10
7.581680801179699
 20
7.374594979816012
 10
7.562514066696191
 20
7.428760290145874
 10
7.562514066696191
 20
7.496260934405856
 10
7.562514066696191
 20
7.564594030380249
 10
7.581680801179699
 20
7.618760188420613
 10
7.621680868996539
 20
7.66042685508728
 10
7.660847637388465
 20
7.702093521753946
 10
7.709180699454438
 20
7.722093555662366
 10
7.765014304055132
 20
7.722093555662366
 10
7.80168117417232
 20
7.722093555662366
 10
7.832514100604612
 20
7.712927261988321
 10
7.85918137762284
 20
7.693760527504814
 10
7.88668110635548
 20
7.67542709244622
 10
7.906681140263899
 20
7.646260764863755
 10
7.92168137762284
 20
7.607927295896741
 10
7.936680767271278
 20
7.6554270585378
 10
7.96251389715409
 20
7.692093928654988
 10
7.996680868996539
 20
7.717093759112887
 10
8.0316811402639
 20
7.741260290145874
 10
8.073347806930566
 20
7.753760629230074
 10
8.120847569571626
 20
7.753760629230074
 10
8.187514066696191
 20
7.753760629230074
 10
8.244180970721799
 20
7.730427397622001
 10
8.289180835088119
 20
7.683760934405856
 10
8.334180699454439
 20
7.636260324054293
 10
8.357513931062511
 20
7.574593623479207
 10
8.357513931062511
 20
7.497927533255682
 10
8.357513931062511
 20
7.421261443032157
 10
8.334180699454439
 20
7.358761443032157
 10
8.289180835088119
 20
7.312094979816012
 10
8.243347671296886
 20
7.265426821178859
 10
8.186680767271278
 20
7.241260290145874
 10
8.118347671296886
 20
7.241260290145874
 10
8.067514710956174
 20
7.241260290145874
 10
8.025848044289507
 20
7.254594776365491
 10
7.991681072447059
 20
7.280427906248304
 10
7.957514100604612
 20
7.306261036131116
 10
7.934180868996539
 20
7.342927906248304
 10
7.92168137762284
 20
7.390426821178859
 97
        0
 97
        1
330
B3
 92
        1
 93
        1
 72
     4
 94
        3
 73
     0
 74
     0
 95
       29
 96
       25
 40
0.0
 40
0.0
 40
0.0
 40
0.0
 40
1.0
 40
1.0
 40
1.0
 40
2.0
 40
2.0
 40
2.0
 40
3.0
 40
3.0
 40
3.0
 40
4.0
 40
4.0
 40
4.0
 40
5.0
 40
5.0
 40
5.0
 40
6.0
 40
6.0
 40
6.0
 40
7.0
 40
7.0
 40
7.0
 40
8.0
 40
8.0
 40
8.0
 40
8.0
 10
7.75918120808074
 20
7.371261782116359
 10
7.795847230487424
 20
7.371261782116359
 10
7.826681004630219
 20
7.382927974065144
 10
7.850014236238292
 20
7.40709450509813
 10
7.873347467846365
 20
7.430426888995699
 10
7.885014507505653
 20
7.461261510848999
 10
7.885014507505653
 20
7.498760832680595
 10
7.885014507505653
 20
7.53542685508728
 10
7.873347467846365
 20
7.566260629230074
 10
7.850014236238292
 20
7.589593860838148
 10
7.826681004630219
 20
7.612093793021307
 10
7.798347976472667
 20
7.623760832680595
 10
7.765014304055132
 20
7.623760832680595
 10
7.730014032787771
 20
7.623760832680595
 10
7.700014405780393
 20
7.612093793021307
 10
7.67668117417232
 20
7.587927261988321
 10
7.652514643139333
 20
7.563760730955335
 10
7.640847603480046
 20
7.533760256237453
 10
7.640847603480046
 20
7.497927533255682
 10
7.640847603480046
 20
7.461261510848999
 10
7.652514643139333
 20
7.431261036131116
 10
7.675847874747407
 20
7.40709450509813
 10
7.69918110635548
 20
7.383760425779554
 10
7.726680835088118
 20
7.371261782116359
 10
7.75918120808074
 20
7.371261782116359
 97
        0
 97
        1
330
B4
 92
        1
 93
        2
 72
     4
 94
        3
 73
     0
 74
     0
 95
       32
 96
       28
 40
0.0
 40
0.0
 40
0.0
 40
0.0
 40
1.0
 40
1.0
 40
1.0
 40
2.0
 40
2.0
 40
2.0
 40
3.0
 40
3.0
 40
3.0
 40
4.0
 40
4.0
 40
4.0
 40
5.0
 40
5.0
 40
5.0
 40
6.0
 40
6.0
 40
6.0
 40
7.0
 40
7.0
 40
7.0
 40
8.0
 40
8.0
 40
8.0
 40
9.0
 40
9.0
 40
9.0
 40
9.0
 10
8.119180970721799
 20
7.339594708548651
 10
8.146680699454439
 20
7.339594708548651
 10
8.173347976472667
 20
7.346261103947957
 10
8.198347806930566
 20
7.358761443032157
 10
8.224180936813379
 20
7.372094233830769
 10
8.244180970721799
 20
7.391260968314276
 10
8.257514609230913
 20
7.416261646482679
 10
8.271680699454439
 20
7.442094776365491
 10
8.27918124198916
 20
7.46959450509813
 10
8.27918124198916
 20
7.498760832680595
 10
8.27918124198916
 20
7.544593996471828
 10
8.26418100463022
 20
7.582094166013929
 10
8.235014677047754
 20
7.611260493596394
 10
8.205014202329872
 20
7.641260968314276
 10
8.167514032787771
 20
7.6554270585378
 10
8.122514168421451
 20
7.6554270585378
 10
8.07668100463022
 20
7.6554270585378
 10
8.038347535663206
 20
7.640426821178859
 10
8.008347908655826
 20
7.610427194171481
 10
7.978347433937945
 20
7.579594267739189
 10
7.963348044289507
 20
7.541260798772175
 10
7.963348044289507
 20
7.495427634980942
 10
7.963348044289507
 20
7.450427770614624
 10
7.977514134513032
 20
7.412928448783026
 10
8.007514609230913
 20
7.383760425779554
 10
8.037514236238292
 20
7.354594098197089
 10
8.075014405780393
 20
7.339594708548651
 10
8.119180970721799
 20
7.339594708548651
 97
        0
 72
     1
 10
8.119180970721798
 20
7.339594708548652
 11
8.119180970721799
 21
7.339594708548651
 97
        0
 75
     2
 76
     1
 98
        1
 10
0.0
 20
0.0
450
        0
451
        0
460
0.0
461
0.0
452
        0
462
0.0
453
        0
470

  0
SPLINE
  5
B7
330
70
100
AcDbEntity
  8
Layer 1
100
AcDbSpline
210
0.0
220
0.0
230
1.0
 70
    11
 71
     3
 72
    23
 73
    19
 74
     0
 42
0.0000000001
 43
0.0000000001
 40
0.0
 40
0.0
 40
0.0
 40
0.0
 40
1.0
 40
1.0
 40
1.0
 40
2.0
 40
2.0
 40
2.0
 40
3.0
 40
3.0
 40
3.0
 40
4.0
 40
4.0
 40
4.0
 40
5.0
 40
5.0
 40
5.0
 40
6.0
 40
6.0
 40
6.0
 40
6.0
 10
7.840847942564247
 20
7.880427228079901
 30
0.0
 10
7.840847942564247
 20
7.880427228079901
 30
0.0
 10
7.692513863245671
 20
7.853760798772175
 30
0.0
 10
7.692513863245671
 20
7.853760798772175
 30
0.0
 10
7.692513863245671
 20
7.853760798772175
 30
0.0
 10
7.565847264395844
 20
7.853760798772175
 30
0.0
 10
7.565847264395844
 20
7.853760798772175
 30
0.0
 10
7.565847264395844
 20
7.853760798772175
 30
0.0
 10
7.565847264395844
 20
7.962927261988321
 30
0.0
 10
7.565847264395844
 20
7.962927261988321
 30
0.0
 10
7.565847264395844
 20
7.962927261988321
 30
0.0
 10
7.692513863245671
 20
7.962927261988321
 30
0.0
 10
7.692513863245671
 20
7.962927261988321
 30
0.0
 10
7.692513863245671
 20
7.962927261988321
 30
0.0
 10
7.840847942564247
 20
7.939594030380249
 30
0.0
 10
7.840847942564247
 20
7.939594030380249
 30
0.0
 10
7.840847942564247
 20
7.939594030380249
 30
0.0
 10
7.840847942564247
 20
7.880427228079901
 30
0.0
 10
7.840847942564247
 20
7.880427228079901
 30
0.0
  0
SPLINE
  5
B8
330
70
100
AcDbEntity
  8
Layer 1
100
AcDbSpline
210
0.0
220
0.0
230
1.0
 70
    11
 71
     3
 72
    23
 73
    19
 74
     0
 42
0.0000000001
 43
0.0000000001
 40
0.0
 40
0.0
 40
0.0
 40
0.0
 40
1.0
 40
1.0
 40
1.0
 40
2.0
 40
2.0
 40
2.0
 40
3.0
 40
3.0
 40
3.0
 40
4.0
 40
4.0
 40
4.0
 40
5.0
 40
5.0
 40
5.0
 40
6.0
 40
6.0
 40
6.0
 40
6.0
 10
7.840847942564247
 20
8.056261036131116
 30
0.0
 10
7.840847942564247
 20
8.056261036131116
 30
0.0
 10
7.692513863245671
 20
8.02959460682339
 30
0.0
 10
7.692513863245671
 20
8.02959460682339
 30
0.0
 10
7.692513863245671
 20
8.02959460682339
 30
0.0
 10
7.565847264395844
 20
8.02959460682339
 30
0.0
 10
7.565847264395844
 20
8.02959460682339
 30
0.0
 10
7.565847264395844
 20
8.02959460682339
 30
0.0
 10
7.565847264395844
 20
8.138761070039537
 30
0.0
 10
7.565847264395844
 20
8.138761070039537
 30
0.0
 10
7.565847264395844
 20
8.138761070039537
 30
0.0
 10
7.692513863245671
 20
8.138761070039537
 30
0.0
 10
7.692513863245671
 20
8.138761070039537
 30
0.0
 10
7.692513863245671
 20
8.138761070039537
 30
0.0
 10
7.840847942564247
 20
8.113761239581638
 30
0.0
 10
7.840847942564247
 20
8.113761239581638
 30
0.0
 10
7.840847942564247
 20
8.113761239581638
 30
0.0
 10
7.840847942564247
 20
8.056261036131116
 30
0.0
 10
7.840847942564247
 20
8.056261036131116
 30
0.0
  0
HATCH
  5
B9
330
70
100
AcDbEntity
  8
Layer 1
 62
    18
420
        0
440
 33554687
100
AcDbHatch
 10
0.0
 20
0.0
 30
0.0
210
0.0
220
0.0
230
1.0
  2
SOLID
 70
     1
 71
     1
 91
        2
 92
        1
 93
        1
 72
     4
 94
        3
 73
     0
 74
     0
 95
       23
 96
       19
 40
0.0
 40
0.0
 40
0.0
 40
0.0
 40
1.0
 40
1.0
 40
1.0
 40
2.0
 40
2.0
 40
2.0
 40
3.0
 40
3.0
 40
3.0
 40
4.0
 40
4.0
 40
4.0
 40
5.0
 40
5.0
 40
5.0
 40
6.0
 40
6.0
 40
6.0
 40
6.0
 10
7.840847942564247
 20
7.880427228079901
 10
7.840847942564247
 20
7.880427228079901
 10
7.692513863245671
 20
7.853760798772175
 10
7.692513863245671
 20
7.853760798772175
 10
7.692513863245671
 20
7.853760798772175
 10
7.565847264395844
 20
7.853760798772175
 10
7.565847264395844
 20
7.853760798772175
 10
7.565847264395844
 20
7.853760798772175
 10
7.565847264395844
 20
7.962927261988321
 10
7.565847264395844
 20
7.962927261988321
 10
7.565847264395844
 20
7.962927261988321
 10
7.692513863245671
 20
7.962927261988321
 10
7.692513863245671
 20
7.962927261988321
 10
7.692513863245671
 20
7.962927261988321
 10
7.840847942564247
 20
7.939594030380249
 10
7.840847942564247
 20
7.939594030380249
 10
7.840847942564247
 20
7.939594030380249
 10
7.840847942564247
 20
7.880427228079901
 10
7.840847942564247
 20
7.880427228079901
 97
        0
 97
        1
330
B7
 92
        1
 93
        2
 72
     4
 94
        3
 73
     0
 74
     0
 95
       23
 96
       19
 40
0.0
 40
0.0
 40
0.0
 40
0.0
 40
1.0
 40
1.0
 40
1.0
 40
2.0
 40
2.0
 40
2.0
 40
3.0
 40
3.0
 40
3.0
 40
4.0
 40
4.0
 40
4.0
 40
5.0
 40
5.0
 40
5.0
 40
6.0
 40
6.0
 40
6.0
 40
6.0
 10
7.840847942564247
 20
8.056261036131116
 10
7.840847942564247
 20
8.056261036131116
 10
7.692513863245671
 20
8.02959460682339
 10
7.692513863245671
 20
8.02959460682339
 10
7.692513863245671
 20
8.02959460682339
 10
7.565847264395844
 20
8.02959460682339
 10
7.565847264395844
 20
8.02959460682339
 10
7.565847264395844
 20
8.02959460682339
 10
7.565847264395844
 20
8.138761070039537
 10
7.565847264395844
 20
8.138761070039537
 10
7.565847264395844
 20
8.138761070039537
 10
7.692513863245671
 20
8.138761070039537
 10
7.692513863245671
 20
8.138761070039537
 10
7.692513863245671
 20
8.138761070039537
 10
7.840847942564247
 20
8.113761239581638
 10
7.840847942564247
 20
8.113761239581638
 10
7.840847942564247
 20
8.113761239581638
 10
7.840847942564247
 20
8.056261036131116
 10
7.840847942564247
 20
8.056261036131116
 97
        0
 72
     1
 10
7.840847942564247
 20
8.056261036131116
 11
7.840847942564247
 21
8.056261036131116
 97
        0
 75
     2
 76
     1
 98
        1
 10
0.0
 20
0.0
450
        0
451
        0
460
0.0
461
0.0
452
        0
462
0.0
453
        0
470

  0
SPLINE
  5
BA
330
70
100
AcDbEntity
  8
Layer 1
100
AcDbSpline
210
0.0
220
0.0
230
1.0
 70
     9
 71
     3
 72
    95
 73
    91
 74
     0
 42
0.0000000001
 43
0.0000000001
 40
0.0
 40
0.0
 40
0.0
 40
0.0
 40
1.0
 40
1.0
 40
1.0
 40
2.0
 40
2.0
 40
2.0
 40
3.0
 40
3.0
 40
3.0
 40
4.0
 40
4.0
 40
4.0
 40
5.0
 40
5.0
 40
5.0
 40
6.0
 40
6.0
 40
6.0
 40
7.0
 40
7.0
 40
7.0
 40
8.0
 40
8.0
 40
8.0
 40
9.0
 40
9.0
 40
9.0
 40
10.0
 40
10.0
 40
10.0
 40
11.0
 40
11.0
 40
11.0
 40
12.0
 40
12.0
 40
12.0
 40
13.0
 40
13.0
 40
13.0
 40
14.0
 40
14.0
 40
14.0
 40
15.0
 40
15.0
 40
15.0
 40
16.0
 40
16.0
 40
16.0
 40
17.0
 40
17.0
 40
17.0
 40
18.0
 40
18.0
 40
18.0
 40
19.0
 40
19.0
 40
19.0
 40
20.0
 40
20.0
 40
20.0
 40
21.0
 40
21.0
 40
21.0
 40
22.0
 40
22.0
 40
22.0
 40
23.0
 40
23.0
 40
23.0
 40
24.0
 40
24.0
 40
24.0
 40
25.0
 40
25.0
 40
25.0
 40
26.0
 40
26.0
 40
26.0
 40
27.0
 40
27.0
 40
27.0
 40
28.0
 40
28.0
 40
28.0
 40
29.0
 40
29.0
 40
29.0
 40
30.0
 40
30.0
 40
30.0
 40
30.0
 10
7.143348349465289
 20
4.718760357962714
 30
0.0
 10
7.143348349465289
 20
4.718760357962714
 30
0.0
 10
7.130848010381087
 20
4.814594030380249
 30
0.0
 10
7.130848010381087
 20
4.814594030380249
 30
0.0
 10
7.184180868996539
 20
4.82626191775004
 30
0.0
 10
7.223347637388465
 20
4.84459450509813
 30
0.0
 10
7.247515016131956
 20
4.870427634980942
 30
0.0
 10
7.270848247740028
 20
4.896260764863755
 30
0.0
 10
7.283347739113726
 20
4.92876198556688
 30
0.0
 10
7.283347739113726
 20
4.967093759112887
 30
0.0
 10
7.283347739113726
 20
5.012095318900214
 30
0.0
 10
7.267514202329872
 20
5.049594640731811
 30
0.0
 10
7.235847976472667
 20
5.080427567164102
 30
0.0
 10
7.205014202329872
 20
5.111260493596394
 30
0.0
 10
7.166681581073362
 20
5.126261578665839
 30
0.0
 10
7.120014270146712
 20
5.126261578665839
 30
0.0
 10
7.076681004630219
 20
5.126261578665839
 30
0.0
 10
7.040014982223535
 20
5.112094640731811
 30
0.0
 10
7.01168110635548
 20
5.083760764863755
 30
0.0
 10
6.983348078197927
 20
5.055428584416707
 30
0.0
 10
6.969181140263899
 20
5.018761714299519
 30
0.0
 10
6.969181140263899
 20
4.974594301647609
 30
0.0
 10
6.969181140263899
 20
4.957094166013929
 30
0.0
 10
6.972514337963552
 20
4.934594233830769
 30
0.0
 10
6.980014880498274
 20
4.907928652233547
 30
0.0
 10
6.980014880498274
 20
4.907928652233547
 30
0.0
 10
6.895848247740028
 20
4.917928245332505
 30
0.0
 10
6.895848247740028
 20
4.917928245332505
 30
0.0
 10
6.895848247740028
 20
4.924594640731811
 30
0.0
 10
6.896681547164941
 20
4.92959443728129
 30
0.0
 10
6.896681547164941
 20
4.933761782116359
 30
0.0
 10
6.896681547164941
 20
4.973761849933199
 30
0.0
 10
6.885847806930566
 20
5.01042702462938
 30
0.0
 10
6.865014473597233
 20
5.042928245332505
 30
0.0
 10
6.843347840838987
 20
5.075427770614624
 30
0.0
 10
6.810848315556868
 20
5.091261307398477
 30
0.0
 10
6.766680902904958
 20
5.091261307398477
 30
0.0
 10
6.731681479348101
 20
5.091261307398477
 30
0.0
 10
6.702514304055132
 20
5.079595115449692
 30
0.0
 10
6.680014371871973
 20
5.056261036131116
 30
0.0
 10
6.656681140263899
 20
5.03209450509813
 30
0.0
 10
6.645848247740028
 20
5.002094030380249
 30
0.0
 10
6.645848247740028
 20
4.964594708548651
 30
0.0
 10
6.645848247740028
 20
4.927093691296047
 30
0.0
 10
6.657514439688813
 20
4.896260764863755
 30
0.0
 10
6.680847671296886
 20
4.872094233830769
 30
0.0
 10
6.704180902904958
 20
4.847095251083374
 30
0.0
 10
6.73918117417232
 20
4.831261714299519
 30
0.0
 10
6.785847637388465
 20
4.823761171764797
 30
0.0
 10
6.785847637388465
 20
4.823761171764797
 30
0.0
 10
6.769181648890202
 20
4.727927499347262
 30
0.0
 10
6.769181648890202
 20
4.727927499347262
 30
0.0
 10
6.705014202329872
 20
4.739593691296047
 30
0.0
 10
6.655014541414074
 20
4.766260968314276
 30
0.0
 10
6.620014270146712
 20
4.807927634980942
 30
0.0
 10
6.585014846589855
 20
4.849594301647609
 30
0.0
 10
6.567514710956174
 20
4.900428109698824
 30
0.0
 10
6.567514710956174
 20
4.962093962563408
 30
0.0
 10
6.567514710956174
 20
5.004594776365491
 30
0.0
 10
6.576681004630219
 20
5.043760697046915
 30
0.0
 10
6.594181140263899
 20
5.079595115449692
 30
0.0
 10
6.612514575322493
 20
5.115427838431464
 30
0.0
 10
6.637514405780393
 20
5.142927567164102
 30
0.0
 10
6.669181479348101
 20
5.161261849933199
 30
0.0
 10
6.700014405780393
 20
5.180428584416707
 30
0.0
 10
6.733348078197927
 20
5.189594030380249
 30
0.0
 10
6.769181648890202
 20
5.189594030380249
 30
0.0
 10
6.802514473597233
 20
5.189594030380249
 30
0.0
 10
6.833348247740028
 20
5.181261036131116
 30
0.0
 10
6.860847976472667
 20
5.162928448783026
 30
0.0
 10
6.888347705205306
 20
5.144594166013929
 30
0.0
 10
6.910014337963552
 20
5.117928584416707
 30
0.0
 10
6.92668117417232
 20
5.082928313149346
 30
0.0
 10
6.936681614981782
 20
5.128760629230074
 30
0.0
 10
6.959181547164941
 20
5.164595047632852
 30
0.0
 10
6.992514371871973
 20
5.189594030380249
 30
0.0
 10
7.025848044289507
 20
5.215427160263061
 30
0.0
 10
7.067514710956174
 20
5.227927499347262
 30
0.0
 10
7.118347671296886
 20
5.227927499347262
 30
0.0
 10
7.185848315556868
 20
5.227927499347262
 30
0.0
 10
7.244180970721799
 20
5.203760968314276
 30
0.0
 10
7.290848281648449
 20
5.153761307398477
 30
0.0
 10
7.338348044289507
 20
5.104594098197089
 30
0.0
 10
7.362514575322493
 20
5.042094098197089
 30
0.0
 10
7.362514575322493
 20
4.966261307398477
 30
0.0
 10
7.362514575322493
 20
4.897927363713582
 30
0.0
 10
7.34168124198916
 20
4.841261307398477
 30
0.0
 10
7.300847874747407
 20
4.796261443032158
 30
0.0
 10
7.260847806930566
 20
4.751261578665839
 30
0.0
 10
7.207514948315115
 20
4.725428448783026
 30
0.0
 10
7.143348349465289
 20
4.718760357962714
 30
0.0
  0
HATCH
  5
BB
330
70
100
AcDbEntity
  8
Layer 1
 62
    18
420
        0
440
 33554687
100
AcDbHatch
 10
0.0
 20
0.0
 30
0.0
210
0.0
220
0.0
230
1.0
  2
SOLID
 70
     1
 71
     1
 91
        1
 92
        1
 93
        2
 72
     4
 94
        3
 73
     0
 74
     0
 95
       95
 96
       91
 40
0.0
 40
0.0
 40
0.0
 40
0.0
 40
1.0
 40
1.0
 40
1.0
 40
2.0
 40
2.0
 40
2.0
 40
3.0
 40
3.0
 40
3.0
 40
4.0
 40
4.0
 40
4.0
 40
5.0
 40
5.0
 40
5.0
 40
6.0
 40
6.0
 40
6.0
 40
7.0
 40
7.0
 40
7.0
 40
8.0
 40
8.0
 40
8.0
 40
9.0
 40
9.0
 40
9.0
 40
10.0
 40
10.0
 40
10.0
 40
11.0
 40
11.0
 40
11.0
 40
12.0
 40
12.0
 40
12.0
 40
13.0
 40
13.0
 40
13.0
 40
14.0
 40
14.0
 40
14.0
 40
15.0
 40
15.0
 40
15.0
 40
16.0
 40
16.0
 40
16.0
 40
17.0
 40
17.0
 40
17.0
 40
18.0
 40
18.0
 40
18.0
 40
19.0
 40
19.0
 40
19.0
 40
20.0
 40
20.0
 40
20.0
 40
21.0
 40
21.0
 40
21.0
 40
22.0
 40
22.0
 40
22.0
 40
23.0
 40
23.0
 40
23.0
 40
24.0
 40
24.0
 40
24.0
 40
25.0
 40
25.0
 40
25.0
 40
26.0
 40
26.0
 40
26.0
 40
27.0
 40
27.0
 40
27.0
 40
28.0
 40
28.0
 40
28.0
 40
29.0
 40
29.0
 40
29.0
 40
30.0
 40
30.0
 40
30.0
 40
30.0
 10
7.143348349465289
 20
4.718760357962714
 10
7.143348349465289
 20
4.718760357962714
 10
7.130848010381087
 20
4.814594030380249
 10
7.130848010381087
 20
4.814594030380249
 10
7.184180868996539
 20
4.82626191775004
 10
7.223347637388465
 20
4.84459450509813
 10
7.247515016131956
 20
4.870427634980942
 10
7.270848247740028
 20
4.896260764863755
 10
7.283347739113726
 20
4.92876198556688
 10
7.283347739113726
 20
4.967093759112887
 10
7.283347739113726
 20
5.012095318900214
 10
7.267514202329872
 20
5.049594640731811
 10
7.235847976472667
 20
5.080427567164102
 10
7.205014202329872
 20
5.111260493596394
 10
7.166681581073362
 20
5.126261578665839
 10
7.120014270146712
 20
5.126261578665839
 10
7.076681004630219
 20
5.126261578665839
 10
7.040014982223535
 20
5.112094640731811
 10
7.01168110635548
 20
5.083760764863755
 10
6.983348078197927
 20
5.055428584416707
 10
6.969181140263899
 20
5.018761714299519
 10
6.969181140263899
 20
4.974594301647609
 10
6.969181140263899
 20
4.957094166013929
 10
6.972514337963552
 20
4.934594233830769
 10
6.980014880498274
 20
4.907928652233547
 10
6.980014880498274
 20
4.907928652233547
 10
6.895848247740028
 20
4.917928245332505
 10
6.895848247740028
 20
4.917928245332505
 10
6.895848247740028
 20
4.924594640731811
 10
6.896681547164941
 20
4.92959443728129
 10
6.896681547164941
 20
4.933761782116359
 10
6.896681547164941
 20
4.973761849933199
 10
6.885847806930566
 20
5.01042702462938
 10
6.865014473597233
 20
5.042928245332505
 10
6.843347840838987
 20
5.075427770614624
 10
6.810848315556868
 20
5.091261307398477
 10
6.766680902904958
 20
5.091261307398477
 10
6.731681479348101
 20
5.091261307398477
 10
6.702514304055132
 20
5.079595115449692
 10
6.680014371871973
 20
5.056261036131116
 10
6.656681140263899
 20
5.03209450509813
 10
6.645848247740028
 20
5.002094030380249
 10
6.645848247740028
 20
4.964594708548651
 10
6.645848247740028
 20
4.927093691296047
 10
6.657514439688813
 20
4.896260764863755
 10
6.680847671296886
 20
4.872094233830769
 10
6.704180902904958
 20
4.847095251083374
 10
6.73918117417232
 20
4.831261714299519
 10
6.785847637388465
 20
4.823761171764797
 10
6.785847637388465
 20
4.823761171764797
 10
6.769181648890202
 20
4.727927499347262
 10
6.769181648890202
 20
4.727927499347262
 10
6.705014202329872
 20
4.739593691296047
 10
6.655014541414074
 20
4.766260968314276
 10
6.620014270146712
 20
4.807927634980942
 10
6.585014846589855
 20
4.849594301647609
 10
6.567514710956174
 20
4.900428109698824
 10
6.567514710956174
 20
4.962093962563408
 10
6.567514710956174
 20
5.004594776365491
 10
6.576681004630219
 20
5.043760697046915
 10
6.594181140263899
 20
5.079595115449692
 10
6.612514575322493
 20
5.115427838431464
 10
6.637514405780393
 20
5.142927567164102
 10
6.669181479348101
 20
5.161261849933199
 10
6.700014405780393
 20
5.180428584416707
 10
6.733348078197927
 20
5.189594030380249
 10
6.769181648890202
 20
5.189594030380249
 10
6.802514473597233
 20
5.189594030380249
 10
6.833348247740028
 20
5.181261036131116
 10
6.860847976472667
 20
5.162928448783026
 10
6.888347705205306
 20
5.144594166013929
 10
6.910014337963552
 20
5.117928584416707
 10
6.92668117417232
 20
5.082928313149346
 10
6.936681614981782
 20
5.128760629230074
 10
6.959181547164941
 20
5.164595047632852
 10
6.992514371871973
 20
5.189594030380249
 10
7.025848044289507
 20
5.215427160263061
 10
7.067514710956174
 20
5.227927499347262
 10
7.118347671296886
 20
5.227927499347262
 10
7.185848315556868
 20
5.227927499347262
 10
7.244180970721799
 20
5.203760968314276
 10
7.290848281648449
 20
5.153761307398477
 10
7.338348044289507
 20
5.104594098197089
 10
7.362514575322493
 20
5.042094098197089
 10
7.362514575322493
 20
4.966261307398477
 10
7.362514575322493
 20
4.897927363713582
 10
7.34168124198916
 20
4.841261307398477
 10
7.300847874747407
 20
4.796261443032158
 10
7.260847806930566
 20
4.751261578665839
 10
7.207514948315115
 20
4.725428448783026
 10
7.143348349465289
 20
4.718760357962714
 97
        0
 72
     1
 10
7.14334834946529
 20
4.718760357962714
 11
7.143348349465289
 21
4.718760357962714
 97
        0
 75
     2
 76
     1
 98
        1
 10
0.0
 20
0.0
450
        0
451
        0
460
0.0
461
0.0
452
        0
462
0.0
453
        0
470

  0
SPLINE
  5
BC
330
70
100
AcDbEntity
  8
Layer 1
100
AcDbSpline
210
0.0
220
0.0
230
1.0
 70
    11
 71
     3
 72
    38
 73
    34
 74
     0
 42
0.0000000001
 43
0.0000000001
 40
0.0
 40
0.0
 40
0.0
 40
0.0
 40
1.0
 40
1.0
 40
1.0
 40
2.0
 40
2.0
 40
2.0
 40
3.0
 40
3.0
 40
3.0
 40
4.0
 40
4.0
 40
4.0
 40
5.0
 40
5.0
 40
5.0
 40
6.0
 40
6.0
 40
6.0
 40
7.0
 40
7.0
 40
7.0
 40
8.0
 40
8.0
 40
8.0
 40
9.0
 40
9.0
 40
9.0
 40
10.0
 40
10.0
 40
10.0
 40
11.0
 40
11.0
 40
11.0
 40
11.0
 10
7.349180936813379
 20
5.631261375215317
 30
0.0
 10
7.349180936813379
 20
5.631261375215317
 30
0.0
 10
7.163347535663206
 20
5.631261375215317
 30
0.0
 10
7.163347535663206
 20
5.631261375215317
 30
0.0
 10
7.163347535663206
 20
5.631261375215317
 30
0.0
 10
7.163347535663206
 20
5.292928245332505
 30
0.0
 10
7.163347535663206
 20
5.292928245332505
 30
0.0
 10
7.163347535663206
 20
5.292928245332505
 30
0.0
 10
7.075846857494802
 20
5.292928245332505
 30
0.0
 10
7.075846857494802
 20
5.292928245332505
 30
0.0
 10
7.075846857494802
 20
5.292928245332505
 30
0.0
 10
6.571680360370237
 20
5.648761510848999
 30
0.0
 10
6.571680360370237
 20
5.648761510848999
 30
0.0
 10
6.571680360370237
 20
5.648761510848999
 30
0.0
 10
6.571680360370237
 20
5.727095047632852
 30
0.0
 10
6.571680360370237
 20
5.727095047632852
 30
0.0
 10
6.571680360370237
 20
5.727095047632852
 30
0.0
 10
7.075846857494802
 20
5.727095047632852
 30
0.0
 10
7.075846857494802
 20
5.727095047632852
 30
0.0
 10
7.075846857494802
 20
5.727095047632852
 30
0.0
 10
7.075846857494802
 20
5.832095861434936
 30
0.0
 10
7.075846857494802
 20
5.832095861434936
 30
0.0
 10
7.075846857494802
 20
5.832095861434936
 30
0.0
 10
7.163347535663206
 20
5.832095861434936
 30
0.0
 10
7.163347535663206
 20
5.832095861434936
 30
0.0
 10
7.163347535663206
 20
5.832095861434936
 30
0.0
 10
7.163347535663206
 20
5.727095047632852
 30
0.0
 10
7.163347535663206
 20
5.727095047632852
 30
0.0
 10
7.163347535663206
 20
5.727095047632852
 30
0.0
 10
7.349180936813379
 20
5.727095047632852
 30
0.0
 10
7.349180936813379
 20
5.727095047632852
 30
0.0
 10
7.349180936813379
 20
5.727095047632852
 30
0.0
 10
7.349180936813379
 20
5.631261375215317
 30
0.0
 10
7.349180936813379
 20
5.631261375215317
 30
0.0
  0
SPLINE
  5
BD
330
70
100
AcDbEntity
  8
Layer 1
100
AcDbSpline
210
0.0
220
0.0
230
1.0
 70
    11
 71
     3
 72
    14
 73
    10
 74
     0
 42
0.0000000001
 43
0.0000000001
 40
0.0
 40
0.0
 40
0.0
 40
0.0
 40
1.0
 40
1.0
 40
1.0
 40
2.0
 40
2.0
 40
2.0
 40
3.0
 40
3.0
 40
3.0
 40
3.0
 10
7.075846857494802
 20
5.631261375215317
 30
0.0
 10
7.075846857494802
 20
5.631261375215317
 30
0.0
 10
6.725014236238292
 20
5.631261375215317
 30
0.0
 10
6.725014236238292
 20
5.631261375215317
 30
0.0
 10
6.725014236238292
 20
5.631261375215317
 30
0.0
 10
7.075846857494802
 20
5.387095318900214
 30
0.0
 10
7.075846857494802
 20
5.387095318900214
 30
0.0
 10
7.075846857494802
 20
5.387095318900214
 30
0.0
 10
7.075846857494802
 20
5.631261375215317
 30
0.0
 10
7.075846857494802
 20
5.631261375215317
 30
0.0
  0
HATCH
  5
BE
330
70
100
AcDbEntity
  8
Layer 1
 62
    18
420
        0
440
 33554687
100
AcDbHatch
 10
0.0
 20
0.0
 30
0.0
210
0.0
220
0.0
230
1.0
  2
SOLID
 70
     1
 71
     1
 91
        2
 92
        1
 93
        1
 72
     4
 94
        3
 73
     0
 74
     0
 95
       38
 96
       34
 40
0.0
 40
0.0
 40
0.0
 40
0.0
 40
1.0
 40
1.0
 40
1.0
 40
2.0
 40
2.0
 40
2.0
 40
3.0
 40
3.0
 40
3.0
 40
4.0
 40
4.0
 40
4.0
 40
5.0
 40
5.0
 40
5.0
 40
6.0
 40
6.0
 40
6.0
 40
7.0
 40
7.0
 40
7.0
 40
8.0
 40
8.0
 40
8.0
 40
9.0
 40
9.0
 40
9.0
 40
10.0
 40
10.0
 40
10.0
 40
11.0
 40
11.0
 40
11.0
 40
11.0
 10
7.349180936813379
 20
5.631261375215317
 10
7.349180936813379
 20
5.631261375215317
 10
7.163347535663206
 20
5.631261375215317
 10
7.163347535663206
 20
5.631261375215317
 10
7.163347535663206
 20
5.631261375215317
 10
7.163347535663206
 20
5.292928245332505
 10
7.163347535663206
 20
5.292928245332505
 10
7.163347535663206
 20
5.292928245332505
 10
7.075846857494802
 20
5.292928245332505
 10
7.075846857494802
 20
5.292928245332505
 10
7.075846857494802
 20
5.292928245332505
 10
6.571680360370237
 20
5.648761510848999
 10
6.571680360370237
 20
5.648761510848999
 10
6.571680360370237
 20
5.648761510848999
 10
6.571680360370237
 20
5.727095047632852
 10
6.571680360370237
 20
5.727095047632852
 10
6.571680360370237
 20
5.727095047632852
 10
7.075846857494802
 20
5.727095047632852
 10
7.075846857494802
 20
5.727095047632852
 10
7.075846857494802
 20
5.727095047632852
 10
7.075846857494802
 20
5.832095861434936
 10
7.075846857494802
 20
5.832095861434936
 10
7.075846857494802
 20
5.832095861434936
 10
7.163347535663206
 20
5.832095861434936
 10
7.163347535663206
 20
5.832095861434936
 10
7.163347535663206
 20
5.832095861434936
 10
7.163347535663206
 20
5.727095047632852
 10
7.163347535663206
 20
5.727095047632852
 10
7.163347535663206
 20
5.727095047632852
 10
7.349180936813379
 20
5.727095047632852
 10
7.349180936813379
 20
5.727095047632852
 10
7.349180936813379
 20
5.727095047632852
 10
7.349180936813379
 20
5.631261375215317
 10
7.349180936813379
 20
5.631261375215317
 97
        0
 97
        1
330
BC
 92
        1
 93
        2
 72
     4
 94
        3
 73
     0
 74
     0
 95
       14
 96
       10
 40
0.0
 40
0.0
 40
0.0
 40
0.0
 40
1.0
 40
1.0
 40
1.0
 40
2.0
 40
2.0
 40
2.0
 40
3.0
 40
3.0
 40
3.0
 40
3.0
 10
7.075846857494802
 20
5.631261375215317
 10
7.075846857494802
 20
5.631261375215317
 10
6.725014236238292
 20
5.631261375215317
 10
6.725014236238292
 20
5.631261375215317
 10
6.725014236238292
 20
5.631261375215317
 10
7.075846857494802
 20
5.387095318900214
 10
7.075846857494802
 20
5.387095318900214
 10
7.075846857494802
 20
5.387095318900214
 10
7.075846857494802
 20
5.631261375215317
 10
7.075846857494802
 20
5.631261375215317
 97
        0
 72
     1
 10
7.075846857494802
 20
5.631261375215317
 11
7.075846857494802
 21
5.631261375215317
 97
        0
 75
     2
 76
     1
 98
        1
 10
0.0
 20
0.0
450
        0
451
        0
460
0.0
461
0.0
452
        0
462
0.0
453
        0
470

  0
SPLINE
  5
BF
330
70
100
AcDbEntity
  8
Layer 1
100
AcDbSpline
210
0.0
220
0.0
230
1.0
 70
     9
 71
     3
 72
    41
 73
    37
 74
     0
 42
0.0000000001
 43
0.0000000001
 40
0.0
 40
0.0
 40
0.0
 40
0.0
 40
1.0
 40
1.0
 40
1.0
 40
2.0
 40
2.0
 40
2.0
 40
3.0
 40
3.0
 40
3.0
 40
4.0
 40
4.0
 40
4.0
 40
5.0
 40
5.0
 40
5.0
 40
6.0
 40
6.0
 40
6.0
 40
7.0
 40
7.0
 40
7.0
 40
8.0
 40
8.0
 40
8.0
 40
9.0
 40
9.0
 40
9.0
 40
10.0
 40
10.0
 40
10.0
 40
11.0
 40
11.0
 40
11.0
 40
12.0
 40
12.0
 40
12.0
 40
12.0
 10
6.965014643139333
 20
5.932093487845526
 30
0.0
 10
6.872514168421452
 20
5.932093487845526
 30
0.0
 10
6.798347976472667
 20
5.942094776365491
 30
0.0
 10
6.742514371871973
 20
5.960427363713582
 30
0.0
 10
6.685847467846365
 20
5.979594098197089
 30
0.0
 10
6.642514202329872
 20
6.007927974065144
 30
0.0
 10
6.612514575322493
 20
6.045427295896741
 30
0.0
 10
6.582514100604612
 20
6.082928313149346
 30
0.0
 10
6.567513863245671
 20
6.129594776365491
 30
0.0
 10
6.567513863245671
 20
6.186260832680596
 30
0.0
 10
6.567513863245671
 20
6.227927499347262
 30
0.0
 10
6.575847705205306
 20
6.264594369464449
 30
0.0
 10
6.592514541414074
 20
6.296261443032157
 30
0.0
 10
6.609180529912337
 20
6.327926821178859
 30
0.0
 10
6.633347908655827
 20
6.353761646482679
 30
0.0
 10
6.665014134513032
 20
6.374594979816012
 30
0.0
 10
6.69668120808074
 20
6.394594166013929
 30
0.0
 10
6.73501382933725
 20
6.410427702797782
 30
0.0
 10
6.780847840838987
 20
6.422093894746567
 30
0.0
 10
6.826681004630219
 20
6.433761782116359
 30
0.0
 10
6.887514405780393
 20
6.439594030380249
 30
0.0
 10
6.965014643139333
 20
6.439594030380249
 30
0.0
 10
7.055847671296886
 20
6.439594030380249
 30
0.0
 10
7.130013863245671
 20
6.430426888995699
 30
0.0
 10
7.186680767271278
 20
6.412094301647609
 30
0.0
 10
7.242514371871973
 20
6.392927567164102
 30
0.0
 10
7.285847637388465
 20
6.364593691296047
 30
0.0
 10
7.316680563820757
 20
6.327926821178859
 30
0.0
 10
7.34668103853864
 20
6.290427499347262
 30
0.0
 10
7.362514575322493
 20
6.242926888995699
 30
0.0
 10
7.362514575322493
 20
6.186260832680596
 30
0.0
 10
7.362514575322493
 20
6.111260493596394
 30
0.0
 10
7.335013998879351
 20
6.052093691296047
 30
0.0
 10
7.281681140263899
 20
6.009594572914971
 30
0.0
 10
7.21668124198916
 20
5.957928313149346
 30
0.0
 10
7.110847976472667
 20
5.932093487845526
 30
0.0
 10
6.965014643139333
 20
5.932093487845526
 30
0.0
  0
SPLINE
  5
C0
330
70
100
AcDbEntity
  8
Layer 1
100
AcDbSpline
210
0.0
220
0.0
230
1.0
 70
     9
 71
     3
 72
    29
 73
    25
 74
     0
 42
0.0000000001
 43
0.0000000001
 40
0.0
 40
0.0
 40
0.0
 40
0.0
 40
1.0
 40
1.0
 40
1.0
 40
2.0
 40
2.0
 40
2.0
 40
3.0
 40
3.0
 40
3.0
 40
4.0
 40
4.0
 40
4.0
 40
5.0
 40
5.0
 40
5.0
 40
6.0
 40
6.0
 40
6.0
 40
7.0
 40
7.0
 40
7.0
 40
8.0
 40
8.0
 40
8.0
 40
8.0
 10
6.965014643139333
 20
6.030427906248304
 30
0.0
 10
7.093347840838987
 20
6.030427906248304
 30
0.0
 10
7.178347773022146
 20
6.045427295896741
 30
0.0
 10
7.220847739113726
 20
6.075427770614624
 30
0.0
 10
7.262514405780393
 20
6.105428245332505
 30
0.0
 10
7.28418103853864
 20
6.142095115449692
 30
0.0
 10
7.28418103853864
 20
6.186260832680596
 30
0.0
 10
7.28418103853864
 20
6.229594098197089
 30
0.0
 10
7.262514405780393
 20
6.267095115449692
 30
0.0
 10
7.220014439688813
 20
6.297093894746567
 30
0.0
 10
7.178347773022146
 20
6.326260222329032
 30
0.0
 10
7.092514541414074
 20
6.341261307398477
 30
0.0
 10
6.965014643139333
 20
6.341261307398477
 30
0.0
 10
6.836680597729177
 20
6.341261307398477
 30
0.0
 10
6.751680665546018
 20
6.326260222329032
 30
0.0
 10
6.709180699454438
 20
6.297093894746567
 30
0.0
 10
6.667514032787771
 20
6.267095115449692
 30
0.0
 10
6.646680699454438
 20
6.229594098197089
 30
0.0
 10
6.646680699454438
 20
6.185428380966186
 30
0.0
 10
6.646680699454438
 20
6.141260968314276
 30
0.0
 10
6.665014134513032
 20
6.106260697046915
 30
0.0
 10
6.701681004630219
 20
6.079595115449692
 30
0.0
 10
6.749180767271278
 20
6.047093894746567
 30
0.0
 10
6.83751389715409
 20
6.030427906248304
 30
0.0
 10
6.965014643139333
 20
6.030427906248304
 30
0.0
  0
HATCH
  5
C1
330
70
100
AcDbEntity
  8
Layer 1
 62
    18
420
        0
440
 33554687
100
AcDbHatch
 10
0.0
 20
0.0
 30
0.0
210
0.0
220
0.0
230
1.0
  2
SOLID
 70
     1
 71
     1
 91
        2
 92
        1
 93
        1
 72
     4
 94
        3
 73
     0
 74
     0
 95
       41
 96
       37
 40
0.0
 40
0.0
 40
0.0
 40
0.0
 40
1.0
 40
1.0
 40
1.0
 40
2.0
 40
2.0
 40
2.0
 40
3.0
 40
3.0
 40
3.0
 40
4.0
 40
4.0
 40
4.0
 40
5.0
 40
5.0
 40
5.0
 40
6.0
 40
6.0
 40
6.0
 40
7.0
 40
7.0
 40
7.0
 40
8.0
 40
8.0
 40
8.0
 40
9.0
 40
9.0
 40
9.0
 40
10.0
 40
10.0
 40
10.0
 40
11.0
 40
11.0
 40
11.0
 40
12.0
 40
12.0
 40
12.0
 40
12.0
 10
6.965014643139333
 20
5.932093487845526
 10
6.872514168421452
 20
5.932093487845526
 10
6.798347976472667
 20
5.942094776365491
 10
6.742514371871973
 20
5.960427363713582
 10
6.685847467846365
 20
5.979594098197089
 10
6.642514202329872
 20
6.007927974065144
 10
6.612514575322493
 20
6.045427295896741
 10
6.582514100604612
 20
6.082928313149346
 10
6.567513863245671
 20
6.129594776365491
 10
6.567513863245671
 20
6.186260832680596
 10
6.567513863245671
 20
6.227927499347262
 10
6.575847705205306
 20
6.264594369464449
 10
6.592514541414074
 20
6.296261443032157
 10
6.609180529912337
 20
6.327926821178859
 10
6.633347908655827
 20
6.353761646482679
 10
6.665014134513032
 20
6.374594979816012
 10
6.69668120808074
 20
6.394594166013929
 10
6.73501382933725
 20
6.410427702797782
 10
6.780847840838987
 20
6.422093894746567
 10
6.826681004630219
 20
6.433761782116359
 10
6.887514405780393
 20
6.439594030380249
 10
6.965014643139333
 20
6.439594030380249
 10
7.055847671296886
 20
6.439594030380249
 10
7.130013863245671
 20
6.430426888995699
 10
7.186680767271278
 20
6.412094301647609
 10
7.242514371871973
 20
6.392927567164102
 10
7.285847637388465
 20
6.364593691296047
 10
7.316680563820757
 20
6.327926821178859
 10
7.34668103853864
 20
6.290427499347262
 10
7.362514575322493
 20
6.242926888995699
 10
7.362514575322493
 20
6.186260832680596
 10
7.362514575322493
 20
6.111260493596394
 10
7.335013998879351
 20
6.052093691296047
 10
7.281681140263899
 20
6.009594572914971
 10
7.21668124198916
 20
5.957928313149346
 10
7.110847976472667
 20
5.932093487845526
 10
6.965014643139333
 20
5.932093487845526
 97
        0
 97
        1
330
BF
 92
        1
 93
        2
 72
     4
 94
        3
 73
     0
 74
     0
 95
       29
 96
       25
 40
0.0
 40
0.0
 40
0.0
 40
0.0
 40
1.0
 40
1.0
 40
1.0
 40
2.0
 40
2.0
 40
2.0
 40
3.0
 40
3.0
 40
3.0
 40
4.0
 40
4.0
 40
4.0
 40
5.0
 40
5.0
 40
5.0
 40
6.0
 40
6.0
 40
6.0
 40
7.0
 40
7.0
 40
7.0
 40
8.0
 40
8.0
 40
8.0
 40
8.0
 10
6.965014643139333
 20
6.030427906248304
 10
7.093347840838987
 20
6.030427906248304
 10
7.178347773022146
 20
6.045427295896741
 10
7.220847739113726
 20
6.075427770614624
 10
7.262514405780393
 20
6.105428245332505
 10
7.28418103853864
 20
6.142095115449692
 10
7.28418103853864
 20
6.186260832680596
 10
7.28418103853864
 20
6.229594098197089
 10
7.262514405780393
 20
6.267095115449692
 10
7.220014439688813
 20
6.297093894746567
 10
7.178347773022146
 20
6.326260222329032
 10
7.092514541414074
 20
6.341261307398477
 10
6.965014643139333
 20
6.341261307398477
 10
6.836680597729177
 20
6.341261307398477
 10
6.751680665546018
 20
6.326260222329032
 10
6.709180699454438
 20
6.297093894746567
 10
6.667514032787771
 20
6.267095115449692
 10
6.646680699454438
 20
6.229594098197089
 10
6.646680699454438
 20
6.185428380966186
 10
6.646680699454438
 20
6.141260968314276
 10
6.665014134513032
 20
6.106260697046915
 10
6.701681004630219
 20
6.079595115449692
 10
6.749180767271278
 20
6.047093894746567
 10
6.83751389715409
 20
6.030427906248304
 10
6.965014643139333
 20
6.030427906248304
 97
        0
 72
     1
 10
6.965014643139333
 20
6.030427906248303
 11
6.965014643139333
 21
6.030427906248304
 97
        0
 75
     2
 76
     1
 98
        1
 10
0.0
 20
0.0
450
        0
451
        0
460
0.0
461
0.0
452
        0
462
0.0
453
        0
470

  0
SPLINE
  5
C2
330
70
100
AcDbEntity
  8
Layer 1
100
AcDbSpline
210
0.0
220
0.0
230
1.0
 70
    11
 71
     3
 72
    89
 73
    85
 74
     0
 42
0.0000000001
 43
0.0000000001
 40
0.0
 40
0.0
 40
0.0
 40
0.0
 40
1.0
 40
1.0
 40
1.0
 40
2.0
 40
2.0
 40
2.0
 40
3.0
 40
3.0
 40
3.0
 40
4.0
 40
4.0
 40
4.0
 40
5.0
 40
5.0
 40
5.0
 40
6.0
 40
6.0
 40
6.0
 40
7.0
 40
7.0
 40
7.0
 40
8.0
 40
8.0
 40
8.0
 40
9.0
 40
9.0
 40
9.0
 40
10.0
 40
10.0
 40
10.0
 40
11.0
 40
11.0
 40
11.0
 40
12.0
 40
12.0
 40
12.0
 40
13.0
 40
13.0
 40
13.0
 40
14.0
 40
14.0
 40
14.0
 40
15.0
 40
15.0
 40
15.0
 40
16.0
 40
16.0
 40
16.0
 40
17.0
 40
17.0
 40
17.0
 40
18.0
 40
18.0
 40
18.0
 40
19.0
 40
19.0
 40
19.0
 40
20.0
 40
20.0
 40
20.0
 40
21.0
 40
21.0
 40
21.0
 40
22.0
 40
22.0
 40
22.0
 40
23.0
 40
23.0
 40
23.0
 40
24.0
 40
24.0
 40
24.0
 40
25.0
 40
25.0
 40
25.0
 40
26.0
 40
26.0
 40
26.0
 40
27.0
 40
27.0
 40
27.0
 40
28.0
 40
28.0
 40
28.0
 40
28.0
 10
7.349180936813379
 20
6.566260629230074
 30
0.0
 10
7.349180936813379
 20
6.566260629230074
 30
0.0
 10
6.785013490253049
 20
6.566260629230074
 30
0.0
 10
6.785013490253049
 20
6.566260629230074
 30
0.0
 10
6.785013490253049
 20
6.566260629230074
 30
0.0
 10
6.785013490253049
 20
6.652094708548651
 30
0.0
 10
6.785013490253049
 20
6.652094708548651
 30
0.0
 10
6.785013490253049
 20
6.652094708548651
 30
0.0
 10
6.863347027036903
 20
6.652094708548651
 30
0.0
 10
6.863347027036903
 20
6.652094708548651
 30
0.0
 10
6.835847298304265
 20
6.670427295896741
 30
0.0
 10
6.814180665546018
 20
6.693761375215317
 30
0.0
 10
6.79751382933725
 20
6.722927702797782
 30
0.0
 10
6.780846993128483
 20
6.752094030380249
 30
0.0
 10
6.772513998879351
 20
6.785427702797782
 30
0.0
 10
6.772513998879351
 20
6.822928720050387
 30
0.0
 10
6.772513998879351
 20
6.864595386717054
 30
0.0
 10
6.780846993128483
 20
6.899593962563407
 30
0.0
 10
6.798347128762164
 20
6.926261239581637
 30
0.0
 10
6.815013964970931
 20
6.952928516599866
 30
0.0
 10
6.839180496003917
 20
6.971261103947957
 30
0.0
 10
6.870847569571625
 20
6.982927295896741
 30
0.0
 10
6.805013524161469
 20
7.027094708548651
 30
0.0
 10
6.772513998879351
 20
7.085427363713582
 30
0.0
 10
6.772513998879351
 20
7.15709450509813
 30
0.0
 10
6.772513998879351
 20
7.213762256834241
 30
0.0
 10
6.787514236238292
 20
7.257095522350734
 30
0.0
 10
6.818347162670583
 20
7.287094301647609
 30
0.0
 10
6.850014236238292
 20
7.317094776365491
 30
0.0
 10
6.897513998879351
 20
7.332094166013929
 30
0.0
 10
6.961680597729177
 20
7.332094166013929
 30
0.0
 10
6.961680597729177
 20
7.332094166013929
 30
0.0
 10
7.349180936813379
 20
7.332094166013929
 30
0.0
 10
7.349180936813379
 20
7.332094166013929
 30
0.0
 10
7.349180936813379
 20
7.332094166013929
 30
0.0
 10
7.349180936813379
 20
7.236262189017401
 30
0.0
 10
7.349180936813379
 20
7.236262189017401
 30
0.0
 10
7.349180936813379
 20
7.236262189017401
 30
0.0
 10
6.993346823586382
 20
7.236262189017401
 30
0.0
 10
6.993346823586382
 20
7.236262189017401
 30
0.0
 10
6.955014202329872
 20
7.236262189017401
 30
0.0
 10
6.92751362588673
 20
7.233761443032157
 30
0.0
 10
6.910846789677962
 20
7.227095047632852
 30
0.0
 10
6.894180801179699
 20
7.221261103947957
 30
0.0
 10
6.880013863245671
 20
7.209594911999172
 30
0.0
 10
6.870014270146712
 20
7.193761375215317
 30
0.0
 10
6.86001382933725
 20
7.177095386717054
 30
0.0
 10
6.855014032787771
 20
7.157928652233547
 30
0.0
 10
6.855014032787771
 20
7.136261171764797
 30
0.0
 10
6.855014032787771
 20
7.096261103947957
 30
0.0
 10
6.867513524161469
 20
7.062927431530422
 30
0.0
 10
6.894180801179699
 20
7.037094301647609
 30
0.0
 10
6.920847230487424
 20
7.010428720050387
 30
0.0
 10
6.96251389715409
 20
6.997094233830769
 30
0.0
 10
7.020847400029524
 20
6.997094233830769
 30
0.0
 10
7.020847400029524
 20
6.997094233830769
 30
0.0
 10
7.349180936813379
 20
6.997094233830769
 30
0.0
 10
7.349180936813379
 20
6.997094233830769
 30
0.0
 10
7.349180936813379
 20
6.997094233830769
 30
0.0
 10
7.349180936813379
 20
6.901262256834241
 30
0.0
 10
7.349180936813379
 20
6.901262256834241
 30
0.0
 10
7.349180936813379
 20
6.901262256834241
 30
0.0
 10
6.982513931062511
 20
6.901262256834241
 30
0.0
 10
6.982513931062511
 20
6.901262256834241
 30
0.0
 10
6.940013964970931
 20
6.901262256834241
 30
0.0
 10
6.907513591978309
 20
6.893761714299519
 30
0.0
 10
6.886680258644976
 20
6.877928177515665
 30
0.0
 10
6.86501362588673
 20
6.862928787867227
 30
0.0
 10
6.855014032787771
 20
6.837093962563407
 30
0.0
 10
6.855014032787771
 20
6.802095386717054
 30
0.0
 10
6.855014032787771
 20
6.774593962563407
 30
0.0
 10
6.861680428187077
 20
6.750427431530422
 30
0.0
 10
6.875847366121105
 20
6.727095047632852
 30
0.0
 10
6.890013456344629
 20
6.704595115449692
 30
0.0
 10
6.910846789677962
 20
6.687927431530422
 30
0.0
 10
6.938347366121105
 20
6.677927838431464
 30
0.0
 10
6.965013795428831
 20
6.667094098197089
 30
0.0
 10
7.005013863245671
 20
6.662094301647609
 30
0.0
 10
7.055846823586382
 20
6.662094301647609
 30
0.0
 10
7.055846823586382
 20
6.662094301647609
 30
0.0
 10
7.349180936813379
 20
6.662094301647609
 30
0.0
 10
7.349180936813379
 20
6.662094301647609
 30
0.0
 10
7.349180936813379
 20
6.662094301647609
 30
0.0
 10
7.349180936813379
 20
6.566260629230074
 30
0.0
 10
7.349180936813379
 20
6.566260629230074
 30
0.0
  0
HATCH
  5
C3
330
70
100
AcDbEntity
  8
Layer 1
 62
    18
420
        0
440
 33554687
100
AcDbHatch
 10
0.0
 20
0.0
 30
0.0
210
0.0
220
0.0
230
1.0
  2
SOLID
 70
     1
 71
     1
 91
        1
 92
        1
 93
        2
 72
     4
 94
        3
 73
     0
 74
     0
 95
       89
 96
       85
 40
0.0
 40
0.0
 40
0.0
 40
0.0
 40
1.0
 40
1.0
 40
1.0
 40
2.0
 40
2.0
 40
2.0
 40
3.0
 40
3.0
 40
3.0
 40
4.0
 40
4.0
 40
4.0
 40
5.0
 40
5.0
 40
5.0
 40
6.0
 40
6.0
 40
6.0
 40
7.0
 40
7.0
 40
7.0
 40
8.0
 40
8.0
 40
8.0
 40
9.0
 40
9.0
 40
9.0
 40
10.0
 40
10.0
 40
10.0
 40
11.0
 40
11.0
 40
11.0
 40
12.0
 40
12.0
 40
12.0
 40
13.0
 40
13.0
 40
13.0
 40
14.0
 40
14.0
 40
14.0
 40
15.0
 40
15.0
 40
15.0
 40
16.0
 40
16.0
 40
16.0
 40
17.0
 40
17.0
 40
17.0
 40
18.0
 40
18.0
 40
18.0
 40
19.0
 40
19.0
 40
19.0
 40
20.0
 40
20.0
 40
20.0
 40
21.0
 40
21.0
 40
21.0
 40
22.0
 40
22.0
 40
22.0
 40
23.0
 40
23.0
 40
23.0
 40
24.0
 40
24.0
 40
24.0
 40
25.0
 40
25.0
 40
25.0
 40
26.0
 40
26.0
 40
26.0
 40
27.0
 40
27.0
 40
27.0
 40
28.0
 40
28.0
 40
28.0
 40
28.0
 10
7.349180936813379
 20
6.566260629230074
 10
7.349180936813379
 20
6.566260629230074
 10
6.785013490253049
 20
6.566260629230074
 10
6.785013490253049
 20
6.566260629230074
 10
6.785013490253049
 20
6.566260629230074
 10
6.785013490253049
 20
6.652094708548651
 10
6.785013490253049
 20
6.652094708548651
 10
6.785013490253049
 20
6.652094708548651
 10
6.863347027036903
 20
6.652094708548651
 10
6.863347027036903
 20
6.652094708548651
 10
6.835847298304265
 20
6.670427295896741
 10
6.814180665546018
 20
6.693761375215317
 10
6.79751382933725
 20
6.722927702797782
 10
6.780846993128483
 20
6.752094030380249
 10
6.772513998879351
 20
6.785427702797782
 10
6.772513998879351
 20
6.822928720050387
 10
6.772513998879351
 20
6.864595386717054
 10
6.780846993128483
 20
6.899593962563407
 10
6.798347128762164
 20
6.926261239581637
 10
6.815013964970931
 20
6.952928516599866
 10
6.839180496003917
 20
6.971261103947957
 10
6.870847569571625
 20
6.982927295896741
 10
6.805013524161469
 20
7.027094708548651
 10
6.772513998879351
 20
7.085427363713582
 10
6.772513998879351
 20
7.15709450509813
 10
6.772513998879351
 20
7.213762256834241
 10
6.787514236238292
 20
7.257095522350734
 10
6.818347162670583
 20
7.287094301647609
 10
6.850014236238292
 20
7.317094776365491
 10
6.897513998879351
 20
7.332094166013929
 10
6.961680597729177
 20
7.332094166013929
 10
6.961680597729177
 20
7.332094166013929
 10
7.349180936813379
 20
7.332094166013929
 10
7.349180936813379
 20
7.332094166013929
 10
7.349180936813379
 20
7.332094166013929
 10
7.349180936813379
 20
7.236262189017401
 10
7.349180936813379
 20
7.236262189017401
 10
7.349180936813379
 20
7.236262189017401
 10
6.993346823586382
 20
7.236262189017401
 10
6.993346823586382
 20
7.236262189017401
 10
6.955014202329872
 20
7.236262189017401
 10
6.92751362588673
 20
7.233761443032157
 10
6.910846789677962
 20
7.227095047632852
 10
6.894180801179699
 20
7.221261103947957
 10
6.880013863245671
 20
7.209594911999172
 10
6.870014270146712
 20
7.193761375215317
 10
6.86001382933725
 20
7.177095386717054
 10
6.855014032787771
 20
7.157928652233547
 10
6.855014032787771
 20
7.136261171764797
 10
6.855014032787771
 20
7.096261103947957
 10
6.867513524161469
 20
7.062927431530422
 10
6.894180801179699
 20
7.037094301647609
 10
6.920847230487424
 20
7.010428720050387
 10
6.96251389715409
 20
6.997094233830769
 10
7.020847400029524
 20
6.997094233830769
 10
7.020847400029524
 20
6.997094233830769
 10
7.349180936813379
 20
6.997094233830769
 10
7.349180936813379
 20
6.997094233830769
 10
7.349180936813379
 20
6.997094233830769
 10
7.349180936813379
 20
6.901262256834241
 10
7.349180936813379
 20
6.901262256834241
 10
7.349180936813379
 20
6.901262256834241
 10
6.982513931062511
 20
6.901262256834241
 10
6.982513931062511
 20
6.901262256834241
 10
6.940013964970931
 20
6.901262256834241
 10
6.907513591978309
 20
6.893761714299519
 10
6.886680258644976
 20
6.877928177515665
 10
6.86501362588673
 20
6.862928787867227
 10
6.855014032787771
 20
6.837093962563407
 10
6.855014032787771
 20
6.802095386717054
 10
6.855014032787771
 20
6.774593962563407
 10
6.861680428187077
 20
6.750427431530422
 10
6.875847366121105
 20
6.727095047632852
 10
6.890013456344629
 20
6.704595115449692
 10
6.910846789677962
 20
6.687927431530422
 10
6.938347366121105
 20
6.677927838431464
 10
6.965013795428831
 20
6.667094098197089
 10
7.005013863245671
 20
6.662094301647609
 10
7.055846823586382
 20
6.662094301647609
 10
7.055846823586382
 20
6.662094301647609
 10
7.349180936813379
 20
6.662094301647609
 10
7.349180936813379
 20
6.662094301647609
 10
7.349180936813379
 20
6.662094301647609
 10
7.349180936813379
 20
6.566260629230074
 10
7.349180936813379
 20
6.566260629230074
 97
        0
 72
     1
 10
7.349180936813379
 20
6.566260629230074
 11
7.349180936813379
 21
6.566260629230074
 97
        0
 75
     2
 76
     1
 98
        1
 10
0.0
 20
0.0
450
        0
451
        0
460
0.0
461
0.0
452
        0
462
0.0
453
        0
470

  0
SPLINE
  5
C4
330
70
100
AcDbEntity
  8
Layer 1
100
AcDbSpline
210
0.0
220
0.0
230
1.0
 70
    11
 71
     3
 72
    89
 73
    85
 74
     0
 42
0.0000000001
 43
0.0000000001
 40
0.0
 40
0.0
 40
0.0
 40
0.0
 40
1.0
 40
1.0
 40
1.0
 40
2.0
 40
2.0
 40
2.0
 40
3.0
 40
3.0
 40
3.0
 40
4.0
 40
4.0
 40
4.0
 40
5.0
 40
5.0
 40
5.0
 40
6.0
 40
6.0
 40
6.0
 40
7.0
 40
7.0
 40
7.0
 40
8.0
 40
8.0
 40
8.0
 40
9.0
 40
9.0
 40
9.0
 40
10.0
 40
10.0
 40
10.0
 40
11.0
 40
11.0
 40
11.0
 40
12.0
 40
12.0
 40
12.0
 40
13.0
 40
13.0
 40
13.0
 40
14.0
 40
14.0
 40
14.0
 40
15.0
 40
15.0
 40
15.0
 40
16.0
 40
16.0
 40
16.0
 40
17.0
 40
17.0
 40
17.0
 40
18.0
 40
18.0
 40
18.0
 40
19.0
 40
19.0
 40
19.0
 40
20.0
 40
20.0
 40
20.0
 40
21.0
 40
21.0
 40
21.0
 40
22.0
 40
22.0
 40
22.0
 40
23.0
 40
23.0
 40
23.0
 40
24.0
 40
24.0
 40
24.0
 40
25.0
 40
25.0
 40
25.0
 40
26.0
 40
26.0
 40
26.0
 40
27.0
 40
27.0
 40
27.0
 40
28.0
 40
28.0
 40
28.0
 40
28.0
 10
7.349180936813379
 20
7.477093352211845
 30
0.0
 10
7.349180936813379
 20
7.477093352211845
 30
0.0
 10
6.785013490253049
 20
7.477093352211845
 30
0.0
 10
6.785013490253049
 20
7.477093352211845
 30
0.0
 10
6.785013490253049
 20
7.477093352211845
 30
0.0
 10
6.785013490253049
 20
7.562927431530422
 30
0.0
 10
6.785013490253049
 20
7.562927431530422
 30
0.0
 10
6.785013490253049
 20
7.562927431530422
 30
0.0
 10
6.863347027036903
 20
7.562927431530422
 30
0.0
 10
6.863347027036903
 20
7.562927431530422
 30
0.0
 10
6.835847298304265
 20
7.581260018878512
 30
0.0
 10
6.814180665546018
 20
7.604594098197089
 30
0.0
 10
6.79751382933725
 20
7.633760425779554
 30
0.0
 10
6.780846993128483
 20
7.662926753362019
 30
0.0
 10
6.772513998879351
 20
7.696260425779554
 30
0.0
 10
6.772513998879351
 20
7.733760595321655
 30
0.0
 10
6.772513998879351
 20
7.775427261988321
 30
0.0
 10
6.780846993128483
 20
7.810426685545179
 30
0.0
 10
6.798347128762164
 20
7.837093962563407
 30
0.0
 10
6.815013964970931
 20
7.863760391871133
 30
0.0
 10
6.839180496003917
 20
7.882093826929727
 30
0.0
 10
6.870847569571625
 20
7.893760018878512
 30
0.0
 10
6.805013524161469
 20
7.937927431530422
 30
0.0
 10
6.772513998879351
 20
7.996260086695352
 30
0.0
 10
6.772513998879351
 20
8.0679272280799
 30
0.0
 10
6.772513998879351
 20
8.124594132105508
 30
0.0
 10
6.787514236238292
 20
8.167927397622001
 30
0.0
 10
6.818347162670583
 20
8.197927024629381
 30
0.0
 10
6.850014236238292
 20
8.227927499347263
 30
0.0
 10
6.897513998879351
 20
8.2429268889957
 30
0.0
 10
6.961680597729177
 20
8.2429268889957
 30
0.0
 10
6.961680597729177
 20
8.2429268889957
 30
0.0
 10
7.349180936813379
 20
8.2429268889957
 30
0.0
 10
7.349180936813379
 20
8.2429268889957
 30
0.0
 10
7.349180936813379
 20
8.2429268889957
 30
0.0
 10
7.349180936813379
 20
8.147094064288669
 30
0.0
 10
7.349180936813379
 20
8.147094064288669
 30
0.0
 10
7.349180936813379
 20
8.147094064288669
 30
0.0
 10
6.993346823586382
 20
8.147094064288669
 30
0.0
 10
6.993346823586382
 20
8.147094064288669
 30
0.0
 10
6.955014202329872
 20
8.147094064288669
 30
0.0
 10
6.92751362588673
 20
8.144594166013929
 30
0.0
 10
6.910846789677962
 20
8.137926922904119
 30
0.0
 10
6.894180801179699
 20
8.132093826929727
 30
0.0
 10
6.880013863245671
 20
8.120426787270439
 30
0.0
 10
6.870014270146712
 20
8.104594098197088
 30
0.0
 10
6.86001382933725
 20
8.087927261988321
 30
0.0
 10
6.855014032787771
 20
8.068760527504814
 30
0.0
 10
6.855014032787771
 20
8.047093894746568
 30
0.0
 10
6.855014032787771
 20
8.007093826929727
 30
0.0
 10
6.867513524161469
 20
7.973760154512192
 30
0.0
 10
6.894180801179699
 20
7.94792702462938
 30
0.0
 10
6.920847230487424
 20
7.921260595321655
 30
0.0
 10
6.96251389715409
 20
7.90792695681254
 30
0.0
 10
7.020847400029524
 20
7.90792695681254
 30
0.0
 10
7.020847400029524
 20
7.90792695681254
 30
0.0
 10
7.349180936813379
 20
7.90792695681254
 30
0.0
 10
7.349180936813379
 20
7.90792695681254
 30
0.0
 10
7.349180936813379
 20
7.90792695681254
 30
0.0
 10
7.349180936813379
 20
7.812094132105508
 30
0.0
 10
7.349180936813379
 20
7.812094132105508
 30
0.0
 10
7.349180936813379
 20
7.812094132105508
 30
0.0
 10
6.982513931062511
 20
7.812094132105508
 30
0.0
 10
6.982513931062511
 20
7.812094132105508
 30
0.0
 10
6.940013964970931
 20
7.812094132105508
 30
0.0
 10
6.907513591978309
 20
7.804593589570786
 30
0.0
 10
6.886680258644976
 20
7.788760052786932
 30
0.0
 10
6.86501362588673
 20
7.773760663138495
 30
0.0
 10
6.855014032787771
 20
7.747926685545179
 30
0.0
 10
6.855014032787771
 20
7.712927261988321
 30
0.0
 10
6.855014032787771
 20
7.685426685545179
 30
0.0
 10
6.861680428187077
 20
7.661260154512192
 30
0.0
 10
6.875847366121105
 20
7.63792692290412
 30
0.0
 10
6.890013456344629
 20
7.61542699072096
 30
0.0
 10
6.910846789677962
 20
7.598760154512192
 30
0.0
 10
6.938347366121105
 20
7.588760561413234
 30
0.0
 10
6.965013795428831
 20
7.577926821178859
 30
0.0
 10
7.005013863245671
 20
7.57292702462938
 30
0.0
 10
7.055846823586382
 20
7.57292702462938
 30
0.0
 10
7.055846823586382
 20
7.57292702462938
 30
0.0
 10
7.349180936813379
 20
7.57292702462938
 30
0.0
 10
7.349180936813379
 20
7.57292702462938
 30
0.0
 10
7.349180936813379
 20
7.57292702462938
 30
0.0
 10
7.349180936813379
 20
7.477093352211845
 30
0.0
 10
7.349180936813379
 20
7.477093352211845
 30
0.0
  0
HATCH
  5
C5
330
70
100
AcDbEntity
  8
Layer 1
 62
    18
420
        0
440
 33554687
100
AcDbHatch
 10
0.0
 20
0.0
 30
0.0
210
0.0
220
0.0
230
1.0
  2
SOLID
 70
     1
 71
     1
 91
        1
 92
        1
 93
        2
 72
     4
 94
        3
 73
     0
 74
     0
 95
       89
 96
       85
 40
0.0
 40
0.0
 40
0.0
 40
0.0
 40
1.0
 40
1.0
 40
1.0
 40
2.0
 40
2.0
 40
2.0
 40
3.0
 40
3.0
 40
3.0
 40
4.0
 40
4.0
 40
4.0
 40
5.0
 40
5.0
 40
5.0
 40
6.0
 40
6.0
 40
6.0
 40
7.0
 40
7.0
 40
7.0
 40
8.0
 40
8.0
 40
8.0
 40
9.0
 40
9.0
 40
9.0
 40
10.0
 40
10.0
 40
10.0
 40
11.0
 40
11.0
 40
11.0
 40
12.0
 40
12.0
 40
12.0
 40
13.0
 40
13.0
 40
13.0
 40
14.0
 40
14.0
 40
14.0
 40
15.0
 40
15.0
 40
15.0
 40
16.0
 40
16.0
 40
16.0
 40
17.0
 40
17.0
 40
17.0
 40
18.0
 40
18.0
 40
18.0
 40
19.0
 40
19.0
 40
19.0
 40
20.0
 40
20.0
 40
20.0
 40
21.0
 40
21.0
 40
21.0
 40
22.0
 40
22.0
 40
22.0
 40
23.0
 40
23.0
 40
23.0
 40
24.0
 40
24.0
 40
24.0
 40
25.0
 40
25.0
 40
25.0
 40
26.0
 40
26.0
 40
26.0
 40
27.0
 40
27.0
 40
27.0
 40
28.0
 40
28.0
 40
28.0
 40
28.0
 10
7.349180936813379
 20
7.477093352211845
 10
7.349180936813379
 20
7.477093352211845
 10
6.785013490253049
 20
7.477093352211845
 10
6.785013490253049
 20
7.477093352211845
 10
6.785013490253049
 20
7.477093352211845
 10
6.785013490253049
 20
7.562927431530422
 10
6.785013490253049
 20
7.562927431530422
 10
6.785013490253049
 20
7.562927431530422
 10
6.863347027036903
 20
7.562927431530422
 10
6.863347027036903
 20
7.562927431530422
 10
6.835847298304265
 20
7.581260018878512
 10
6.814180665546018
 20
7.604594098197089
 10
6.79751382933725
 20
7.633760425779554
 10
6.780846993128483
 20
7.662926753362019
 10
6.772513998879351
 20
7.696260425779554
 10
6.772513998879351
 20
7.733760595321655
 10
6.772513998879351
 20
7.775427261988321
 10
6.780846993128483
 20
7.810426685545179
 10
6.798347128762164
 20
7.837093962563407
 10
6.815013964970931
 20
7.863760391871133
 10
6.839180496003917
 20
7.882093826929727
 10
6.870847569571625
 20
7.893760018878512
 10
6.805013524161469
 20
7.937927431530422
 10
6.772513998879351
 20
7.996260086695352
 10
6.772513998879351
 20
8.0679272280799
 10
6.772513998879351
 20
8.124594132105508
 10
6.787514236238292
 20
8.167927397622001
 10
6.818347162670583
 20
8.197927024629381
 10
6.850014236238292
 20
8.227927499347263
 10
6.897513998879351
 20
8.2429268889957
 10
6.961680597729177
 20
8.2429268889957
 10
6.961680597729177
 20
8.2429268889957
 10
7.349180936813379
 20
8.2429268889957
 10
7.349180936813379
 20
8.2429268889957
 10
7.349180936813379
 20
8.2429268889957
 10
7.349180936813379
 20
8.147094064288669
 10
7.349180936813379
 20
8.147094064288669
 10
7.349180936813379
 20
8.147094064288669
 10
6.993346823586382
 20
8.147094064288669
 10
6.993346823586382
 20
8.147094064288669
 10
6.955014202329872
 20
8.147094064288669
 10
6.92751362588673
 20
8.144594166013929
 10
6.910846789677962
 20
8.137926922904119
 10
6.894180801179699
 20
8.132093826929727
 10
6.880013863245671
 20
8.120426787270439
 10
6.870014270146712
 20
8.104594098197088
 10
6.86001382933725
 20
8.087927261988321
 10
6.855014032787771
 20
8.068760527504814
 10
6.855014032787771
 20
8.047093894746568
 10
6.855014032787771
 20
8.007093826929727
 10
6.867513524161469
 20
7.973760154512192
 10
6.894180801179699
 20
7.94792702462938
 10
6.920847230487424
 20
7.921260595321655
 10
6.96251389715409
 20
7.90792695681254
 10
7.020847400029524
 20
7.90792695681254
 10
7.020847400029524
 20
7.90792695681254
 10
7.349180936813379
 20
7.90792695681254
 10
7.349180936813379
 20
7.90792695681254
 10
7.349180936813379
 20
7.90792695681254
 10
7.349180936813379
 20
7.812094132105508
 10
7.349180936813379
 20
7.812094132105508
 10
7.349180936813379
 20
7.812094132105508
 10
6.982513931062511
 20
7.812094132105508
 10
6.982513931062511
 20
7.812094132105508
 10
6.940013964970931
 20
7.812094132105508
 10
6.907513591978309
 20
7.804593589570786
 10
6.886680258644976
 20
7.788760052786932
 10
6.86501362588673
 20
7.773760663138495
 10
6.855014032787771
 20
7.747926685545179
 10
6.855014032787771
 20
7.712927261988321
 10
6.855014032787771
 20
7.685426685545179
 10
6.861680428187077
 20
7.661260154512192
 10
6.875847366121105
 20
7.63792692290412
 10
6.890013456344629
 20
7.61542699072096
 10
6.910846789677962
 20
7.598760154512192
 10
6.938347366121105
 20
7.588760561413234
 10
6.965013795428831
 20
7.577926821178859
 10
7.005013863245671
 20
7.57292702462938
 10
7.055846823586382
 20
7.57292702462938
 10
7.055846823586382
 20
7.57292702462938
 10
7.349180936813379
 20
7.57292702462938
 10
7.349180936813379
 20
7.57292702462938
 10
7.349180936813379
 20
7.57292702462938
 10
7.349180936813379
 20
7.477093352211845
 10
7.349180936813379
 20
7.477093352211845
 97
        0
 72
     1
 10
7.349180936813379
 20
7.477093352211845
 11
7.349180936813379
 21
7.477093352211845
 97
        0
 75
     2
 76
     1
 98
        1
 10
0.0
 20
0.0
450
        0
451
        0
460
0.0
461
0.0
452
        0
462
0.0
453
        0
470

  0
MTEXT
  5
C6
330
70
100
AcDbEntity
  8
Layer 1
100
AcDbMText
 10
3.066680060492621
 20
9.751259909735784
 30
0.0
 40
0.2
 41
0.0
 46
0.0
 71
     7
 72
     1
  1
\C18;\c0;\FArial|b0|i0|c1;\H0.769456;\W1.000000;340mm
 73
     1
 44
1.0
  0
MTEXT
  5
C7
330
70
100
AcDbEntity
  8
Layer 1
100
AcDbMText
 10
7.37422858344184
 20
18.34461551242404
 30
0.0
 40
0.2
 41
0.0
 46
0.0
 71
     7
 72
     1
  1
\C18;\c0;\FArial|b0|i0|c1;\H0.769456;\W1.000000;115mm
 73
     1
 44
1.0
  0
INSERT
  5
CA
330
70
100
AcDbEntity
  8
Layer 2
100
AcDbBlockReference
  2
Block_1
 10
0.0
 20
0.0
 30
0.0
  0
MTEXT
  5
FF
330
70
100
AcDbEntity
  8
Layer 2
100
AcDbMText
 10
16.10379611121284
 20
-0.3245027330186632
 30
0.0
 40
0.2
 41
0.0
 46
0.0
 71
     7
 72
     1
  1
\C250;\c1382435;\FHelvetica Neue LT Pro 77 Bold Condensed|b1|i0|c1;\H0.145675;\W1.000000;NOTE\FHelvetica Neue LT Pro 65 Medium|b0|i0|c1;: Due to the slight variations in the manufacture process it is
 73
     1
 44
1.0
  0
MTEXT
  5
100
330
70
100
AcDbEntity
  8
Layer 2
100
AcDbMText
 10
16.10379611121284
 20
-0.5714102851019966
 30
0.0
 40
0.2
 41
0.0
 46
0.0
 71
     7
 72
     1
  1
\C250;\c1382435;\FHelvetica Neue LT Pro 65 Medium|b0|i0|c1;\H0.145675;\W1.000000;recommended the installer use the template for cutting out the countertop.
 73
     1
 44
1.0
  0
MTEXT
  5
101
330
70
100
AcDbEntity
  8
Layer 2
100
AcDbMText
 10
-0.7157643636067708
 20
-0.3833948771158853
 30
0.0
 40
0.2
 41
0.0
 46
0.0
 71
     7
 72
     1
  1
\C18;\c0;\FEffra Italic|b0|i1|c1;\H0.338650;\W1.000000;SHV200WH
 73
     1
 44
1.0
  0
ENDSEC
  0
SECTION
  2
OBJECTS
  0
DICTIONARY
  5
C
330
0
100
AcDbDictionary
281
     1
  3
ACAD_COLOR
350
63
  3
ACAD_DETAILVIEWSTYLE
350
6A
  3
ACAD_GROUP
350
D
  3
ACAD_LAYOUT
350
62
  3
ACAD_MATERIAL
350
10
  3
ACAD_MLEADERSTYLE
350
66
  3
ACAD_MLINESTYLE
350
5F
  3
ACAD_PLOTSETTINGS
350
61
  3
ACAD_PLOTSTYLENAME
350
E
  3
ACAD_SCALELIST
350
42
  3
ACAD_SECTIONVIEWSTYLE
350
68
  3
ACAD_TABLESTYLE
350
64
  3
ACAD_VISUALSTYLE
350
29
  3
ACDB_RECOMPOSE_DATA
350
10A
  3
AcDbVariableDictionary
350
102
  0
DICTIONARY
  5
63
102
{ACAD_REACTORS
330
C
102
}
330
C
100
AcDbDictionary
281
     1
  0
DICTIONARY
  5
6A
102
{ACAD_REACTORS
330
C
102
}
330
C
100
AcDbDictionary
281
     1
  3
Imperial24
350
6B
  0
DICTIONARY
  5
D
102
{ACAD_REACTORS
330
C
102
}
330
C
100
AcDbDictionary
281
     1
  0
DICTIONARY
  5
62
102
{ACAD_REACTORS
330
C
102
}
330
C
100
AcDbDictionary
281
     1
  3
Layout1
350
6F
  3
Layout2
350
77
  3
Model
350
73
  0
DICTIONARY
  5
10
102
{ACAD_REACTORS
330
C
102
}
330
C
100
AcDbDictionary
281
     1
  3
ByBlock
350
19
  3
ByLayer
350
11
  3
Global
350
21
  0
DICTIONARY
  5
66
102
{ACAD_REACTORS
330
C
102
}
330
C
100
AcDbDictionary
281
     1
  3
Standard
350
67
  0
DICTIONARY
  5
5F
102
{ACAD_REACTORS
330
C
102
}
330
C
100
AcDbDictionary
281
     1
  3
Standard
350
60
  0
DICTIONARY
  5
61
102
{ACAD_REACTORS
330
C
102
}
330
C
100
AcDbDictionary
281
     1
  0
ACDBDICTIONARYWDFLT
  5
E
102
{ACAD_REACTORS
330
C
102
}
330
C
100
AcDbDictionary
281
     1
  3
Normal
350
F
100
AcDbDictionaryWithDefault
340
F
  0
DICTIONARY
  5
42
102
{ACAD_REACTORS
330
C
102
}
330
C
100
AcDbDictionary
281
     1
  3
A0
350
43
  3
A1
350
44
  3
A2
350
45
  3
A3
350
46
  3
A4
350
47
  3
A5
350
48
  3
A6
350
49
  3
A7
350
4A
  3
A8
350
4B
  3
A9
350
4C
  3
B0
350
4D
  3
B1
350
4E
  3
B2
350
4F
  3
B3
350
50
  3
B4
350
51
  3
B5
350
52
  3
B6
350
53
  0
DICTIONARY
  5
68
102
{ACAD_REACTORS
330
C
102
}
330
C
100
AcDbDictionary
281
     1
  3
Imperial24
350
69
  0
DICTIONARY
  5
64
102
{ACAD_REACTORS
330
C
102
}
330
C
100
AcDbDictionary
281
     1
  3
Standard
350
65
  0
DICTIONARY
  5
29
102
{ACAD_REACTORS
330
C
102
}
330
C
100
AcDbDictionary
281
     1
  3
2dWireframe
350
2F
  3
Basic
350
2E
  3
Brighten
350
35
  3
ColorChange
350
39
  3
Conceptual
350
32
  3
Dim
350
34
  3
EdgeColorOff
350
41
  3
Facepattern
350
38
  3
Flat
350
2A
  3
FlatWithEdges
350
2B
  3
Gouraud
350
2C
  3
GouraudWithEdges
350
2D
  3
Hidden
350
31
  3
JitterOff
350
3F
  3
Linepattern
350
37
  3
OverhangOff
350
40
  3
Realistic
350
33
  3
Shaded
350
3E
  3
Shaded with edges
350
3D
  3
Shades of Gray
350
3A
  3
Sketchy
350
3B
  3
Thicken
350
36
  3
Wireframe
350
30
  3
X-Ray
350
3C
  0
XRECORD
  5
10A
102
{ACAD_REACTORS
330
C
102
}
330
C
100
AcDbXrecord
280
     1
 90
        1
330
65
  0
DICTIONARY
  5
102
102
{ACAD_REACTORS
330
C
102
}
330
C
100
AcDbDictionary
281
     1
  3
CANNOSCALE
350
107
  3
CMLEADERSTYLE
350
104
  3
CTABLESTYLE
350
103
  3
CVIEWDETAILSTYLE
350
105
  3
CVIEWSECTIONSTYLE
350
106
  0
ACDBDETAILVIEWSTYLE
  5
6B
102
{ACAD_REACTORS
330
6A
102
}
330
6A
100
AcDbModelDocViewStyle
 70
     0
  3
Imperial24
290
     1
300
Imperial24
 90
        0
100
AcDbDetailViewStyle
 70
     0
 71
     0
 90
        3
 71
     1
340
55
 62
   256
 40
0.24
340
0
 62
   256
 40
0.24
300

 40
0.36
280
     3
 71
     2
340
5D
 90
       25
 62
   256
 71
     3
340
55
 62
   256
 40
0.24
 90
        1
 40
0.75
 90
        1
300
%<\AcVar ViewType \f "%tc1">% %<\AcVar ViewDetailId>%\PSCALE %<\AcVar ViewScale \f "%sn">%
 71
     4
340
5D
 90
       25
 62
   256
340
5D
 90
       25
 62
   256
280
     0
  0
LAYOUT
  5
6F
102
{ACAD_REACTORS
330
62
102
}
330
62
100
AcDbPlotSettings
  1

  2

  4

  6

 40
0.0
 41
0.0
 42
0.0
 43
0.0
 44
0.0
 45
0.0
 46
0.0
 47
0.0
 48
0.0
 49
0.0
140
0.0
141
0.0
142
1.0
143
1.0
 70
   688
 72
     0
 73
     0
 74
     5
  7

 75
    16
147
1.0
 76
     0
 77
     2
 78
   300
148
0.0
149
0.0
100
AcDbLayout
  1
Layout1
 70
     1
 71
     1
 10
0.0
 20
0.0
 11
12.0
 21
9.0
 12
0.0
 22
0.0
 32
0.0
 14
0.0
 24
0.0
 34
0.0
 15
0.0
 25
0.0
 35
0.0
146
0.0
 13
0.0
 23
0.0
 33
0.0
 16
1.0
 26
0.0
 36
0.0
 17
0.0
 27
1.0
 37
0.0
 76
     0
330
6C
  0
LAYOUT
  5
77
102
{ACAD_REACTORS
330
62
102
}
330
62
100
AcDbPlotSettings
  1

  2

  4

  6

 40
0.0
 41
0.0
 42
0.0
 43
0.0
 44
0.0
 45
0.0
 46
0.0
 47
0.0
 48
0.0
 49
0.0
140
0.0
141
0.0
142
1.0
143
1.0
 70
   688
 72
     0
 73
     0
 74
     5
  7

 75
    16
147
1.0
 76
     0
 77
     2
 78
   300
148
0.0
149
0.0
100
AcDbLayout
  1
Layout2
 70
     1
 71
     2
 10
0.0
 20
0.0
 11
12.0
 21
9.0
 12
0.0
 22
0.0
 32
0.0
 14
0.0
 24
0.0
 34
0.0
 15
0.0
 25
0.0
 35
0.0
146
0.0
 13
0.0
 23
0.0
 33
0.0
 16
1.0
 26
0.0
 36
0.0
 17
0.0
 27
1.0
 37
0.0
 76
     0
330
74
  0
LAYOUT
  5
73
102
{ACAD_REACTORS
330
62
102
}
330
62
100
AcDbPlotSettings
  1

  2

  4

  6

 40
0.0
 41
0.0
 42
0.0
 43
0.0
 44
0.0
 45
0.0
 46
0.0
 47
0.0
 48
0.0
 49
0.0
140
0.0
141
0.0
142
1.0
143
1.0
 70
  1712
 72
     0
 73
     0
 74
     0
  7

 75
     0
147
1.0
 76
     0
 77
     2
 78
   300
148
0.0
149
0.0
100
AcDbLayout
  1
Model
 70
     1
 71
     0
 10
0.0
 20
0.0
 11
12.0
 21
9.0
 12
0.0
 22
0.0
 32
0.0
 14
0.0
 24
0.0
 34
0.0
 15
0.0
 25
0.0
 35
0.0
146
0.0
 13
0.0
 23
0.0
 33
0.0
 16
1.0
 26
0.0
 36
0.0
 17
0.0
 27
1.0
 37
0.0
 76
     0
330
70
  0
MATERIAL
  5
19
102
{ACAD_XDICTIONARY
360
1A
102
}
102
{ACAD_REACTORS
330
10
102
}
330
10
100
AcDbMaterial
  1
ByBlock
 72
     0
 43
0.0208333333333333
 43
0.0
 43
0.0
 43
0.0
 43
0.0
 43
0.0208333333333333
 43
0.0
 43
0.0
 43
0.0
 43
0.0
 43
1.0
 43
0.0
 43
0.0
 43
0.0
 43
0.0
 43
1.0
 77
     0
 47
0.0208333333333333
 47
0.0
 47
0.0
 47
0.0
 47
0.0
 47
0.0208333333333333
 47
0.0
 47
0.0
 47
0.0
 47
0.0
 47
1.0
 47
0.0
 47
0.0
 47
0.0
 47
0.0
 47
1.0
171
     0
 49
0.0208333333333333
 49
0.0
 49
0.0
 49
0.0
 49
0.0
 49
0.0208333333333333
 49
0.0
 49
0.0
 49
0.0
 49
0.0
 49
1.0
 49
0.0
 49
0.0
 49
0.0
 49
0.0
 49
1.0
175
     0
142
0.0208333333333333
142
0.0
142
0.0
142
0.0
142
0.0
142
0.0208333333333333
142
0.0
142
0.0
142
0.0
142
0.0
142
1.0
142
0.0
142
0.0
142
0.0
142
0.0
142
1.0
179
     0
144
0.0208333333333333
144
0.0
144
0.0
144
0.0
144
0.0
144
0.0208333333333333
144
0.0
144
0.0
144
0.0
144
0.0
144
1.0
144
0.0
144
0.0
144
0.0
144
0.0
144
1.0
147
0.0208333333333333
147
0.0
147
0.0
147
0.0
147
0.0
147
0.0208333333333333
147
0.0
147
0.0
147
0.0
147
0.0
147
1.0
147
0.0
147
0.0
147
0.0
147
0.0
147
1.0
  0
MATERIAL
  5
11
102
{ACAD_XDICTIONARY
360
12
102
}
102
{ACAD_REACTORS
330
10
102
}
330
10
100
AcDbMaterial
  1
ByLayer
 72
     0
 43
0.0208333333333333
 43
0.0
 43
0.0
 43
0.0
 43
0.0
 43
0.0208333333333333
 43
0.0
 43
0.0
 43
0.0
 43
0.0
 43
1.0
 43
0.0
 43
0.0
 43
0.0
 43
0.0
 43
1.0
 77
     0
 47
0.0208333333333333
 47
0.0
 47
0.0
 47
0.0
 47
0.0
 47
0.0208333333333333
 47
0.0
 47
0.0
 47
0.0
 47
0.0
 47
1.0
 47
0.0
 47
0.0
 47
0.0
 47
0.0
 47
1.0
171
     0
 49
0.0208333333333333
 49
0.0
 49
0.0
 49
0.0
 49
0.0
 49
0.0208333333333333
 49
0.0
 49
0.0
 49
0.0
 49
0.0
 49
1.0
 49
0.0
 49
0.0
 49
0.0
 49
0.0
 49
1.0
175
     0
142
0.0208333333333333
142
0.0
142
0.0
142
0.0
142
0.0
142
0.0208333333333333
142
0.0
142
0.0
142
0.0
142
0.0
142
1.0
142
0.0
142
0.0
142
0.0
142
0.0
142
1.0
179
     0
144
0.0208333333333333
144
0.0
144
0.0
144
0.0
144
0.0
144
0.0208333333333333
144
0.0
144
0.0
144
0.0
144
0.0
144
1.0
144
0.0
144
0.0
144
0.0
144
0.0
144
1.0
147
0.0208333333333333
147
0.0
147
0.0
147
0.0
147
0.0
147
0.0208333333333333
147
0.0
147
0.0
147
0.0
147
0.0
147
1.0
147
0.0
147
0.0
147
0.0
147
0.0
147
1.0
  0
MATERIAL
  5
21
102
{ACAD_XDICTIONARY
360
22
102
}
102
{ACAD_REACTORS
330
10
102
}
330
10
100
AcDbMaterial
  1
Global
 72
     0
 43
0.0208333333333333
 43
0.0
 43
0.0
 43
0.0
 43
0.0
 43
0.0208333333333333
 43
0.0
 43
0.0
 43
0.0
 43
0.0
 43
1.0
 43
0.0
 43
0.0
 43
0.0
 43
0.0
 43
1.0
 77
     0
 47
0.0208333333333333
 47
0.0
 47
0.0
 47
0.0
 47
0.0
 47
0.0208333333333333
 47
0.0
 47
0.0
 47
0.0
 47
0.0
 47
1.0
 47
0.0
 47
0.0
 47
0.0
 47
0.0
 47
1.0
171
     0
 49
0.0208333333333333
 49
0.0
 49
0.0
 49
0.0
 49
0.0
 49
0.0208333333333333
 49
0.0
 49
0.0
 49
0.0
 49
0.0
 49
1.0
 49
0.0
 49
0.0
 49
0.0
 49
0.0
 49
1.0
175
     0
142
0.0208333333333333
142
0.0
142
0.0
142
0.0
142
0.0
142
0.0208333333333333
142
0.0
142
0.0
142
0.0
142
0.0
142
1.0
142
0.0
142
0.0
142
0.0
142
0.0
142
1.0
179
     0
144
0.0208333333333333
144
0.0
144
0.0
144
0.0
144
0.0
144
0.0208333333333333
144
0.0
144
0.0
144
0.0
144
0.0
144
1.0
144
0.0
144
0.0
144
0.0
144
0.0
144
1.0
147
0.0208333333333333
147
0.0
147
0.0
147
0.0
147
0.0
147
0.0208333333333333
147
0.0
147
0.0
147
0.0
147
0.0
147
1.0
147
0.0
147
0.0
147
0.0
147
0.0
147
1.0
  0
MLEADERSTYLE
  5
67
102
{ACAD_REACTORS
330
66
102
}
330
66
100
AcDbMLeaderStyle
179
     2
170
     2
171
     1
172
     0
 90
        2
 40
0.0
 41
0.0
173
     1
 91
-1056964608
340
5B
 92
       -2
290
     1
 42
0.09
291
     1
 43
0.36
  3
Standard
 44
0.18
300

342
55
174
     1
178
     6
175
     1
176
     0
 93
-1056964608
 45
0.18
292
     0
297
     0
 46
0.18
 94
-1056964608
 47
1.0
 49
1.0
140
1.0
293
     1
141
0.0
294
     1
177
     0
142
1.0
295
     1
296
     0
143
0.125
271
     0
272
     9
273
     9
298
     1
  0
MLINESTYLE
  5
60
102
{ACAD_REACTORS
330
5F
102
}
330
5F
100
AcDbMlineStyle
  2
STANDARD
 70
     0
  3

 62
   256
 51
90.0
 52
90.0
 71
     2
 49
0.5
 62
   256
  6
BYLAYER
 49
-0.5
 62
   256
  6
BYLAYER
  0
ACDBPLACEHOLDER
  5
F
102
{ACAD_REACTORS
330
E
102
}
330
E
  0
SCALE
  5
43
102
{ACAD_REACTORS
330
42
102
}
330
42
100
AcDbScale
 70
     0
300
1:1
140
1.0
141
1.0
290
     1
  0
SCALE
  5
44
102
{ACAD_REACTORS
330
42
102
}
330
42
100
AcDbScale
 70
     0
300
1/128" = 1'-0"
140
0.0078125
141
12.0
290
     0
  0
SCALE
  5
45
102
{ACAD_REACTORS
330
42
102
}
330
42
100
AcDbScale
 70
     0
300
1/64" = 1'-0"
140
0.015625
141
12.0
290
     0
  0
SCALE
  5
46
102
{ACAD_REACTORS
330
42
102
}
330
42
100
AcDbScale
 70
     0
300
1/32" = 1'-0"
140
0.03125
141
12.0
290
     0
  0
SCALE
  5
47
102
{ACAD_REACTORS
330
42
102
}
330
42
100
AcDbScale
 70
     0
300
1/16" = 1'-0"
140
0.0625
141
12.0
290
     0
  0
SCALE
  5
48
102
{ACAD_REACTORS
330
42
102
}
330
42
100
AcDbScale
 70
     0
300
3/32" = 1'-0"
140
0.09375
141
12.0
290
     0
  0
SCALE
  5
49
102
{ACAD_REACTORS
330
42
102
}
330
42
100
AcDbScale
 70
     0
300
1/8" = 1'-0"
140
0.125
141
12.0
290
     0
  0
SCALE
  5
4A
102
{ACAD_REACTORS
330
42
102
}
330
42
100
AcDbScale
 70
     0
300
3/16" = 1'-0"
140
0.1875
141
12.0
290
     0
  0
SCALE
  5
4B
102
{ACAD_REACTORS
330
42
102
}
330
42
100
AcDbScale
 70
     0
300
1/4" = 1'-0"
140
0.25
141
12.0
290
     0
  0
SCALE
  5
4C
102
{ACAD_REACTORS
330
42
102
}
330
42
100
AcDbScale
 70
     0
300
3/8" = 1'-0"
140
0.375
141
12.0
290
     0
  0
SCALE
  5
4D
102
{ACAD_REACTORS
330
42
102
}
330
42
100
AcDbScale
 70
     0
300
1/2" = 1'-0"
140
0.5
141
12.0
290
     0
  0
SCALE
  5
4E
102
{ACAD_REACTORS
330
42
102
}
330
42
100
AcDbScale
 70
     0
300
3/4" = 1'-0"
140
0.75
141
12.0
290
     0
  0
SCALE
  5
4F
102
{ACAD_REACTORS
330
42
102
}
330
42
100
AcDbScale
 70
     0
300
1" = 1'-0"
140
1.0
141
12.0
290
     0
  0
SCALE
  5
50
102
{ACAD_REACTORS
330
42
102
}
330
42
100
AcDbScale
 70
     0
300
1-1/2" = 1'-0"
140
1.5
141
12.0
290
     0
  0
SCALE
  5
51
102
{ACAD_REACTORS
330
42
102
}
330
42
100
AcDbScale
 70
     0
300
3" = 1'-0"
140
3.0
141
12.0
290
     0
  0
SCALE
  5
52
102
{ACAD_REACTORS
330
42
102
}
330
42
100
AcDbScale
 70
     0
300
6" = 1'-0"
140
6.0
141
12.0
290
     0
  0
SCALE
  5
53
102
{ACAD_REACTORS
330
42
102
}
330
42
100
AcDbScale
 70
     0
300
1'-0" = 1'-0"
140
12.0
141
12.0
290
     0
  0
ACDBSECTIONVIEWSTYLE
  5
69
102
{ACAD_REACTORS
330
68
102
}
330
68
100
AcDbModelDocViewStyle
 70
     0
  3
Imperial24
290
     1
300
Imperial24
 90
        0
100
AcDbSectionViewStyle
 70
     0
 71
     0
 90
       78
 71
     1
340
55
 62
   256
 40
0.24
340
0
340
0
 62
   256
 40
0.24
300
I, O, Q, S, X, Z
 40
0.48
 90
        3
 40
0.18
 90
        1
 71
     2
340
5D
 90
       25
 62
   256
340
5D
 90
       50
 62
   256
 40
0.24
 40
0.0
 40
0.24
 71
     3
340
55
 62
   256
 40
0.24
 90
        1
 40
0.75
 90
        1
300
%<\AcVar ViewType \f "%tc1">% %<\AcVar ViewSectionStartId>%-%<\AcVar ViewSectionEndId>%\PSCALE %<\AcVar ViewScale \f "%sn">%
 71
     4
 62
   256
 62
   257
300
ANSI31
 40
1.0
 90
        0
290
     0
290
     0
 90
        6
 40
0.0
 40
1.570796326794896
 40
0.2617993877991494
 40
1.308996938995747
 40
-0.2617993877991494
 40
1.832595714594046
  0
TABLESTYLE
  5
65
102
{ACAD_XDICTIONARY
360
108
102
}
102
{ACAD_REACTORS
330
64
102
}
330
64
100
AcDbTableStyle
280
     0
  3
Standard
 70
     0
 71
     0
 40
0.06
 41
0.06
280
     0
281
     0
  7
Standard
140
0.18
170
     2
 62
     0
 63
     7
283
     0
 90
      512
 91
        0
  1

274
    -2
284
     1
 64
     0
275
    -2
285
     1
 65
     0
276
    -2
286
     1
 66
     0
277
    -2
287
     1
 67
     0
278
    -2
288
     1
 68
     0
279
    -2
289
     1
 69
     0
  7
Standard
140
0.25
170
     5
 62
     0
 63
     7
283
     0
 90
      512
 91
        0
  1

274
    -2
284
     1
 64
     0
275
    -2
285
     1
 65
     0
276
    -2
286
     1
 66
     0
277
    -2
287
     1
 67
     0
278
    -2
288
     1
 68
     0
279
    -2
289
     1
 69
     0
  7
Standard
140
0.18
170
     5
 62
     0
 63
     7
283
     0
 90
      512
 91
        0
  1

274
    -2
284
     1
 64
     0
275
    -2
285
     1
 65
     0
276
    -2
286
     1
 66
     0
277
    -2
287
     1
 67
     0
278
    -2
288
     1
 68
     0
279
    -2
289
     1
 69
     0
  0
VISUALSTYLE
  5
2F
102
{ACAD_REACTORS
330
29
102
}
330
29
100
AcDbVisualStyle
  2
2dWireframe
 70
     4
177
     3
291
     0
 70
    58
 90
        0
176
     1
 90
        2
176
     1
 90
        0
176
     1
 90
        0
176
     1
 40
0.6
176
     1
 40
30.0
176
     1
 62
     7
420
 16777215
176
     1
 90
        1
176
     1
 90
        4
176
     1
 62
     7
176
     1
 62
   257
176
     1
 90
        1
176
     1
 90
        1
176
     1
 40
1.0
176
     1
 90
        0
176
     1
 62
   257
176
     1
 40
1.0
176
     1
 90
        1
176
     1
 90
        6
176
     1
 90
        2
176
     1
 62
     7
176
     1
 90
        5
176
     1
 90
        0
176
     1
 90
        0
176
     1
290
     0
176
     1
 90
        1
176
     1
 40
0.0
176
     1
 90
        0
176
     1
290
     1
176
     1
290
     1
176
     1
290
     0
176
     1
290
     0
176
     1
290
     0
176
     1
290
     0
176
     1
290
     0
176
     1
290
     0
176
     1
290
     0
176
     1
 90
       50
176
     1
 40
0.0
176
     1
 40
1.0
176
     1
 90
        0
176
     1
 62
    18
420
        0
176
     1
 90
       50
176
     1
 90
        3
176
     1
 62
     5
420
      255
176
     1
290
     0
176
     1
 90
       50
176
     1
 90
       50
176
     1
 90
       50
176
     1
290
     0
176
     1
 90
       50
176
     1
 62
   256
176
     0
 40
1.0
176
     0
 90
        2
176
     1
  1
strokes_ogs.tif
176
     1
290
     0
176
     1
 40
1.0
176
     1
 40
1.0
176
     1
  0
VISUALSTYLE
  5
2E
102
{ACAD_REACTORS
330
29
102
}
330
29
100
AcDbVisualStyle
  2
Basic
 70
     7
177
     3
291
     1
 70
    58
 90
        1
176
     1
 90
        0
176
     1
 90
        1
176
     1
 90
        0
176
     1
 40
0.6
176
     1
 40
30.0
176
     1
 62
     7
420
 16777215
176
     1
 90
        0
176
     1
 90
        4
176
     1
 62
     7
176
     1
 62
   257
176
     1
 90
        1
176
     1
 90
        1
176
     1
 40
1.0
176
     1
 90
        8
176
     1
 62
     7
176
     1
 40
1.0
176
     1
 90
        1
176
     1
 90
        6
176
     1
 90
        2
176
     1
 62
     7
176
     1
 90
        5
176
     1
 90
        0
176
     1
 90
        0
176
     1
290
     0
176
     1
 90
        1
176
     1
 40
0.0
176
     1
 90
        0
176
     1
290
     0
176
     1
290
     1
176
     1
290
     1
176
     1
290
     0
176
     1
290
     0
176
     1
290
     0
176
     1
290
     0
176
     1
290
     0
176
     1
290
     0
176
     1
 90
       50
176
     1
 40
0.0
176
     1
 40
1.0
176
     1
 90
        0
176
     1
 62
    18
420
        0
176
     1
 90
       50
176
     1
 90
        3
176
     1
 62
     5
420
      255
176
     1
290
     0
176
     1
 90
       50
176
     1
 90
       50
176
     1
 90
       50
176
     1
290
     0
176
     1
 90
       50
176
     1
 62
   256
176
     0
 40
1.0
176
     0
 90
        2
176
     1
  1
strokes_ogs.tif
176
     1
290
     0
176
     1
 40
1.0
176
     1
 40
1.0
176
     1
  0
VISUALSTYLE
  5
35
102
{ACAD_REACTORS
330
29
102
}
330
29
100
AcDbVisualStyle
  2
Brighten
 70
    12
177
     3
291
     1
 70
    58
 90
        2
176
     1
 90
        2
176
     1
 90
        0
176
     1
 90
        0
176
     1
 40
0.6
176
     1
 40
30.0
176
     1
 62
     7
420
 16777215
176
     1
 90
        1
176
     1
 90
        4
176
     1
 62
     7
176
     1
 62
   257
176
     1
 90
        1
176
     1
 90
        1
176
     1
 40
1.0
176
     1
 90
        8
176
     1
 62
     7
176
     1
 40
1.0
176
     1
 90
        1
176
     1
 90
        6
176
     1
 90
        2
176
     1
 62
     7
176
     1
 90
        5
176
     1
 90
        0
176
     1
 90
        0
176
     1
290
     0
176
     1
 90
        1
176
     1
 40
50.0
176
     1
 90
        0
176
     1
290
     0
176
     1
290
     1
176
     1
290
     1
176
     1
290
     0
176
     1
290
     0
176
     1
290
     0
176
     1
290
     0
176
     1
290
     0
176
     1
290
     0
176
     1
 90
       50
176
     1
 40
0.0
176
     1
 40
1.0
176
     1
 90
        0
176
     1
 62
    18
420
        0
176
     1
 90
       50
176
     1
 90
        3
176
     1
 62
     5
420
      255
176
     1
290
     0
176
     1
 90
       50
176
     1
 90
       50
176
     1
 90
       50
176
     1
290
     0
176
     1
 90
       50
176
     1
 62
   256
176
     0
 40
1.0
176
     0
 90
        2
176
     1
  1
strokes_ogs.tif
176
     1
290
     0
176
     1
 40
1.0
176
     1
 40
1.0
176
     1
  0
VISUALSTYLE
  5
39
102
{ACAD_REACTORS
330
29
102
}
330
29
100
AcDbVisualStyle
  2
ColorChange
 70
    16
177
     3
291
     1
 70
    58
 90
        2
176
     1
 90
        2
176
     1
 90
        3
176
     1
 90
        0
176
     1
 40
0.6
176
     1
 40
30.0
176
     1
 62
     8
420
  8421504
176
     1
 90
        1
176
     1
 90
        4
176
     1
 62
     7
176
     1
 62
   257
176
     1
 90
        1
176
     1
 90
        1
176
     1
 40
1.0
176
     1
 90
        8
176
     1
 62
     8
420
  8421504
176
     1
 40
1.0
176
     1
 90
        1
176
     1
 90
        6
176
     1
 90
        2
176
     1
 62
     7
176
     1
 90
        5
176
     1
 90
        0
176
     1
 90
        0
176
     1
290
     0
176
     1
 90
        1
176
     1
 40
0.0
176
     1
 90
        0
176
     1
290
     0
176
     1
290
     1
176
     1
290
     1
176
     1
290
     0
176
     1
290
     0
176
     1
290
     0
176
     1
290
     0
176
     1
290
     0
176
     1
290
     0
176
     1
 90
       50
176
     1
 40
0.0
176
     1
 40
1.0
176
     1
 90
        0
176
     1
 62
    18
420
        0
176
     1
 90
       50
176
     1
 90
        3
176
     1
 62
     5
420
      255
176
     1
290
     0
176
     1
 90
       50
176
     1
 90
       50
176
     1
 90
       50
176
     1
290
     0
176
     1
 90
       50
176
     1
 62
   256
176
     0
 40
1.0
176
     0
 90
        2
176
     1
  1
strokes_ogs.tif
176
     1
290
     0
176
     1
 40
1.0
176
     1
 40
1.0
176
     1
  0
VISUALSTYLE
  5
32
102
{ACAD_REACTORS
330
29
102
}
330
29
100
AcDbVisualStyle
  2
Conceptual
 70
     9
177
     3
291
     0
 70
    58
 90
        3
176
     1
 90
        2
176
     1
 90
        0
176
     1
 90
        0
176
     1
 40
0.6
176
     1
 40
30.0
176
     1
 62
     7
420
 16777215
176
     1
 90
        2
176
     1
 90
        2
176
     1
 62
     7
176
     1
 62
   257
176
     1
 90
        1
176
     1
 90
        1
176
     1
 40
179.0
176
     1
 90
        8
176
     1
 62
     7
176
     1
 40
1.0
176
     1
 90
        1
176
     1
 90
        6
176
     1
 90
        2
176
     1
 62
     7
176
     1
 90
        3
176
     1
 90
        0
176
     1
 90
        0
176
     1
290
     0
176
     1
 90
        1
176
     1
 40
0.0
176
     1
 90
        0
176
     1
290
     0
176
     1
290
     1
176
     1
290
     1
176
     1
290
     0
176
     1
290
     0
176
     1
290
     0
176
     1
290
     0
176
     1
290
     0
176
     1
290
     0
176
     1
 90
       50
176
     1
 40
0.0
176
     1
 40
1.0
176
     1
 90
        0
176
     1
 62
    18
420
        0
176
     1
 90
       50
176
     1
 90
        3
176
     1
 62
     5
420
      255
176
     1
290
     0
176
     1
 90
       50
176
     1
 90
       50
176
     1
 90
       50
176
     1
290
     0
176
     1
 90
       50
176
     1
 62
   256
176
     0
 40
1.0
176
     0
 90
        2
176
     1
  1
strokes_ogs.tif
176
     1
290
     0
176
     1
 40
1.0
176
     1
 40
1.0
176
     1
  0
VISUALSTYLE
  5
34
102
{ACAD_REACTORS
330
29
102
}
330
29
100
AcDbVisualStyle
  2
Dim
 70
    11
177
     3
291
     1
 70
    58
 90
        2
176
     1
 90
        2
176
     1
 90
        0
176
     1
 90
        0
176
     1
 40
0.6
176
     1
 40
30.0
176
     1
 62
     7
420
 16777215
176
     1
 90
        1
176
     1
 90
        4
176
     1
 62
     7
176
     1
 62
   257
176
     1
 90
        1
176
     1
 90
        1
176
     1
 40
1.0
176
     1
 90
        8
176
     1
 62
     7
176
     1
 40
1.0
176
     1
 90
        1
176
     1
 90
        6
176
     1
 90
        2
176
     1
 62
     7
176
     1
 90
        5
176
     1
 90
        0
176
     1
 90
        0
176
     1
290
     0
176
     1
 90
        1
176
     1
 40
-50.0
176
     1
 90
        0
176
     1
290
     0
176
     1
290
     1
176
     1
290
     1
176
     1
290
     0
176
     1
290
     0
176
     1
290
     0
176
     1
290
     0
176
     1
290
     0
176
     1
290
     0
176
     1
 90
       50
176
     1
 40
0.0
176
     1
 40
1.0
176
     1
 90
        0
176
     1
 62
    18
420
        0
176
     1
 90
       50
176
     1
 90
        3
176
     1
 62
     5
420
      255
176
     1
290
     0
176
     1
 90
       50
176
     1
 90
       50
176
     1
 90
       50
176
     1
290
     0
176
     1
 90
       50
176
     1
 62
   256
176
     0
 40
1.0
176
     0
 90
        2
176
     1
  1
strokes_ogs.tif
176
     1
290
     0
176
     1
 40
1.0
176
     1
 40
1.0
176
     1
  0
VISUALSTYLE
  5
41
102
{ACAD_REACTORS
330
29
102
}
330
29
100
AcDbVisualStyle
  2
EdgeColorOff
 70
    22
177
     3
291
     1
 70
    58
 90
        2
176
     0
 90
        2
176
     0
 90
        0
176
     0
 90
        0
176
     0
 40
0.6
176
     0
 40
30.0
176
     0
 62
     7
420
 16777215
176
     0
 90
        1
176
     0
 90
        4
176
     0
 62
     7
176
     0
 62
   257
176
     0
 90
        1
176
     0
 90
        1
176
     0
 40
1.0
176
     0
 90
        8
176
     2
 62
     7
176
     0
 40
1.0
176
     0
 90
        1
176
     0
 90
        6
176
     0
 90
        2
176
     0
 62
     7
176
     0
 90
        5
176
     0
 90
        0
176
     0
 90
        0
176
     0
290
     0
176
     0
 90
        1
176
     0
 40
0.0
176
     0
 90
        0
176
     0
290
     0
176
     0
290
     1
176
     0
290
     1
176
     0
290
     0
176
     0
290
     0
176
     0
290
     0
176
     0
290
     0
176
     0
290
     0
176
     0
290
     0
176
     0
 90
       50
176
     0
 40
0.0
176
     0
 40
1.0
176
     0
 90
        0
176
     0
 62
    18
420
        0
176
     0
 90
       50
176
     0
 90
        3
176
     0
 62
     5
420
      255
176
     0
290
     0
176
     0
 90
       50
176
     0
 90
       50
176
     0
 90
       50
176
     0
290
     0
176
     0
 90
       50
176
     0
 62
   256
176
     0
 40
1.0
176
     0
 90
        2
176
     0
  1
strokes_ogs.tif
176
     0
290
     0
176
     0
 40
1.0
176
     0
 40
1.0
176
     0
  0
VISUALSTYLE
  5
38
102
{ACAD_REACTORS
330
29
102
}
330
29
100
AcDbVisualStyle
  2
Facepattern
 70
    15
177
     3
291
     1
 70
    58
 90
        2
176
     1
 90
        2
176
     1
 90
        0
176
     1
 90
        0
176
     1
 40
0.6
176
     1
 40
30.0
176
     1
 62
     7
420
 16777215
176
     1
 90
        1
176
     1
 90
        4
176
     1
 62
     7
176
     1
 62
   257
176
     1
 90
        1
176
     1
 90
        1
176
     1
 40
1.0
176
     1
 90
        8
176
     1
 62
     7
176
     1
 40
1.0
176
     1
 90
        1
176
     1
 90
        6
176
     1
 90
        2
176
     1
 62
     7
176
     1
 90
        5
176
     1
 90
        0
176
     1
 90
        0
176
     1
290
     0
176
     1
 90
        1
176
     1
 40
0.0
176
     1
 90
        0
176
     1
290
     0
176
     1
290
     1
176
     1
290
     1
176
     1
290
     0
176
     1
290
     0
176
     1
290
     0
176
     1
290
     0
176
     1
290
     0
176
     1
290
     0
176
     1
 90
       50
176
     1
 40
0.0
176
     1
 40
1.0
176
     1
 90
        0
176
     1
 62
    18
420
        0
176
     1
 90
       50
176
     1
 90
        3
176
     1
 62
     5
420
      255
176
     1
290
     0
176
     1
 90
       50
176
     1
 90
       50
176
     1
 90
       50
176
     1
290
     0
176
     1
 90
       50
176
     1
 62
   256
176
     0
 40
1.0
176
     0
 90
        2
176
     1
  1
strokes_ogs.tif
176
     1
290
     0
176
     1
 40
1.0
176
     1
 40
1.0
176
     1
  0
VISUALSTYLE
  5
2A
102
{ACAD_REACTORS
330
29
102
}
330
29
100
AcDbVisualStyle
  2
Flat
 70
     0
177
     3
291
     1
 70
    58
 90
        2
176
     1
 90
        1
176
     1
 90
        1
176
     1
 90
        2
176
     1
 40
0.6
176
     1
 40
30.0
176
     1
 62
     7
420
 16777215
176
     1
 90
        0
176
     1
 90
        0
176
     1
 62
     7
176
     1
 62
   257
176
     1
 90
        1
176
     1
 90
        1
176
     1
 40
1.0
176
     1
 90
        8
176
     1
 62
     7
176
     1
 40
1.0
176
     1
 90
        1
176
     1
 90
        6
176
     1
 90
        2
176
     1
 62
     7
176
     1
 90
        5
176
     1
 90
        0
176
     1
 90
        0
176
     1
290
     0
176
     1
 90
       13
176
     1
 40
0.0
176
     1
 90
        0
176
     1
290
     0
176
     1
290
     1
176
     1
290
     1
176
     1
290
     0
176
     1
290
     0
176
     1
290
     0
176
     1
290
     0
176
     1
290
     0
176
     1
290
     0
176
     1
 90
       50
176
     1
 40
0.0
176
     1
 40
1.0
176
     1
 90
        0
176
     1
 62
    18
420
        0
176
     1
 90
       50
176
     1
 90
        3
176
     1
 62
     5
420
      255
176
     1
290
     0
176
     1
 90
       50
176
     1
 90
       50
176
     1
 90
       50
176
     1
290
     0
176
     1
 90
       50
176
     1
 62
   256
176
     0
 40
1.0
176
     0
 90
        2
176
     1
  1
strokes_ogs.tif
176
     1
290
     0
176
     1
 40
1.0
176
     1
 40
1.0
176
     1
  0
VISUALSTYLE
  5
2B
102
{ACAD_REACTORS
330
29
102
}
330
29
100
AcDbVisualStyle
  2
FlatWithEdges
 70
     1
177
     3
291
     1
 70
    58
 90
        2
176
     1
 90
        1
176
     1
 90
        1
176
     1
 90
        2
176
     1
 40
0.6
176
     1
 40
30.0
176
     1
 62
     7
420
 16777215
176
     1
 90
        1
176
     1
 90
        0
176
     1
 62
     7
176
     1
 62
   257
176
     1
 90
        1
176
     1
 90
        1
176
     1
 40
1.0
176
     1
 90
        0
176
     1
 62
   257
176
     1
 40
1.0
176
     1
 90
        1
176
     1
 90
        6
176
     1
 90
        2
176
     1
 62
     7
176
     1
 90
        5
176
     1
 90
        0
176
     1
 90
        0
176
     1
290
     0
176
     1
 90
       13
176
     1
 40
0.0
176
     1
 90
        0
176
     1
290
     0
176
     1
290
     1
176
     1
290
     1
176
     1
290
     0
176
     1
290
     0
176
     1
290
     0
176
     1
290
     0
176
     1
290
     0
176
     1
290
     0
176
     1
 90
       50
176
     1
 40
0.0
176
     1
 40
1.0
176
     1
 90
        0
176
     1
 62
    18
420
        0
176
     1
 90
       50
176
     1
 90
        3
176
     1
 62
     5
420
      255
176
     1
290
     0
176
     1
 90
       50
176
     1
 90
       50
176
     1
 90
       50
176
     1
290
     0
176
     1
 90
       50
176
     1
 62
   256
176
     0
 40
1.0
176
     0
 90
        2
176
     1
  1
strokes_ogs.tif
176
     1
290
     0
176
     1
 40
1.0
176
     1
 40
1.0
176
     1
  0
VISUALSTYLE
  5
2C
102
{ACAD_REACTORS
330
29
102
}
330
29
100
AcDbVisualStyle
  2
Gouraud
 70
     2
177
     3
291
     1
 70
    58
 90
        2
176
     1
 90
        2
176
     1
 90
        1
176
     1
 90
        2
176
     1
 40
0.6
176
     1
 40
30.0
176
     1
 62
     7
420
 16777215
176
     1
 90
        0
176
     1
 90
        0
176
     1
 62
     7
176
     1
 62
   257
176
     1
 90
        1
176
     1
 90
        1
176
     1
 40
1.0
176
     1
 90
        0
176
     1
 62
     7
176
     1
 40
1.0
176
     1
 90
        1
176
     1
 90
        6
176
     1
 90
        2
176
     1
 62
     7
176
     1
 90
        5
176
     1
 90
        0
176
     1
 90
        0
176
     1
290
     0
176
     1
 90
       13
176
     1
 40
0.0
176
     1
 90
        0
176
     1
290
     0
176
     1
290
     1
176
     1
290
     1
176
     1
290
     0
176
     1
290
     0
176
     1
290
     0
176
     1
290
     0
176
     1
290
     0
176
     1
290
     0
176
     1
 90
       50
176
     1
 40
0.0
176
     1
 40
1.0
176
     1
 90
        0
176
     1
 62
    18
420
        0
176
     1
 90
       50
176
     1
 90
        3
176
     1
 62
     5
420
      255
176
     1
290
     0
176
     1
 90
       50
176
     1
 90
       50
176
     1
 90
       50
176
     1
290
     0
176
     1
 90
       50
176
     1
 62
   256
176
     0
 40
1.0
176
     0
 90
        2
176
     1
  1
strokes_ogs.tif
176
     1
290
     0
176
     1
 40
1.0
176
     1
 40
1.0
176
     1
  0
VISUALSTYLE
  5
2D
102
{ACAD_REACTORS
330
29
102
}
330
29
100
AcDbVisualStyle
  2
GouraudWithEdges
 70
     3
177
     3
291
     1
 70
    58
 90
        2
176
     1
 90
        2
176
     1
 90
        1
176
     1
 90
        2
176
     1
 40
0.6
176
     1
 40
30.0
176
     1
 62
     7
420
 16777215
176
     1
 90
        1
176
     1
 90
        0
176
     1
 62
     7
176
     1
 62
   257
176
     1
 90
        1
176
     1
 90
        1
176
     1
 40
1.0
176
     1
 90
        0
176
     1
 62
   257
176
     1
 40
1.0
176
     1
 90
        1
176
     1
 90
        6
176
     1
 90
        2
176
     1
 62
     7
176
     1
 90
        5
176
     1
 90
        0
176
     1
 90
        0
176
     1
290
     0
176
     1
 90
       13
176
     1
 40
0.0
176
     1
 90
        0
176
     1
290
     0
176
     1
290
     1
176
     1
290
     1
176
     1
290
     0
176
     1
290
     0
176
     1
290
     0
176
     1
290
     0
176
     1
290
     0
176
     1
290
     0
176
     1
 90
       50
176
     1
 40
0.0
176
     1
 40
1.0
176
     1
 90
        0
176
     1
 62
    18
420
        0
176
     1
 90
       50
176
     1
 90
        3
176
     1
 62
     5
420
      255
176
     1
290
     0
176
     1
 90
       50
176
     1
 90
       50
176
     1
 90
       50
176
     1
290
     0
176
     1
 90
       50
176
     1
 62
   256
176
     0
 40
1.0
176
     0
 90
        2
176
     1
  1
strokes_ogs.tif
176
     1
290
     0
176
     1
 40
1.0
176
     1
 40
1.0
176
     1
  0
VISUALSTYLE
  5
31
102
{ACAD_REACTORS
330
29
102
}
330
29
100
AcDbVisualStyle
  2
Hidden
 70
     6
177
     3
291
     0
 70
    58
 90
        1
176
     1
 90
        2
176
     1
 90
        2
176
     1
 90
        0
176
     1
 40
0.6
176
     1
 40
30.0
176
     1
 62
     7
420
 16777215
176
     1
 90
        2
176
     1
 90
        2
176
     1
 62
     7
176
     1
 62
   257
176
     1
 90
        2
176
     1
 90
        1
176
     1
 40
40.0
176
     1
 90
        0
176
     1
 62
   257
176
     1
 40
1.0
176
     1
 90
        1
176
     1
 90
        6
176
     1
 90
        2
176
     1
 62
     7
176
     1
 90
        3
176
     1
 90
        0
176
     1
 90
        0
176
     1
290
     0
176
     1
 90
        1
176
     1
 40
0.0
176
     1
 90
        0
176
     1
290
     0
176
     1
290
     1
176
     1
290
     1
176
     1
290
     0
176
     1
290
     0
176
     1
290
     0
176
     1
290
     0
176
     1
290
     0
176
     1
290
     0
176
     1
 90
       50
176
     1
 40
0.0
176
     1
 40
1.0
176
     1
 90
        0
176
     1
 62
    18
420
        0
176
     1
 90
       50
176
     1
 90
        3
176
     1
 62
     5
420
      255
176
     1
290
     0
176
     1
 90
       50
176
     1
 90
       50
176
     1
 90
       50
176
     1
290
     0
176
     1
 90
       50
176
     1
 62
   256
176
     0
 40
1.0
176
     0
 90
        2
176
     1
  1
strokes_ogs.tif
176
     1
290
     0
176
     1
 40
1.0
176
     1
 40
1.0
176
     1
  0
VISUALSTYLE
  5
3F
102
{ACAD_REACTORS
330
29
102
}
330
29
100
AcDbVisualStyle
  2
JitterOff
 70
    20
177
     3
291
     1
 70
    58
 90
        2
176
     0
 90
        2
176
     0
 90
        0
176
     0
 90
        0
176
     0
 40
0.6
176
     0
 40
30.0
176
     0
 62
     7
420
 16777215
176
     0
 90
        1
176
     0
 90
        4
176
     0
 62
     7
176
     0
 62
   257
176
     0
 90
        1
176
     0
 90
        1
176
     0
 40
1.0
176
     0
 90
       10
176
     2
 62
     7
176
     0
 40
1.0
176
     0
 90
        1
176
     0
 90
        6
176
     0
 90
        2
176
     0
 62
     7
176
     0
 90
        5
176
     0
 90
        0
176
     0
 90
        0
176
     0
290
     0
176
     0
 90
        1
176
     0
 40
0.0
176
     0
 90
        0
176
     0
290
     0
176
     0
290
     1
176
     0
290
     1
176
     0
290
     0
176
     0
290
     0
176
     0
290
     0
176
     0
290
     0
176
     0
290
     0
176
     0
290
     0
176
     0
 90
       50
176
     0
 40
0.0
176
     0
 40
1.0
176
     0
 90
        0
176
     0
 62
    18
420
        0
176
     0
 90
       50
176
     0
 90
        3
176
     0
 62
     5
420
      255
176
     0
290
     0
176
     0
 90
       50
176
     0
 90
       50
176
     0
 90
       50
176
     0
290
     0
176
     0
 90
       50
176
     0
 62
   256
176
     0
 40
1.0
176
     0
 90
        2
176
     0
  1
strokes_ogs.tif
176
     0
290
     0
176
     0
 40
1.0
176
     0
 40
1.0
176
     0
  0
VISUALSTYLE
  5
37
102
{ACAD_REACTORS
330
29
102
}
330
29
100
AcDbVisualStyle
  2
Linepattern
 70
    14
177
     3
291
     1
 70
    58
 90
        2
176
     1
 90
        2
176
     1
 90
        0
176
     1
 90
        0
176
     1
 40
0.6
176
     1
 40
30.0
176
     1
 62
     7
420
 16777215
176
     1
 90
        1
176
     1
 90
        4
176
     1
 62
     7
176
     1
 62
   257
176
     1
 90
        7
176
     1
 90
        7
176
     1
 40
1.0
176
     1
 90
        8
176
     1
 62
     7
176
     1
 40
1.0
176
     1
 90
        1
176
     1
 90
        6
176
     1
 90
        2
176
     1
 62
     7
176
     1
 90
        5
176
     1
 90
        0
176
     1
 90
        0
176
     1
290
     0
176
     1
 90
        1
176
     1
 40
0.0
176
     1
 90
        0
176
     1
290
     0
176
     1
290
     1
176
     1
290
     1
176
     1
290
     0
176
     1
290
     0
176
     1
290
     0
176
     1
290
     0
176
     1
290
     0
176
     1
290
     0
176
     1
 90
       50
176
     1
 40
0.0
176
     1
 40
1.0
176
     1
 90
        0
176
     1
 62
    18
420
        0
176
     1
 90
       50
176
     1
 90
        3
176
     1
 62
     5
420
      255
176
     1
290
     0
176
     1
 90
       50
176
     1
 90
       50
176
     1
 90
       50
176
     1
290
     0
176
     1
 90
       50
176
     1
 62
   256
176
     0
 40
1.0
176
     0
 90
        2
176
     1
  1
strokes_ogs.tif
176
     1
290
     0
176
     1
 40
1.0
176
     1
 40
1.0
176
     1
  0
VISUALSTYLE
  5
40
102
{ACAD_REACTORS
330
29
102
}
330
29
100
AcDbVisualStyle
  2
OverhangOff
 70
    21
177
     3
291
     1
 70
    58
 90
        2
176
     0
 90
        2
176
     0
 90
        0
176
     0
 90
        0
176
     0
 40
0.6
176
     0
 40
30.0
176
     0
 62
     7
420
 16777215
176
     0
 90
        1
176
     0
 90
        4
176
     0
 62
     7
176
     0
 62
   257
176
     0
 90
        1
176
     0
 90
        1
176
     0
 40
1.0
176
     0
 90
        9
176
     2
 62
     7
176
     0
 40
1.0
176
     0
 90
        1
176
     0
 90
        6
176
     0
 90
        2
176
     0
 62
     7
176
     0
 90
        5
176
     0
 90
        0
176
     0
 90
        0
176
     0
290
     0
176
     0
 90
        1
176
     0
 40
0.0
176
     0
 90
        0
176
     0
290
     0
176
     0
290
     1
176
     0
290
     1
176
     0
290
     0
176
     0
290
     0
176
     0
290
     0
176
     0
290
     0
176
     0
290
     0
176
     0
290
     0
176
     0
 90
       50
176
     0
 40
0.0
176
     0
 40
1.0
176
     0
 90
        0
176
     0
 62
    18
420
        0
176
     0
 90
       50
176
     0
 90
        3
176
     0
 62
     5
420
      255
176
     0
290
     0
176
     0
 90
       50
176
     0
 90
       50
176
     0
 90
       50
176
     0
290
     0
176
     0
 90
       50
176
     0
 62
   256
176
     0
 40
1.0
176
     0
 90
        2
176
     0
  1
strokes_ogs.tif
176
     0
290
     0
176
     0
 40
1.0
176
     0
 40
1.0
176
     0
  0
VISUALSTYLE
  5
33
102
{ACAD_REACTORS
330
29
102
}
330
29
100
AcDbVisualStyle
  2
Realistic
 70
     8
177
     3
291
     0
 70
    58
 90
        2
176
     1
 90
        3
176
     1
 90
        0
176
     1
 90
        2
176
     1
 40
0.6
176
     1
 40
30.0
176
     1
 62
     7
420
 16777215
176
     1
 90
        0
176
     1
 90
        0
176
     1
 62
     7
176
     1
 62
   257
176
     1
 90
        1
176
     1
 90
        1
176
     1
 40
1.0
176
     1
 90
        8
176
     1
 62
   257
176
     1
 40
1.0
176
     1
 90
        1
176
     1
 90
        6
176
     1
 90
        2
176
     1
 62
     7
176
     1
 90
        3
176
     1
 90
        0
176
     1
 90
        0
176
     1
290
     0
176
     1
 90
       13
176
     1
 40
0.0
176
     1
 90
        0
176
     1
290
     0
176
     1
290
     1
176
     1
290
     1
176
     1
290
     0
176
     1
290
     0
176
     1
290
     0
176
     1
290
     0
176
     1
290
     0
176
     1
290
     0
176
     1
 90
       50
176
     1
 40
0.0
176
     1
 40
1.0
176
     1
 90
        0
176
     1
 62
    18
420
        0
176
     1
 90
       50
176
     1
 90
        3
176
     1
 62
     5
420
      255
176
     1
290
     0
176
     1
 90
       50
176
     1
 90
       50
176
     1
 90
       50
176
     1
290
     0
176
     1
 90
       50
176
     1
 62
   256
176
     0
 40
1.0
176
     0
 90
        2
176
     1
  1
strokes_ogs.tif
176
     1
290
     0
176
     1
 40
1.0
176
     1
 40
1.0
176
     1
  0
VISUALSTYLE
  5
3E
102
{ACAD_REACTORS
330
29
102
}
330
29
100
AcDbVisualStyle
  2
Shaded
 70
    27
177
     3
291
     0
 70
    58
 90
        2
176
     1
 90
        2
176
     1
 90
        1
176
     1
 90
        2
176
     1
 40
0.6
176
     1
 40
30.0
176
     1
 62
     7
420
 16777215
176
     1
 90
        0
176
     1
 90
        4
176
     1
 62
     7
176
     1
 62
   257
176
     1
 90
        1
176
     1
 90
        1
176
     1
 40
1.0
176
     1
 90
        8
176
     1
 62
   257
176
     1
 40
1.0
176
     1
 90
        1
176
     1
 90
        6
176
     1
 90
        2
176
     1
 62
     8
420
  7895160
176
     1
 90
        3
176
     1
 90
        0
176
     1
 90
        0
176
     1
290
     0
176
     1
 90
        5
176
     1
 40
0.0
176
     1
 90
        0
176
     1
290
     0
176
     1
290
     1
176
     1
290
     1
176
     1
290
     0
176
     1
290
     0
176
     1
290
     0
176
     1
290
     0
176
     1
290
     0
176
     1
290
     0
176
     1
 90
       50
176
     1
 40
0.0
176
     1
 40
1.0
176
     1
 90
        0
176
     1
 62
    18
420
        0
176
     1
 90
       50
176
     1
 90
        3
176
     1
 62
     5
420
      255
176
     1
290
     0
176
     1
 90
       50
176
     1
 90
       50
176
     1
 90
       50
176
     1
290
     0
176
     1
 90
       50
176
     1
 62
   256
176
     0
 40
1.0
176
     0
 90
        2
176
     1
  1
strokes_ogs.tif
176
     1
290
     0
176
     1
 40
1.0
176
     1
 40
1.0
176
     1
  0
VISUALSTYLE
  5
3D
102
{ACAD_REACTORS
330
29
102
}
330
29
100
AcDbVisualStyle
  2
Shaded with edges
 70
    26
177
     3
291
     0
 70
    58
 90
        2
176
     1
 90
        2
176
     1
 90
        1
176
     1
 90
        2
176
     1
 40
0.6
176
     1
 40
30.0
176
     1
 62
     7
420
 16777215
176
     1
 90
        1
176
     1
 90
        2
176
     1
 62
     7
176
     1
 62
   257
176
     1
 90
        2
176
     1
 90
        1
176
     1
 40
1.0
176
     1
 90
        8
176
     1
 62
   257
176
     1
 40
1.0
176
     1
 90
        1
176
     1
 90
        6
176
     1
 90
        2
176
     1
 62
     7
176
     1
 90
        3
176
     1
 90
        0
176
     1
 90
        0
176
     1
290
     0
176
     1
 90
        5
176
     1
 40
0.0
176
     1
 90
        0
176
     1
290
     0
176
     1
290
     1
176
     1
290
     1
176
     1
290
     0
176
     1
290
     0
176
     1
290
     0
176
     1
290
     0
176
     1
290
     0
176
     1
290
     0
176
     1
 90
       50
176
     1
 40
0.0
176
     1
 40
1.0
176
     1
 90
        0
176
     1
 62
    18
420
        0
176
     1
 90
       50
176
     1
 90
        3
176
     1
 62
     5
420
      255
176
     1
290
     0
176
     1
 90
       50
176
     1
 90
       50
176
     1
 90
       50
176
     1
290
     0
176
     1
 90
       50
176
     1
 62
   256
176
     0
 40
1.0
176
     0
 90
        2
176
     1
  1
strokes_ogs.tif
176
     1
290
     0
176
     1
 40
1.0
176
     1
 40
1.0
176
     1
  0
VISUALSTYLE
  5
3A
102
{ACAD_REACTORS
330
29
102
}
330
29
100
AcDbVisualStyle
  2
Shades of Gray
 70
    23
177
     3
291
     0
 70
    58
 90
        2
176
     1
 90
        2
176
     1
 90
        3
176
     1
 90
        0
176
     1
 40
0.6
176
     1
 40
30.0
176
     1
 62
     7
420
 16777215
176
     1
 90
        2
176
     1
 90
        2
176
     1
 62
     7
176
     1
 62
     7
176
     1
 90
        1
176
     1
 90
        1
176
     1
 40
40.0
176
     1
 90
        8
176
     1
 62
     7
176
     1
 40
1.0
176
     1
 90
        1
176
     1
 90
        6
176
     1
 90
        2
176
     1
 62
     7
176
     1
 90
        3
176
     1
 90
        0
176
     1
 90
        0
176
     1
290
     0
176
     1
 90
        1
176
     1
 40
0.0
176
     1
 90
        0
176
     1
290
     0
176
     1
290
     1
176
     1
290
     1
176
     1
290
     0
176
     1
290
     0
176
     1
290
     0
176
     1
290
     0
176
     1
290
     0
176
     1
290
     0
176
     1
 90
       50
176
     1
 40
0.0
176
     1
 40
1.0
176
     1
 90
        0
176
     1
 62
    18
420
        0
176
     1
 90
       50
176
     1
 90
        3
176
     1
 62
     5
420
      255
176
     1
290
     0
176
     1
 90
       50
176
     1
 90
       50
176
     1
 90
       50
176
     1
290
     0
176
     1
 90
       50
176
     1
 62
   256
176
     0
 40
1.0
176
     0
 90
        2
176
     1
  1
strokes_ogs.tif
176
     1
290
     0
176
     1
 40
1.0
176
     1
 40
1.0
176
     1
  0
VISUALSTYLE
  5
3B
102
{ACAD_REACTORS
330
29
102
}
330
29
100
AcDbVisualStyle
  2
Sketchy
 70
    24
177
     3
291
     0
 70
    58
 90
        1
176
     1
 90
        2
176
     1
 90
        2
176
     1
 90
        0
176
     1
 40
0.6
176
     1
 40
30.0
176
     1
 62
     7
420
 16777215
176
     1
 90
        2
176
     1
 90
        2
176
     1
 62
     7
176
     1
 62
     7
176
     1
 90
        1
176
     1
 90
        1
176
     1
 40
40.0
176
     1
 90
       11
176
     1
 62
     7
176
     1
 40
1.0
176
     1
 90
        1
176
     1
 90
        6
176
     1
 90
        2
176
     1
 62
     7
176
     1
 90
        6
176
     1
 90
        0
176
     1
 90
        0
176
     1
290
     0
176
     1
 90
        1
176
     1
 40
0.0
176
     1
 90
        0
176
     1
290
     0
176
     1
290
     1
176
     1
290
     1
176
     1
290
     0
176
     1
290
     0
176
     1
290
     0
176
     1
290
     0
176
     1
290
     0
176
     1
290
     0
176
     1
 90
       50
176
     1
 40
0.0
176
     1
 40
1.0
176
     1
 90
        0
176
     1
 62
    18
420
        0
176
     1
 90
       50
176
     1
 90
        3
176
     1
 62
     5
420
      255
176
     1
290
     0
176
     1
 90
       50
176
     1
 90
       50
176
     1
 90
       50
176
     1
290
     0
176
     1
 90
       50
176
     1
 62
   256
176
     0
 40
1.0
176
     0
 90
        2
176
     1
  1
strokes_ogs.tif
176
     1
290
     0
176
     1
 40
1.0
176
     1
 40
1.0
176
     1
  0
VISUALSTYLE
  5
36
102
{ACAD_REACTORS
330
29
102
}
330
29
100
AcDbVisualStyle
  2
Thicken
 70
    13
177
     3
291
     1
 70
    58
 90
        2
176
     1
 90
        2
176
     1
 90
        0
176
     1
 90
        0
176
     1
 40
0.6
176
     1
 40
30.0
176
     1
 62
     7
420
 16777215
176
     1
 90
        1
176
     1
 90
        4
176
     1
 62
     7
176
     1
 62
   257
176
     1
 90
        1
176
     1
 90
        1
176
     1
 40
1.0
176
     1
 90
       12
176
     1
 62
     7
176
     1
 40
1.0
176
     1
 90
        1
176
     1
 90
        6
176
     1
 90
        2
176
     1
 62
     7
176
     1
 90
        5
176
     1
 90
        0
176
     1
 90
        0
176
     1
290
     0
176
     1
 90
        1
176
     1
 40
0.0
176
     1
 90
        0
176
     1
290
     0
176
     1
290
     1
176
     1
290
     1
176
     1
290
     0
176
     1
290
     0
176
     1
290
     0
176
     1
290
     0
176
     1
290
     0
176
     1
290
     0
176
     1
 90
       50
176
     1
 40
0.0
176
     1
 40
1.0
176
     1
 90
        0
176
     1
 62
    18
420
        0
176
     1
 90
       50
176
     1
 90
        3
176
     1
 62
     5
420
      255
176
     1
290
     0
176
     1
 90
       50
176
     1
 90
       50
176
     1
 90
       50
176
     1
290
     0
176
     1
 90
       50
176
     1
 62
   256
176
     0
 40
1.0
176
     0
 90
        2
176
     1
  1
strokes_ogs.tif
176
     1
290
     0
176
     1
 40
1.0
176
     1
 40
1.0
176
     1
  0
VISUALSTYLE
  5
30
102
{ACAD_REACTORS
330
29
102
}
330
29
100
AcDbVisualStyle
  2
Wireframe
 70
     5
177
     3
291
     0
 70
    58
 90
        0
176
     1
 90
        2
176
     1
 90
        0
176
     1
 90
        0
176
     1
 40
0.6
176
     1
 40
30.0
176
     1
 62
     7
420
 16777215
176
     1
 90
        1
176
     1
 90
        4
176
     1
 62
     7
176
     1
 62
   257
176
     1
 90
        1
176
     1
 90
        1
176
     1
 40
1.0
176
     1
 90
        0
176
     1
 62
   257
176
     1
 40
1.0
176
     1
 90
        1
176
     1
 90
        6
176
     1
 90
        2
176
     1
 62
     7
176
     1
 90
        3
176
     1
 90
        0
176
     1
 90
        0
176
     1
290
     0
176
     1
 90
        1
176
     1
 40
0.0
176
     1
 90
        0
176
     1
290
     0
176
     1
290
     1
176
     1
290
     1
176
     1
290
     0
176
     1
290
     0
176
     1
290
     0
176
     1
290
     0
176
     1
290
     0
176
     1
290
     0
176
     1
 90
       50
176
     1
 40
0.0
176
     1
 40
1.0
176
     1
 90
        0
176
     1
 62
    18
420
        0
176
     1
 90
       50
176
     1
 90
        3
176
     1
 62
     5
420
      255
176
     1
290
     0
176
     1
 90
       50
176
     1
 90
       50
176
     1
 90
       50
176
     1
290
     0
176
     1
 90
       50
176
     1
 62
   256
176
     0
 40
1.0
176
     0
 90
        2
176
     1
  1
strokes_ogs.tif
176
     1
290
     0
176
     1
 40
1.0
176
     1
 40
1.0
176
     1
  0
VISUALSTYLE
  5
3C
102
{ACAD_REACTORS
330
29
102
}
330
29
100
AcDbVisualStyle
  2
X-Ray
 70
    25
177
     3
291
     0
 70
    58
 90
        2
176
     1
 90
        2
176
     1
 90
        1
176
     1
 90
        1
176
     1
 40
0.5
176
     1
 40
30.0
176
     1
 62
     7
420
 16777215
176
     1
 90
        1
176
     1
 90
        0
176
     1
 62
     7
176
     1
 62
   257
176
     1
 90
        1
176
     1
 90
        1
176
     1
 40
1.0
176
     1
 90
        8
176
     1
 62
     7
176
     1
 40
1.0
176
     1
 90
        1
176
     1
 90
        6
176
     1
 90
        2
176
     1
 62
     7
176
     1
 90
        3
176
     1
 90
        0
176
     1
 90
        0
176
     1
290
     0
176
     1
 90
       13
176
     1
 40
0.0
176
     1
 90
        0
176
     1
290
     0
176
     1
290
     1
176
     1
290
     1
176
     1
290
     0
176
     1
290
     0
176
     1
290
     0
176
     1
290
     0
176
     1
290
     0
176
     1
290
     0
176
     1
 90
       50
176
     1
 40
0.0
176
     1
 40
1.0
176
     1
 90
        0
176
     1
 62
    18
420
        0
176
     1
 90
       50
176
     1
 90
        3
176
     1
 62
     5
420
      255
176
     1
290
     0
176
     1
 90
       50
176
     1
 90
       50
176
     1
 90
       50
176
     1
290
     0
176
     1
 90
       50
176
     1
 62
   256
176
     0
 40
1.0
176
     0
 90
        2
176
     1
  1
strokes_ogs.tif
176
     1
290
     0
176
     1
 40
1.0
176
     1
 40
1.0
176
     1
  0
DICTIONARYVAR
  5
107
102
{ACAD_REACTORS
330
102
102
}
330
102
100
DictionaryVariables
280
     0
  1
1:1
  0
DICTIONARYVAR
  5
104
102
{ACAD_REACTORS
330
102
102
}
330
102
100
DictionaryVariables
280
     0
  1
STANDARD
  0
DICTIONARYVAR
  5
103
102
{ACAD_REACTORS
330
102
102
}
330
102
100
DictionaryVariables
280
     0
  1
STANDARD
  0
DICTIONARYVAR
  5
105
102
{ACAD_REACTORS
330
102
102
}
330
102
100
DictionaryVariables
280
     0
  1
Imperial24
  0
DICTIONARYVAR
  5
106
102
{ACAD_REACTORS
330
102
102
}
330
102
100
DictionaryVariables
280
     0
  1
Imperial24
  0
DICTIONARY
  5
1A
330
19
100
AcDbDictionary
280
     1
281
     1
  3
BUMPTILE
360
1C
  3
DIFFUSETILE
360
1B
  3
OPACITYTILE
360
1F
  3
REFLECTIONTILE
360
1E
  3
REFRACTIONTILE
360
20
  3
SPECULARTILE
360
1D
  0
DICTIONARY
  5
12
330
11
100
AcDbDictionary
280
     1
281
     1
  3
BUMPTILE
360
14
  3
DIFFUSETILE
360
13
  3
OPACITYTILE
360
17
  3
REFLECTIONTILE
360
16
  3
REFRACTIONTILE
360
18
  3
SPECULARTILE
360
15
  0
DICTIONARY
  5
22
330
21
100
AcDbDictionary
280
     1
281
     1
  3
BUMPTILE
360
24
  3
DIFFUSETILE
360
23
  3
OPACITYTILE
360
27
  3
REFLECTIONTILE
360
26
  3
REFRACTIONTILE
360
28
  3
SPECULARTILE
360
25
  0
DICTIONARY
  5
108
330
65
100
AcDbDictionary
280
     1
281
     1
  3
ACAD_ROUNDTRIP_2008_TABLESTYLE_CELLSTYLEMAP
360
109
  0
XRECORD
  5
1C
102
{ACAD_REACTORS
330
1A
102
}
330
1A
100
AcDbXrecord
280
     1
270
     1
271
     1
  0
XRECORD
  5
1B
102
{ACAD_REACTORS
330
1A
102
}
330
1A
100
AcDbXrecord
280
     1
270
     1
271
     1
  0
XRECORD
  5
1F
102
{ACAD_REACTORS
330
1A
102
}
330
1A
100
AcDbXrecord
280
     1
270
     1
271
     1
  0
XRECORD
  5
1E
102
{ACAD_REACTORS
330
1A
102
}
330
1A
100
AcDbXrecord
280
     1
270
     1
271
     1
  0
XRECORD
  5
20
102
{ACAD_REACTORS
330
1A
102
}
330
1A
100
AcDbXrecord
280
     1
270
     1
271
     1
  0
XRECORD
  5
1D
102
{ACAD_REACTORS
330
1A
102
}
330
1A
100
AcDbXrecord
280
     1
270
     1
271
     1
  0
XRECORD
  5
14
102
{ACAD_REACTORS
330
12
102
}
330
12
100
AcDbXrecord
280
     1
270
     1
271
     1
  0
XRECORD
  5
13
102
{ACAD_REACTORS
330
12
102
}
330
12
100
AcDbXrecord
280
     1
270
     1
271
     1
  0
XRECORD
  5
17
102
{ACAD_REACTORS
330
12
102
}
330
12
100
AcDbXrecord
280
     1
270
     1
271
     1
  0
XRECORD
  5
16
102
{ACAD_REACTORS
330
12
102
}
330
12
100
AcDbXrecord
280
     1
270
     1
271
     1
  0
XRECORD
  5
18
102
{ACAD_REACTORS
330
12
102
}
330
12
100
AcDbXrecord
280
     1
270
     1
271
     1
  0
XRECORD
  5
15
102
{ACAD_REACTORS
330
12
102
}
330
12
100
AcDbXrecord
280
     1
270
     1
271
     1
  0
XRECORD
  5
24
102
{ACAD_REACTORS
330
22
102
}
330
22
100
AcDbXrecord
280
     1
270
     1
271
     1
  0
XRECORD
  5
23
102
{ACAD_REACTORS
330
22
102
}
330
22
100
AcDbXrecord
280
     1
270
     1
271
     1
  0
XRECORD
  5
27
102
{ACAD_REACTORS
330
22
102
}
330
22
100
AcDbXrecord
280
     1
270
     1
271
     1
  0
XRECORD
  5
26
102
{ACAD_REACTORS
330
22
102
}
330
22
100
AcDbXrecord
280
     1
270
     1
271
     1
  0
XRECORD
  5
28
102
{ACAD_REACTORS
330
22
102
}
330
22
100
AcDbXrecord
280
     1
270
     1
271
     1
  0
XRECORD
  5
25
102
{ACAD_REACTORS
330
22
102
}
330
22
100
AcDbXrecord
280
     1
270
     1
271
     1
  0
CELLSTYLEMAP
  5
109
102
{ACAD_REACTORS
330
108
102
}
330
108
100
AcDbCellStyleMap
 90
        3
300
CELLSTYLE
  1
TABLEFORMAT_BEGIN
 90
        5
170
     1
 91
        0
 92
    32768
 62
   257
 93
        1
300
CONTENTFORMAT
  1
CONTENTFORMAT_BEGIN
 90
        0
 91
        0
 92
      512
 93
        0
300

 40
0.0
140
1.0
 94
        5
 62
     0
340
55
144
0.25
309
CONTENTFORMAT_END
171
     0
 94
        0
309
TABLEFORMAT_END
  1
CELLSTYLE_BEGIN
 90
        1
 91
        1
300
_TITLE
309
CELLSTYLE_END
300
CELLSTYLE
  1
TABLEFORMAT_BEGIN
 90
        5
170
     1
 91
        0
 92
        0
 62
   257
 93
        1
300
CONTENTFORMAT
  1
CONTENTFORMAT_BEGIN
 90
        0
 91
        0
 92
      512
 93
        0
300

 40
0.0
140
1.0
 94
        5
 62
     0
340
55
144
0.18
309
CONTENTFORMAT_END
171
     0
 94
        0
309
TABLEFORMAT_END
  1
CELLSTYLE_BEGIN
 90
        2
 91
        1
300
_HEADER
309
CELLSTYLE_END
300
CELLSTYLE
  1
TABLEFORMAT_BEGIN
 90
        5
170
     1
 91
        0
 92
        0
 62
   257
 93
        1
300
CONTENTFORMAT
  1
CONTENTFORMAT_BEGIN
 90
        0
 91
        0
 92
      512
 93
        0
300

 40
0.0
140
1.0
 94
        2
 62
     0
340
55
144
0.18
309
CONTENTFORMAT_END
171
     0
 94
        0
309
TABLEFORMAT_END
  1
CELLSTYLE_BEGIN
 90
        3
 91
        2
300
_DATA
309
CELLSTYLE_END
  0
ENDSEC
  0
EOF
