  0
SECTION
  2
HEADER
  9
$ACADVER
  1
AC1032
  9
$ACADMAINTVER
 90
      329
  9
$DWGCODEPAGE
  3
ANSI_936
  9
$REQUIREDVERSIONS
160
                 0
  9
$INSBASE
 10
0.0
 20
0.0
 30
0.0
  9
$EXTMIN
 10
1.000000000000000E+20
 20
1.000000000000000E+20
 30
1.000000000000000E+20
  9
$EXTMAX
 10
-1.000000000000000E+20
 20
-1.000000000000000E+20
 30
-1.000000000000000E+20
  9
$LIMMIN
 10
0.0
 20
0.0
  9
$LIMMAX
 10
12.0
 20
9.0
  9
$ORTHOMODE
 70
     0
  9
$REGENMODE
 70
     1
  9
$FILLMODE
 70
     1
  9
$QTEXTMODE
 70
     0
  9
$MIRRTEXT
 70
     0
  9
$LTSCALE
 40
1.0
  9
$ATTMODE
 70
     1
  9
$TEXTSIZE
 40
0.2
  9
$TRACEWID
 40
0.05
  9
$TEXTSTYLE
  7
Standard
  9
$CLAYER
  8
0
  9
$CELTYPE
  6
ByLayer
  9
$CECOLOR
 62
   256
  9
$CELTSCALE
 40
1.0
  9
$DISPSILH
 70
     0
  9
$DIMSCALE
 40
1.0
  9
$DIMASZ
 40
0.18
  9
$DIMEXO
 40
0.0625
  9
$DIMDLI
 40
0.38
  9
$DIMRND
 40
0.0
  9
$DIMDLE
 40
0.0
  9
$DIMEXE
 40
0.18
  9
$DIMTP
 40
0.0
  9
$DIMTM
 40
0.0
  9
$DIMTXT
 40
0.18
  9
$DIMCEN
 40
0.09
  9
$DIMTSZ
 40
0.0
  9
$DIMTOL
 70
     0
  9
$DIMLIM
 70
     0
  9
$DIMTIH
 70
     1
  9
$DIMTOH
 70
     1
  9
$DIMSE1
 70
     0
  9
$DIMSE2
 70
     0
  9
$DIMTAD
 70
     0
  9
$DIMZIN
 70
     0
  9
$DIMBLK
  1

  9
$DIMASO
 70
     1
  9
$DIMSHO
 70
     1
  9
$DIMPOST
  1

  9
$DIMAPOST
  1

  9
$DIMALT
 70
     0
  9
$DIMALTD
 70
     2
  9
$DIMALTF
 40
25.4
  9
$DIMLFAC
 40
1.0
  9
$DIMTOFL
 70
     0
  9
$DIMTVP
 40
0.0
  9
$DIMTIX
 70
     0
  9
$DIMSOXD
 70
     0
  9
$DIMSAH
 70
     0
  9
$DIMBLK1
  1

  9
$DIMBLK2
  1

  9
$DIMSTYLE
  2
Standard
  9
$DIMCLRD
 70
     0
  9
$DIMCLRE
 70
     0
  9
$DIMCLRT
 70
     0
  9
$DIMTFAC
 40
1.0
  9
$DIMGAP
 40
0.09
  9
$DIMJUST
 70
     0
  9
$DIMSD1
 70
     0
  9
$DIMSD2
 70
     0
  9
$DIMTOLJ
 70
     1
  9
$DIMTZIN
 70
     0
  9
$DIMALTZ
 70
     0
  9
$DIMALTTZ
 70
     0
  9
$DIMUPT
 70
     0
  9
$DIMDEC
 70
     4
  9
$DIMTDEC
 70
     4
  9
$DIMALTU
 70
     2
  9
$DIMALTTD
 70
     2
  9
$DIMTXSTY
  7
Standard
  9
$DIMAUNIT
 70
     0
  9
$DIMADEC
 70
     0
  9
$DIMALTRND
 40
0.0
  9
$DIMAZIN
 70
     0
  9
$DIMDSEP
 70
    46
  9
$DIMATFIT
 70
     3
  9
$DIMFRAC
 70
     0
  9
$DIMLDRBLK
  1

  9
$DIMLUNIT
 70
     2
  9
$DIMLWD
 70
    -2
  9
$DIMLWE
 70
    -2
  9
$DIMTMOVE
 70
     0
  9
$DIMFXL
 40
1.0
  9
$DIMFXLON
 70
     0
  9
$DIMJOGANG
 40
0.7853981633974483
  9
$DIMTFILL
 70
     0
  9
$DIMTFILLCLR
 70
     0
  9
$DIMARCSYM
 70
     0
  9
$DIMLTYPE
  6

  9
$DIMLTEX1
  6

  9
$DIMLTEX2
  6

  9
$DIMTXTDIRECTION
 70
     0
  9
$LUNITS
 70
     2
  9
$LUPREC
 70
     4
  9
$SKETCHINC
 40
0.1
  9
$FILLETRAD
 40
0.0
  9
$AUNITS
 70
     0
  9
$AUPREC
 70
     0
  9
$MENU
  1
.
  9
$ELEVATION
 40
0.0
  9
$PELEVATION
 40
0.0
  9
$THICKNESS
 40
0.0
  9
$LIMCHECK
 70
     0
  9
$CHAMFERA
 40
0.0
  9
$CHAMFERB
 40
0.0
  9
$CHAMFERC
 40
0.0
  9
$CHAMFERD
 40
0.0
  9
$SKPOLY
 70
     0
  9
$TDCREATE
 40
2460886.732997686
  9
$TDUCREATE
 40
2460886.399664352
  9
$TDUPDATE
 40
2460886.732997686
  9
$TDUUPDATE
 40
2460886.399664352
  9
$TDINDWG
 40
0.0000000000
  9
$TDUSRTIMER
 40
0.0000000000
  9
$USRTIMER
 70
     1
  9
$ANGBASE
 50
0.0
  9
$ANGDIR
 70
     0
  9
$PDMODE
 70
     0
  9
$PDSIZE
 40
0.0
  9
$PLINEWID
 40
0.0
  9
$SPLFRAME
 70
     0
  9
$SPLINETYPE
 70
     6
  9
$SPLINESEGS
 70
     8
  9
$HANDSEED
  5
103
  9
$SURFTAB1
 70
     6
  9
$SURFTAB2
 70
     6
  9
$SURFTYPE
 70
     6
  9
$SURFU
 70
     6
  9
$SURFV
 70
     6
  9
$UCSBASE
  2

  9
$UCSNAME
  2

  9
$UCSORG
 10
0.0
 20
0.0
 30
0.0
  9
$UCSXDIR
 10
1.0
 20
0.0
 30
0.0
  9
$UCSYDIR
 10
0.0
 20
1.0
 30
0.0
  9
$UCSORTHOREF
  2

  9
$UCSORTHOVIEW
 70
     0
  9
$UCSORGTOP
 10
0.0
 20
0.0
 30
0.0
  9
$UCSORGBOTTOM
 10
0.0
 20
0.0
 30
0.0
  9
$UCSORGLEFT
 10
0.0
 20
0.0
 30
0.0
  9
$UCSORGRIGHT
 10
0.0
 20
0.0
 30
0.0
  9
$UCSORGFRONT
 10
0.0
 20
0.0
 30
0.0
  9
$UCSORGBACK
 10
0.0
 20
0.0
 30
0.0
  9
$PUCSBASE
  2

  9
$PUCSNAME
  2

  9
$PUCSORG
 10
0.0
 20
0.0
 30
0.0
  9
$PUCSXDIR
 10
1.0
 20
0.0
 30
0.0
  9
$PUCSYDIR
 10
0.0
 20
1.0
 30
0.0
  9
$PUCSORTHOREF
  2

  9
$PUCSORTHOVIEW
 70
     0
  9
$PUCSORGTOP
 10
0.0
 20
0.0
 30
0.0
  9
$PUCSORGBOTTOM
 10
0.0
 20
0.0
 30
0.0
  9
$PUCSORGLEFT
 10
0.0
 20
0.0
 30
0.0
  9
$PUCSORGRIGHT
 10
0.0
 20
0.0
 30
0.0
  9
$PUCSORGFRONT
 10
0.0
 20
0.0
 30
0.0
  9
$PUCSORGBACK
 10
0.0
 20
0.0
 30
0.0
  9
$USERI1
 70
     0
  9
$USERI2
 70
     0
  9
$USERI3
 70
     0
  9
$USERI4
 70
     0
  9
$USERI5
 70
     0
  9
$USERR1
 40
0.0
  9
$USERR2
 40
0.0
  9
$USERR3
 40
0.0
  9
$USERR4
 40
0.0
  9
$USERR5
 40
0.0
  9
$WORLDVIEW
 70
     1
  9
$SHADEDGE
 70
     3
  9
$SHADEDIF
 70
    70
  9
$TILEMODE
 70
     1
  9
$MAXACTVP
 70
    64
  9
$PINSBASE
 10
0.0
 20
0.0
 30
0.0
  9
$PLIMCHECK
 70
     0
  9
$PEXTMIN
 10
1.000000000000000E+20
 20
1.000000000000000E+20
 30
1.000000000000000E+20
  9
$PEXTMAX
 10
-1.000000000000000E+20
 20
-1.000000000000000E+20
 30
-1.000000000000000E+20
  9
$PLIMMIN
 10
0.0
 20
0.0
  9
$PLIMMAX
 10
12.0
 20
9.0
  9
$UNITMODE
 70
     0
  9
$VISRETAIN
 70
     1
  9
$PLINEGEN
 70
     0
  9
$PSLTSCALE
 70
     1
  9
$TREEDEPTH
 70
  3020
  9
$CMLSTYLE
  2
Standard
  9
$CMLJUST
 70
     0
  9
$CMLSCALE
 40
1.0
  9
$PROXYGRAPHICS
 70
     1
  9
$MEASUREMENT
 70
     0
  9
$CELWEIGHT
370
    -1
  9
$ENDCAPS
280
     0
  9
$JOINSTYLE
280
     0
  9
$LWDISPLAY
290
     1
  9
$INSUNITS
 70
     1
  9
$HYPERLINKBASE
  1

  9
$STYLESHEET
  1

  9
$XEDIT
290
     1
  9
$CEPSNTYPE
380
     0
  9
$PSTYLEMODE
290
     1
  9
$FINGERPRINTGUID
  2
{E41166BC-4159-7A45-B0A3-5FF91946566D}
  9
$VERSIONGUID
  2
{783B5BBF-8A18-0248-ADBB-45549ACB0122}
  9
$EXTNAMES
290
     1
  9
$PSVPSCALE
 40
0.0
  9
$OLESTARTUP
290
     0
  9
$SORTENTS
280
   127
  9
$INDEXCTL
280
     0
  9
$HIDETEXT
280
     1
  9
$XCLIPFRAME
280
     2
  9
$HALOGAP
280
     0
  9
$OBSCOLOR
 70
   257
  9
$OBSLTYPE
280
     0
  9
$INTERSECTIONDISPLAY
280
     0
  9
$INTERSECTIONCOLOR
 70
   257
  9
$DIMASSOC
280
     2
  9
$PROJECTNAME
  1

  9
$CAMERADISPLAY
290
     0
  9
$LENSLENGTH
 40
50.0
  9
$CAMERAHEIGHT
 40
0.0
  9
$STEPSPERSEC
 40
2.0
  9
$STEPSIZE
 40
6.0
  9
$3DDWFPREC
 40
2.0
  9
$PSOLWIDTH
 40
0.25
  9
$PSOLHEIGHT
 40
4.0
  9
$LOFTANG1
 40
1.570796326794896
  9
$LOFTANG2
 40
1.570796326794896
  9
$LOFTMAG1
 40
0.0
  9
$LOFTMAG2
 40
0.0
  9
$LOFTPARAM
 70
     7
  9
$LOFTNORMALS
280
     1
  9
$LATITUDE
 40
37.795
  9
$LONGITUDE
 40
-122.394
  9
$NORTHDIRECTION
 40
0.0
  9
$TIMEZONE
 70
 -8000
  9
$LIGHTGLYPHDISPLAY
280
     1
  9
$TILEMODELIGHTSYNCH
280
     1
  9
$CMATERIAL
347
11
  9
$SOLIDHIST
280
     0
  9
$SHOWHIST
280
     1
  9
$DWFFRAME
280
     2
  9
$DGNFRAME
280
     0
  9
$REALWORLDSCALE
290
     1
  9
$INTERFERECOLOR
 62
     1
  9
$INTERFEREOBJVS
345
33
  9
$INTERFEREVPVS
346
30
  9
$CSHADOW
280
     0
  9
$SHADOWPLANELOCATION
 40
0.0
  0
ENDSEC
  0
SECTION
  2
CLASSES
  0
CLASS
  1
ACDBDICTIONARYWDFLT
  2
AcDbDictionaryWithDefault
  3
ObjectDBX Classes
 90
        0
 91
        1
280
     0
281
     0
  0
CLASS
  1
MATERIAL
  2
AcDbMaterial
  3
ObjectDBX Classes
 90
     1153
 91
        3
280
     0
281
     0
  0
CLASS
  1
VISUALSTYLE
  2
AcDbVisualStyle
  3
ObjectDBX Classes
 90
     4095
 91
       24
280
     0
281
     0
  0
CLASS
  1
SCALE
  2
AcDbScale
  3
ObjectDBX Classes
 90
     1153
 91
       17
280
     0
281
     0
  0
CLASS
  1
TABLESTYLE
  2
AcDbTableStyle
  3
ObjectDBX Classes
 90
     4095
 91
        1
280
     0
281
     0
  0
CLASS
  1
MLEADERSTYLE
  2
AcDbMLeaderStyle
  3
ACDB_MLEADERSTYLE_CLASS
 90
     4095
 91
        1
280
     0
281
     0
  0
CLASS
  1
ACDBSECTIONVIEWSTYLE
  2
AcDbSectionViewStyle
  3
ObjectDBX Classes
 90
     1025
 91
        1
280
     0
281
     0
  0
CLASS
  1
ACDBDETAILVIEWSTYLE
  2
AcDbDetailViewStyle
  3
ObjectDBX Classes
 90
     1025
 91
        1
280
     0
281
     0
  0
CLASS
  1
DICTIONARYVAR
  2
AcDbDictionaryVar
  3
ObjectDBX Classes
 90
        0
 91
        5
280
     0
281
     0
  0
CLASS
  1
CELLSTYLEMAP
  2
AcDbCellStyleMap
  3
ObjectDBX Classes
 90
     1152
 91
        1
280
     0
281
     0
  0
ENDSEC
  0
SECTION
  2
TABLES
  0
TABLE
  2
VPORT
  5
8
330
0
100
AcDbSymbolTable
 70
     1
  0
VPORT
  5
57
330
8
100
AcDbSymbolTableRecord
100
AcDbViewportTableRecord
  2
*Active
 70
     0
 10
0.0
 20
0.0
 11
1.0
 21
1.0
 12
0.0
 22
0.0
 13
0.0
 23
0.0
 14
1.0
 24
1.0
 15
0.0
 25
0.0
 16
0.0
 26
0.0
 36
1.0
 17
7.340277777777776
 27
9.909722222222221
 37
0.0
 40
21.34916666666667
 41
1.463171864631718
 42
50.0
 43
0.0
 44
0.0
 50
0.0
 51
0.0
 71
     0
 72
   100
 73
     1
 74
     1
 75
     0
 76
     0
 77
     0
 78
     0
281
     0
 65
     1
110
0.0
120
0.0
130
0.0
111
1.0
121
0.0
131
0.0
112
0.0
122
1.0
132
0.0
 79
     0
146
0.0
 60
     3
 61
     5
292
     1
282
     1
141
0.0
142
0.0
 63
   250
421
  3355443
  0
ENDTAB
  0
TABLE
  2
LTYPE
  5
5
330
0
100
AcDbSymbolTable
 70
     1
  0
LTYPE
  5
5B
330
5
100
AcDbSymbolTableRecord
100
AcDbLinetypeTableRecord
  2
ByBlock
 70
     0
  3

 72
    65
 73
     0
 40
0.0
  0
LTYPE
  5
5C
330
5
100
AcDbSymbolTableRecord
100
AcDbLinetypeTableRecord
  2
ByLayer
 70
     0
  3

 72
    65
 73
     0
 40
0.0
  0
LTYPE
  5
5D
330
5
100
AcDbSymbolTableRecord
100
AcDbLinetypeTableRecord
  2
Continuous
 70
     0
  3
Solid line
 72
    65
 73
     0
 40
0.0
  0
ENDTAB
  0
TABLE
  2
LAYER
  5
2
330
0
100
AcDbSymbolTable
 70
     3
  0
LAYER
  5
54
330
2
100
AcDbSymbolTableRecord
100
AcDbLayerTableRecord
  2
0
 70
     0
 62
     7
  6
Continuous
370
    -3
390
F
347
21
348
0
  0
LAYER
  5
78
330
2
100
AcDbSymbolTableRecord
100
AcDbLayerTableRecord
  2
Layer 1
 70
     0
 62
     7
  6
Continuous
370
     0
390
F
347
21
348
0
  0
LAYER
  5
C0
330
2
100
AcDbSymbolTableRecord
100
AcDbLayerTableRecord
  2
Layer 2
 70
     0
 62
     7
  6
Continuous
370
     0
390
F
347
21
348
0
  0
ENDTAB
  0
TABLE
  2
STYLE
  5
3
330
0
100
AcDbSymbolTable
 70
     2
  0
STYLE
  5
55
330
3
100
AcDbSymbolTableRecord
100
AcDbTextStyleTableRecord
  2
Standard
 70
     0
 40
0.0
 41
1.0
 50
0.0
 71
     0
 42
0.2
  3
txt
  4

  0
STYLE
  5
5A
330
3
100
AcDbSymbolTableRecord
100
AcDbTextStyleTableRecord
  2
Annotative
 70
     0
 40
0.0
 41
1.0
 50
0.0
 71
     0
 42
0.2
  3
txt
  4

1001
AcadAnnotative
1000
AnnotativeData
1002
{
1070
     1
1070
     1
1002
}
  0
ENDTAB
  0
TABLE
  2
VIEW
  5
6
330
0
100
AcDbSymbolTable
 70
     0
  0
ENDTAB
  0
TABLE
  2
UCS
  5
7
330
0
100
AcDbSymbolTable
 70
     0
  0
ENDTAB
  0
TABLE
  2
APPID
  5
9
330
0
100
AcDbSymbolTable
 70
     2
  0
APPID
  5
56
330
9
100
AcDbSymbolTableRecord
100
AcDbRegAppTableRecord
  2
ACAD
 70
     0
  0
APPID
  5
5E
330
9
100
AcDbSymbolTableRecord
100
AcDbRegAppTableRecord
  2
AcadAnnotative
 70
     0
  0
ENDTAB
  0
TABLE
  2
DIMSTYLE
  5
A
330
0
100
AcDbSymbolTable
 70
     2
100
AcDbDimStyleTable
 71
     0
  0
DIMSTYLE
105
58
330
A
100
AcDbSymbolTableRecord
100
AcDbDimStyleTableRecord
  2
Standard
 70
     0
340
55
  0
DIMSTYLE
105
59
330
A
100
AcDbSymbolTableRecord
100
AcDbDimStyleTableRecord
  2
Annotative
 70
     0
340
55
1001
AcadAnnotative
1000
AnnotativeData
1002
{
1070
     1
1070
     1
1002
}
  0
ENDTAB
  0
TABLE
  2
BLOCK_RECORD
  5
1
330
0
100
AcDbSymbolTable
 70
     3
  0
BLOCK_RECORD
  5
70
330
1
100
AcDbSymbolTableRecord
100
AcDbBlockTableRecord
  2
*Model_Space
340
73
 70
     0
280
     1
281
     0
  0
BLOCK_RECORD
  5
6C
330
1
100
AcDbSymbolTableRecord
100
AcDbBlockTableRecord
  2
*Paper_Space
340
6F
 70
     0
280
     1
281
     0
  0
BLOCK_RECORD
  5
74
330
1
100
AcDbSymbolTableRecord
100
AcDbBlockTableRecord
  2
*Paper_Space0
340
77
 70
     0
280
     1
281
     0
  0
BLOCK_RECORD
  5
93
330
1
100
AcDbSymbolTableRecord
100
AcDbBlockTableRecord
  2
Block_0
340
0
102
{BLKREFS
331
94
102
}
 70
     0
280
     1
281
     0
  0
BLOCK_RECORD
  5
C1
330
1
100
AcDbSymbolTableRecord
100
AcDbBlockTableRecord
  2
Block_1
340
0
102
{BLKREFS
331
C2
102
}
 70
     0
280
     1
281
     0
  0
ENDTAB
  0
ENDSEC
  0
SECTION
  2
BLOCKS
  0
BLOCK
  5
71
330
70
100
AcDbEntity
  8
0
100
AcDbBlockBegin
  2
*Model_Space
 70
     0
 10
0.0
 20
0.0
 30
0.0
  3
*Model_Space
  1

  0
ENDBLK
  5
72
330
70
100
AcDbEntity
  8
0
100
AcDbBlockEnd
  0
BLOCK
  5
6D
330
6C
100
AcDbEntity
 67
     1
  8
0
100
AcDbBlockBegin
  2
*Paper_Space
 70
     0
 10
0.0
 20
0.0
 30
0.0
  3
*Paper_Space
  1

  0
ENDBLK
  5
6E
330
6C
100
AcDbEntity
 67
     1
  8
0
100
AcDbBlockEnd
  0
BLOCK
  5
75
330
74
100
AcDbEntity
 67
     1
  8
0
100
AcDbBlockBegin
  2
*Paper_Space0
 70
     0
 10
0.0
 20
0.0
 30
0.0
  3
*Paper_Space0
  1

  0
ENDBLK
  5
76
330
74
100
AcDbEntity
 67
     1
  8
0
100
AcDbBlockEnd
  0
BLOCK
  5
95
330
93
100
AcDbEntity
  8
0
100
AcDbBlockBegin
  2
Block_0
 70
     0
 10
0.0
 20
0.0
 30
0.0
  3
Block_0
  1

  0
LINE
  5
97
330
93
100
AcDbEntity
  8
Layer 1
 62
    18
420
        0
370
    15
100
AcDbLine
 10
-3.294983425177734
 20
18.74335082372027
 30
0.0
 11
16.38834916220763
 21
18.74335082372027
 31
0.0
  0
LWPOLYLINE
  5
98
330
93
100
AcDbEntity
  8
Layer 1
100
AcDbPolyline
 90
        4
 70
     1
 43
0.0
 10
16.38418351279362
 20
18.74751732084486
 10
16.38418351279362
 20
18.73835017946027
 10
-3.294983492957321
 20
18.73835017946027
 10
-3.294983492957321
 20
18.74751732084486
  0
ENDBLK
  5
96
330
93
100
AcDbEntity
  8
0
100
AcDbBlockEnd
  0
BLOCK
  5
C3
330
C1
100
AcDbEntity
  8
0
100
AcDbBlockBegin
  2
Block_1
 70
     0
 10
0.0
 20
0.0
 30
0.0
  3
Block_1
  1

  0
SPLINE
  5
C5
330
C1
100
AcDbEntity
  8
Layer 2
100
AcDbSpline
210
0.0
220
0.0
230
1.0
 70
     9
 71
     3
 72
    17
 73
    13
 74
     0
 42
0.0000000001
 43
0.0000000001
 40
0.0
 40
0.0
 40
0.0
 40
0.0
 40
1.0
 40
1.0
 40
1.0
 40
2.0
 40
2.0
 40
2.0
 40
3.0
 40
3.0
 40
3.0
 40
4.0
 40
4.0
 40
4.0
 40
4.0
 10
-7.198026908763962
 20
0.6041537224368514
 30
0.0
 10
-7.423981598643169
 20
0.6041537224368514
 30
0.0
 10
-7.607857528328205
 20
0.4202774609983761
 30
0.0
 10
-7.607857528328205
 20
0.1942366811358372
 30
0.0
 10
-7.607857528328205
 20
-0.0317589802768655
 30
0.0
 10
-7.423981598643169
 20
-0.2156352417151134
 30
0.0
 10
-7.198026908763962
 20
-0.2156352417151134
 30
0.0
 10
-6.971986958284585
 20
-0.2156352417151134
 30
0.0
 10
-6.788111028599587
 20
-0.0317589802768655
 30
0.0
 10
-6.788111028599587
 20
0.1942366811358372
 30
0.0
 10
-6.788111028599587
 20
0.4202774609983761
 30
0.0
 10
-6.971986958284585
 20
0.6041537224368514
 30
0.0
 10
-7.198026908763962
 20
0.6041537224368514
 30
0.0
  0
SPLINE
  5
C6
330
C1
100
AcDbEntity
  8
Layer 2
100
AcDbSpline
210
0.0
220
0.0
230
1.0
 70
     9
 71
     3
 72
    17
 73
    13
 74
     0
 42
0.0000000001
 43
0.0000000001
 40
0.0
 40
0.0
 40
0.0
 40
0.0
 40
1.0
 40
1.0
 40
1.0
 40
2.0
 40
2.0
 40
2.0
 40
3.0
 40
3.0
 40
3.0
 40
4.0
 40
4.0
 40
4.0
 40
4.0
 10
-7.198026908763962
 20
-0.2389561722492191
 30
0.0
 10
-7.436856778647147
 20
-0.2389561722492191
 30
0.0
 10
-7.631177712417284
 20
-0.0446336626509947
 30
0.0
 10
-7.631177712417284
 20
0.1942366811358372
 30
0.0
 10
-7.631177712417284
 20
0.4331521433725053
 30
0.0
 10
-7.436856778647147
 20
0.6275171173943414
 30
0.0
 10
-7.198026908763962
 20
0.6275171173943414
 30
0.0
 10
-6.959154574457341
 20
0.6275171173943414
 30
0.0
 10
-6.76479092744882
 20
0.4331521433725053
 30
0.0
 10
-6.76479092744882
 20
0.1942366811358372
 30
0.0
 10
-6.76479092744882
 20
-0.0446336626509947
 30
0.0
 10
-6.959154574457341
 20
-0.2389561722492191
 30
0.0
 10
-7.198026908763962
 20
-0.2389561722492191
 30
0.0
  0
HATCH
  5
C7
330
C1
100
AcDbEntity
  8
Layer 2
 62
   250
420
  2170655
440
 33554687
100
AcDbHatch
 10
0.0
 20
0.0
 30
0.0
210
0.0
220
0.0
230
1.0
  2
SOLID
 70
     1
 71
     1
 91
        2
 92
        1
 93
        2
 72
     4
 94
        3
 73
     0
 74
     0
 95
       17
 96
       13
 40
0.0
 40
0.0
 40
0.0
 40
0.0
 40
1.0
 40
1.0
 40
1.0
 40
2.0
 40
2.0
 40
2.0
 40
3.0
 40
3.0
 40
3.0
 40
4.0
 40
4.0
 40
4.0
 40
4.0
 10
-7.198026908763962
 20
0.6041537224368514
 10
-7.423981598643169
 20
0.6041537224368514
 10
-7.607857528328205
 20
0.4202774609983761
 10
-7.607857528328205
 20
0.1942366811358372
 10
-7.607857528328205
 20
-0.0317589802768655
 10
-7.423981598643169
 20
-0.2156352417151134
 10
-7.198026908763962
 20
-0.2156352417151134
 10
-6.971986958284585
 20
-0.2156352417151134
 10
-6.788111028599587
 20
-0.0317589802768655
 10
-6.788111028599587
 20
0.1942366811358372
 10
-6.788111028599587
 20
0.4202774609983761
 10
-6.971986958284585
 20
0.6041537224368514
 10
-7.198026908763962
 20
0.6041537224368514
 97
        0
 72
     1
 10
-7.198026908763962
 20
0.6041537224368514
 11
-7.198026908763962
 21
0.6041537224368514
 97
        0
 92
        1
 93
        2
 72
     4
 94
        3
 73
     0
 74
     0
 95
       17
 96
       13
 40
0.0
 40
0.0
 40
0.0
 40
0.0
 40
1.0
 40
1.0
 40
1.0
 40
2.0
 40
2.0
 40
2.0
 40
3.0
 40
3.0
 40
3.0
 40
4.0
 40
4.0
 40
4.0
 40
4.0
 10
-7.198026908763962
 20
-0.2389561722492191
 10
-7.436856778647147
 20
-0.2389561722492191
 10
-7.631177712417284
 20
-0.0446336626509947
 10
-7.631177712417284
 20
0.1942366811358372
 10
-7.631177712417284
 20
0.4331521433725053
 10
-7.436856778647147
 20
0.6275171173943414
 10
-7.198026908763962
 20
0.6275171173943414
 10
-6.959154574457341
 20
0.6275171173943414
 10
-6.76479092744882
 20
0.4331521433725053
 10
-6.76479092744882
 20
0.1942366811358372
 10
-6.76479092744882
 20
-0.0446336626509947
 10
-6.959154574457341
 20
-0.2389561722492191
 10
-7.198026908763962
 20
-0.2389561722492191
 97
        0
 72
     1
 10
-7.198026908763962
 20
-0.2389561722492191
 11
-7.198026908763962
 21
-0.2389561722492191
 97
        0
 75
     2
 76
     1
 98
        1
 10
0.0
 20
0.0
450
        0
451
        0
460
0.0
461
0.0
452
        0
462
0.0
453
        0
470

  0
LWPOLYLINE
  5
C8
330
C1
100
AcDbEntity
  8
Layer 2
100
AcDbPolyline
 90
        8
 70
     1
 43
0.0
 10
-7.387427526285907
 20
0.2218650966200736
 10
-7.387427526285907
 20
0.3868128413212414
 10
-7.436029137082249
 20
0.3868128413212414
 10
-7.436029137082249
 20
0.0111725517952992
 10
-7.387427526285907
 20
0.0111725517952992
 10
-7.387427526285907
 20
0.1776543237924165
 10
-7.333496796227715
 20
0.1776543237924165
 10
-7.333496796227715
 20
0.2218650966200736
  0
HATCH
  5
C9
330
C1
100
AcDbEntity
  8
Layer 2
 62
   250
420
  2170655
440
 33554687
100
AcDbHatch
 10
0.0
 20
0.0
 30
0.0
210
0.0
220
0.0
230
1.0
  2
SOLID
 70
     1
 71
     1
 91
        1
 92
        1
 93
        8
 72
     1
 10
-7.387427526285907
 20
0.2218650966200736
 11
-7.387427526285907
 21
0.3868128413212414
 72
     1
 10
-7.387427526285907
 20
0.3868128413212414
 11
-7.436029137082249
 21
0.3868128413212414
 72
     1
 10
-7.436029137082249
 20
0.3868128413212414
 11
-7.436029137082249
 21
0.0111725517952992
 72
     1
 10
-7.436029137082249
 20
0.0111725517952992
 11
-7.387427526285907
 21
0.0111725517952992
 72
     1
 10
-7.387427526285907
 20
0.0111725517952992
 11
-7.387427526285907
 21
0.1776543237924165
 72
     1
 10
-7.387427526285907
 20
0.1776543237924165
 11
-7.333496796227715
 21
0.1776543237924165
 72
     1
 10
-7.333496796227715
 20
0.1776543237924165
 11
-7.333496796227715
 21
0.2218650966200736
 72
     1
 10
-7.333496796227715
 20
0.2218650966200736
 11
-7.387427526285907
 21
0.2218650966200736
 97
        1
330
C8
 75
     2
 76
     1
 98
        1
 10
0.0
 20
0.0
450
        0
451
        0
460
0.0
461
0.0
452
        0
462
0.0
453
        0
470

  0
LWPOLYLINE
  5
CA
330
C1
100
AcDbEntity
  8
Layer 2
100
AcDbPolyline
 90
        8
 70
     1
 43
0.0
 10
-7.007939230141308
 20
0.2218650966200736
 10
-7.007939230141308
 20
0.3868128413212414
 10
-6.959380166706737
 20
0.3868128413212414
 10
-6.959380166706737
 20
0.0111725517952992
 10
-7.007939230141308
 20
0.0111725517952992
 10
-7.007939230141308
 20
0.1776543237924165
 10
-7.061784616661055
 20
0.1776543237924165
 10
-7.061784616661055
 20
0.2218650966200736
  0
HATCH
  5
CB
330
C1
100
AcDbEntity
  8
Layer 2
 62
   250
420
  2170655
440
 33554687
100
AcDbHatch
 10
0.0
 20
0.0
 30
0.0
210
0.0
220
0.0
230
1.0
  2
SOLID
 70
     1
 71
     1
 91
        1
 92
        1
 93
        8
 72
     1
 10
-7.007939230141308
 20
0.2218650966200736
 11
-7.007939230141308
 21
0.3868128413212414
 72
     1
 10
-7.007939230141308
 20
0.3868128413212414
 11
-6.959380166706737
 21
0.3868128413212414
 72
     1
 10
-6.959380166706737
 20
0.3868128413212414
 11
-6.959380166706737
 21
0.0111725517952992
 72
     1
 10
-6.959380166706737
 20
0.0111725517952992
 11
-7.007939230141308
 21
0.0111725517952992
 72
     1
 10
-7.007939230141308
 20
0.0111725517952992
 11
-7.007939230141308
 21
0.1776543237924165
 72
     1
 10
-7.007939230141308
 20
0.1776543237924165
 11
-7.061784616661055
 21
0.1776543237924165
 72
     1
 10
-7.061784616661055
 20
0.1776543237924165
 11
-7.061784616661055
 21
0.2218650966200736
 72
     1
 10
-7.061784616661055
 20
0.2218650966200736
 11
-7.007939230141308
 21
0.2218650966200736
 97
        1
330
CA
 75
     2
 76
     1
 98
        1
 10
0.0
 20
0.0
450
        0
451
        0
460
0.0
461
0.0
452
        0
462
0.0
453
        0
470

  0
SPLINE
  5
CC
330
C1
100
AcDbEntity
  8
Layer 2
100
AcDbSpline
210
0.0
220
0.0
230
1.0
 70
     9
 71
     3
 72
   155
 73
   151
 74
     0
 42
0.0000000001
 43
0.0000000001
 40
0.0
 40
0.0
 40
0.0
 40
0.0
 40
1.0
 40
1.0
 40
1.0
 40
2.0
 40
2.0
 40
2.0
 40
3.0
 40
3.0
 40
3.0
 40
4.0
 40
4.0
 40
4.0
 40
5.0
 40
5.0
 40
5.0
 40
6.0
 40
6.0
 40
6.0
 40
7.0
 40
7.0
 40
7.0
 40
8.0
 40
8.0
 40
8.0
 40
9.0
 40
9.0
 40
9.0
 40
10.0
 40
10.0
 40
10.0
 40
11.0
 40
11.0
 40
11.0
 40
12.0
 40
12.0
 40
12.0
 40
13.0
 40
13.0
 40
13.0
 40
14.0
 40
14.0
 40
14.0
 40
15.0
 40
15.0
 40
15.0
 40
16.0
 40
16.0
 40
16.0
 40
17.0
 40
17.0
 40
17.0
 40
18.0
 40
18.0
 40
18.0
 40
19.0
 40
19.0
 40
19.0
 40
20.0
 40
20.0
 40
20.0
 40
21.0
 40
21.0
 40
21.0
 40
22.0
 40
22.0
 40
22.0
 40
23.0
 40
23.0
 40
23.0
 40
24.0
 40
24.0
 40
24.0
 40
25.0
 40
25.0
 40
25.0
 40
26.0
 40
26.0
 40
26.0
 40
27.0
 40
27.0
 40
27.0
 40
28.0
 40
28.0
 40
28.0
 40
29.0
 40
29.0
 40
29.0
 40
30.0
 40
30.0
 40
30.0
 40
31.0
 40
31.0
 40
31.0
 40
32.0
 40
32.0
 40
32.0
 40
33.0
 40
33.0
 40
33.0
 40
34.0
 40
34.0
 40
34.0
 40
35.0
 40
35.0
 40
35.0
 40
36.0
 40
36.0
 40
36.0
 40
37.0
 40
37.0
 40
37.0
 40
38.0
 40
38.0
 40
38.0
 40
39.0
 40
39.0
 40
39.0
 40
40.0
 40
40.0
 40
40.0
 40
41.0
 40
41.0
 40
41.0
 40
42.0
 40
42.0
 40
42.0
 40
43.0
 40
43.0
 40
43.0
 40
44.0
 40
44.0
 40
44.0
 40
45.0
 40
45.0
 40
45.0
 40
46.0
 40
46.0
 40
46.0
 40
47.0
 40
47.0
 40
47.0
 40
48.0
 40
48.0
 40
48.0
 40
49.0
 40
49.0
 40
49.0
 40
50.0
 40
50.0
 40
50.0
 40
50.0
 10
-7.070328176661746
 20
0.1518969969650293
 30
0.0
 10
-7.077448017341516
 20
0.1660933845177826
 30
0.0
 10
-7.08725348398722
 20
0.1781585888205781
 30
0.0
 10
-7.099190631513073
 20
0.188050145449501
 30
0.0
 10
-7.110744272214938
 20
0.1975568682416148
 30
0.0
 10
-7.123875151081013
 20
0.20522965874741
 30
0.0
 10
-7.138583599864595
 20
0.2109437777230596
 30
0.0
 10
-7.152354016170066
 20
0.2162305984382126
 30
0.0
 10
-7.166635996076276
 20
0.2204080360915365
 30
0.0
 10
-7.180704907420489
 20
0.2243306872045296
 30
0.0
 10
-7.192130491345525
 20
0.2275287890928818
 30
0.0
 10
-7.200870283427889
 20
0.2305968436846544
 30
0.0
 10
-7.215109633034039
 20
0.2353714372923656
 30
0.0
 10
-7.227260097936891
 20
0.239166695134928
 30
0.0
 10
-7.238515243599951
 20
0.2437289666256422
 30
0.0
 10
-7.248491314384282
 20
0.2492705738812522
 30
0.0
 10
-7.25765740946733
 20
0.2546423234431737
 30
0.0
 10
-7.265288647871241
 20
0.2615056358776352
 30
0.0
 10
-7.270916179233583
 20
0.2693509381034952
 30
0.0
 10
-7.276117490533628
 20
0.2768114064919902
 30
0.0
 10
-7.27867547441436
 20
0.2866604986978069
 30
0.0
 10
-7.27867547441436
 20
0.2985531912802596
 30
0.0
 10
-7.27867547441436
 20
0.306695744470062
 30
0.0
 10
-7.277183330973634
 20
0.3147109043895853
 30
0.0
 10
-7.274156330853833
 20
0.3223014200749629
 30
0.0
 10
-7.271172043972328
 20
0.3296344951934063
 30
0.0
 10
-7.266482379211462
 20
0.3365402720513278
 30
0.0
 10
-7.26013013274793
 20
0.3425516419909198
 30
0.0
 10
-7.253607199207496
 20
0.3486904052007402
 30
0.0
 10
-7.245123271863879
 20
0.3536773209255494
 30
0.0
 10
-7.235147201079522
 20
0.3574725787680866
 30
0.0
 10
-7.224574140217605
 20
0.3613527654577461
 30
0.0
 10
-7.211826934052118
 20
0.3632291621674236
 30
0.0
 10
-7.197203911745329
 20
0.3632291621674236
 30
0.0
 10
-7.183774454902099
 20
0.3632291621674236
 30
0.0
 10
-7.172263610376969
 20
0.3618649925651374
 30
0.0
 10
-7.162415430492842
 20
0.3593065110544305
 30
0.0
 10
-7.15269505857058
 20
0.3564932430032159
 30
0.0
 10
-7.144125787688481
 20
0.3532951411148133
 30
0.0
 10
-7.136920852285255
 20
0.3491177034612873
 30
0.0
 10
-7.13022748048287
 20
0.3452375167718805
 30
0.0
 10
-7.124045672281289
 20
0.3406752452812421
 30
0.0
 10
-7.118972417758122
 20
0.3359431160969153
 30
0.0
 10
-7.113643298496273
 20
0.330698759805197
 30
0.0
 10
-7.109550457936329
 20
0.3261391423411876
 30
0.0
 10
-7.106438280154697
 20
0.3220864439315139
 30
0.0
 10
-7.106438280154697
 20
0.3220864439315139
 30
0.0
 10
-7.100256554891441
 20
0.3136891042012545
 30
0.0
 10
-7.100256554891441
 20
0.3136891042012545
 30
0.0
 10
-7.100256554891441
 20
0.3136891042012545
 30
0.0
 10
-7.065425443338881
 20
0.3433186556388439
 30
0.0
 10
-7.065425443338881
 20
0.3433186556388439
 30
0.0
 10
-7.065425443338881
 20
0.3433186556388439
 30
0.0
 10
-7.070754562600793
 20
0.3507366596040558
 30
0.0
 10
-7.070754562600793
 20
0.3507366596040558
 30
0.0
 10
-7.075017758484287
 20
0.3565781718500097
 30
0.0
 10
-7.080773346623509
 20
0.3629717216002872
 30
0.0
 10
-7.087978282026748
 20
0.3700500101783493
 30
0.0
 10
-7.095055326529783
 20
0.376955787036195
 30
0.0
 10
-7.103795118612108
 20
0.383179479092885
 30
0.0
 10
-7.114112231797005
 20
0.3890209913388136
 30
0.0
 10
-7.123875151081013
 20
0.3943927409008109
 30
0.0
 10
-7.135897642145285
 20
0.3991248700850873
 30
0.0
 10
-7.149540250488838
 20
0.4030899856212879
 30
0.0
 10
-7.163012254693827
 20
0.4067578501938493
 30
0.0
 10
-7.178701200378971
 20
0.4085891284534884
 30
0.0
 10
-7.195967467166698
 20
0.4085891284534884
 30
0.0
 10
-7.21613284317406
 20
0.4085891284534884
 30
0.0
 10
-7.234507746578501
 20
0.4057758604022992
 30
0.0
 10
-7.250495021425826
 20
0.4002342531466639
 30
0.0
 10
-7.266482379211462
 20
0.3946926458910537
 30
0.0
 10
-7.280338139055388
 20
0.3868048792417842
 30
0.0
 10
-7.291678462380218
 20
0.376955787036195
 30
0.0
 10
-7.303189306905387
 20
0.3671942777037
 30
0.0
 10
-7.312056989887928
 20
0.3552140022479256
 30
0.0
 10
-7.318068276889284
 20
0.3419544860366841
 30
0.0
 10
-7.323951672990359
 20
0.3284826477084203
 30
0.0
 10
-7.326978590171872
 20
0.3143287245788239
 30
0.0
 10
-7.326978590171872
 20
0.299789967612393
 30
0.0
 10
-7.326978590171872
 20
0.2787302676251531
 30
0.0
 10
-7.322971093150449
 20
0.2610385272201054
 30
0.0
 10
-7.314870755569144
 20
0.2469270685139943
 30
0.0
 10
-7.306685240325994
 20
0.2334101117358437
 30
0.0
 10
-7.29619752300247
 20
0.2221145751075508
 30
0.0
 10
-7.283450316837034
 20
0.2135022592337918
 30
0.0
 10
-7.271342565172605
 20
0.2049748722069024
 30
0.0
 10
-7.257060502328006
 20
0.1982389530426442
 30
0.0
 10
-7.241243665742659
 20
0.1929945967509765
 30
0.0
 10
-7.227132207036699
 20
0.1882200031431896
 30
0.0
 10
-7.217923398715255
 20
0.1848945079846089
 30
0.0
 10
-7.201083434928237
 20
0.1796926161163507
 30
0.0
 10
-7.189061026802252
 20
0.1760698699938024
 30
0.0
 10
-7.177038452799642
 20
0.1723170765744221
 30
0.0
 10
-7.16548489503614
 20
0.1680547100743044
 30
0.0
 10
-7.15444306675004
 20
0.164089594537826
 30
0.0
 10
-7.144552173627503
 20
0.1589752855429651
 30
0.0
 10
-7.136110876583958
 20
0.1528338683065916
 30
0.0
 10
-7.12779747044063
 20
0.1464827829796478
 30
0.0
 10
-7.121146645999955
 20
0.1388949213206969
 30
0.0
 10
-7.116329090338922
 20
0.1303250698703727
 30
0.0
 10
-7.111426357016019
 20
0.1217976828435086
 30
0.0
 10
-7.108911003435296
 20
0.1107993971791075
 30
0.0
 10
-7.108911003435296
 20
0.0982644301923301
 30
0.0
 10
-7.108911003435296
 20
0.0864115480065822
 30
0.0
 10
-7.111170492277298
 20
0.0757105133060728
 30
0.0
 10
-7.115561744937672
 20
0.0664612310811966
 30
0.0
 10
-7.120251409698526
 20
0.0573366881000463
 30
0.0
 10
-7.126433134961782
 20
0.0498762197112986
 30
0.0
 10
-7.134192347204248
 20
0.04420721918546
 30
0.0
 10
-7.142335232147337
 20
0.0380233375256012
 30
0.0
 10
-7.152439276770159
 20
0.0332912083414764
 30
0.0
 10
-7.163822230395137
 20
0.0302656181732143
 30
0.0
 10
-7.175375788158627
 20
0.0271099807080696
 30
0.0
 10
-7.188506749963013
 20
0.0252760484219784
 30
0.0
 10
-7.20295925106955
 20
0.0252760484219784
 30
0.0
 10
-7.227942182737983
 20
0.0252760484219784
 30
0.0
 10
-7.249088138585269
 20
0.0301806893263448
 30
0.0
 10
-7.266013445910718
 20
0.0393025782810683
 30
0.0
 10
-7.282427106697063
 20
0.0484271212621681
 30
0.0
 10
-7.296837060441854
 20
0.0601074917278513
 30
0.0
 10
-7.30894481210627
 20
0.0741340215869665
 30
0.0
 10
-7.30894481210627
 20
0.0741340215869665
 30
0.0
 10
-7.343989075159178
 20
0.0404119613426701
 30
0.0
 10
-7.343989075159178
 20
0.0404119613426701
 30
0.0
 10
-7.338446887335281
 20
0.033421255638157
 30
0.0
 10
-7.331753432594545
 20
0.0265128247538592
 30
0.0
 10
-7.323781151790058
 20
0.0199042988600064
 30
0.0
 10
-7.314657604068795
 20
0.0123164372010807
 30
0.0
 10
-7.30382892728307
 20
0.0054106603431339
 30
0.0
 10
-7.291465310879882
 20
-0.0006007095963822
 30
0.0
 10
-7.279655971315946
 20
-0.0065271506891552
 30
0.0
 10
-7.266141336810947
 20
-0.011259279873482
 30
0.0
 10
-7.251049215326727
 20
-0.0152243954097584
 30
0.0
 10
-7.236085067681035
 20
-0.0186348194153854
 30
0.0
 10
-7.219841928094991
 20
-0.0205961449716546
 30
0.0
 10
-7.20295925106955
 20
-0.0205961449716546
 30
0.0
 10
-7.183433412501547
 20
-0.0205961449716546
 30
0.0
 10
-7.164717549634865
 20
-0.0179951990375887
 30
0.0
 10
-7.147408569608753
 20
-0.0125385206287471
 30
0.0
 10
-7.129971615744125
 20
-0.0071243066433908
 30
0.0
 10
-7.1147517692364
 20
0.0006785311590092
 30
0.0
 10
-7.101620807431951
 20
0.0108248743285155
 30
0.0
 10
-7.08874562742796
 20
0.0210136819216587
 30
0.0
 10
-7.078385883943016
 20
0.0335061844850012
 30
0.0
 10
-7.070626754638864
 20
0.0481272162719254
 30
0.0
 10
-7.062867376519799
 20
0.0630508070756959
 30
0.0
 10
-7.059073030998685
 20
0.0798906049860509
 30
0.0
 10
-7.059073030998685
 20
0.0982644301923301
 30
0.0
 10
-7.059073030998685
 20
0.1192816657561353
 30
0.0
 10
-7.062824829158052
 20
0.1374007044217301
 30
0.0
 10
-7.070328176661746
 20
0.1518969969650293
 30
0.0
  0
HATCH
  5
CD
330
C1
100
AcDbEntity
  8
Layer 2
 62
   250
420
  2170655
440
 33554687
100
AcDbHatch
 10
0.0
 20
0.0
 30
0.0
210
0.0
220
0.0
230
1.0
  2
SOLID
 70
     1
 71
     1
 91
        1
 92
        1
 93
        2
 72
     4
 94
        3
 73
     0
 74
     0
 95
      155
 96
      151
 40
0.0
 40
0.0
 40
0.0
 40
0.0
 40
1.0
 40
1.0
 40
1.0
 40
2.0
 40
2.0
 40
2.0
 40
3.0
 40
3.0
 40
3.0
 40
4.0
 40
4.0
 40
4.0
 40
5.0
 40
5.0
 40
5.0
 40
6.0
 40
6.0
 40
6.0
 40
7.0
 40
7.0
 40
7.0
 40
8.0
 40
8.0
 40
8.0
 40
9.0
 40
9.0
 40
9.0
 40
10.0
 40
10.0
 40
10.0
 40
11.0
 40
11.0
 40
11.0
 40
12.0
 40
12.0
 40
12.0
 40
13.0
 40
13.0
 40
13.0
 40
14.0
 40
14.0
 40
14.0
 40
15.0
 40
15.0
 40
15.0
 40
16.0
 40
16.0
 40
16.0
 40
17.0
 40
17.0
 40
17.0
 40
18.0
 40
18.0
 40
18.0
 40
19.0
 40
19.0
 40
19.0
 40
20.0
 40
20.0
 40
20.0
 40
21.0
 40
21.0
 40
21.0
 40
22.0
 40
22.0
 40
22.0
 40
23.0
 40
23.0
 40
23.0
 40
24.0
 40
24.0
 40
24.0
 40
25.0
 40
25.0
 40
25.0
 40
26.0
 40
26.0
 40
26.0
 40
27.0
 40
27.0
 40
27.0
 40
28.0
 40
28.0
 40
28.0
 40
29.0
 40
29.0
 40
29.0
 40
30.0
 40
30.0
 40
30.0
 40
31.0
 40
31.0
 40
31.0
 40
32.0
 40
32.0
 40
32.0
 40
33.0
 40
33.0
 40
33.0
 40
34.0
 40
34.0
 40
34.0
 40
35.0
 40
35.0
 40
35.0
 40
36.0
 40
36.0
 40
36.0
 40
37.0
 40
37.0
 40
37.0
 40
38.0
 40
38.0
 40
38.0
 40
39.0
 40
39.0
 40
39.0
 40
40.0
 40
40.0
 40
40.0
 40
41.0
 40
41.0
 40
41.0
 40
42.0
 40
42.0
 40
42.0
 40
43.0
 40
43.0
 40
43.0
 40
44.0
 40
44.0
 40
44.0
 40
45.0
 40
45.0
 40
45.0
 40
46.0
 40
46.0
 40
46.0
 40
47.0
 40
47.0
 40
47.0
 40
48.0
 40
48.0
 40
48.0
 40
49.0
 40
49.0
 40
49.0
 40
50.0
 40
50.0
 40
50.0
 40
50.0
 10
-7.070328176661746
 20
0.1518969969650293
 10
-7.077448017341516
 20
0.1660933845177826
 10
-7.08725348398722
 20
0.1781585888205781
 10
-7.099190631513073
 20
0.188050145449501
 10
-7.110744272214938
 20
0.1975568682416148
 10
-7.123875151081013
 20
0.20522965874741
 10
-7.138583599864595
 20
0.2109437777230596
 10
-7.152354016170066
 20
0.2162305984382126
 10
-7.166635996076276
 20
0.2204080360915365
 10
-7.180704907420489
 20
0.2243306872045296
 10
-7.192130491345525
 20
0.2275287890928818
 10
-7.200870283427889
 20
0.2305968436846544
 10
-7.215109633034039
 20
0.2353714372923656
 10
-7.227260097936891
 20
0.239166695134928
 10
-7.238515243599951
 20
0.2437289666256422
 10
-7.248491314384282
 20
0.2492705738812522
 10
-7.25765740946733
 20
0.2546423234431737
 10
-7.265288647871241
 20
0.2615056358776352
 10
-7.270916179233583
 20
0.2693509381034952
 10
-7.276117490533628
 20
0.2768114064919902
 10
-7.27867547441436
 20
0.2866604986978069
 10
-7.27867547441436
 20
0.2985531912802596
 10
-7.27867547441436
 20
0.306695744470062
 10
-7.277183330973634
 20
0.3147109043895853
 10
-7.274156330853833
 20
0.3223014200749629
 10
-7.271172043972328
 20
0.3296344951934063
 10
-7.266482379211462
 20
0.3365402720513278
 10
-7.26013013274793
 20
0.3425516419909198
 10
-7.253607199207496
 20
0.3486904052007402
 10
-7.245123271863879
 20
0.3536773209255494
 10
-7.235147201079522
 20
0.3574725787680866
 10
-7.224574140217605
 20
0.3613527654577461
 10
-7.211826934052118
 20
0.3632291621674236
 10
-7.197203911745329
 20
0.3632291621674236
 10
-7.183774454902099
 20
0.3632291621674236
 10
-7.172263610376969
 20
0.3618649925651374
 10
-7.162415430492842
 20
0.3593065110544305
 10
-7.15269505857058
 20
0.3564932430032159
 10
-7.144125787688481
 20
0.3532951411148133
 10
-7.136920852285255
 20
0.3491177034612873
 10
-7.13022748048287
 20
0.3452375167718805
 10
-7.124045672281289
 20
0.3406752452812421
 10
-7.118972417758122
 20
0.3359431160969153
 10
-7.113643298496273
 20
0.330698759805197
 10
-7.109550457936329
 20
0.3261391423411876
 10
-7.106438280154697
 20
0.3220864439315139
 10
-7.106438280154697
 20
0.3220864439315139
 10
-7.100256554891441
 20
0.3136891042012545
 10
-7.100256554891441
 20
0.3136891042012545
 10
-7.100256554891441
 20
0.3136891042012545
 10
-7.065425443338881
 20
0.3433186556388439
 10
-7.065425443338881
 20
0.3433186556388439
 10
-7.065425443338881
 20
0.3433186556388439
 10
-7.070754562600793
 20
0.3507366596040558
 10
-7.070754562600793
 20
0.3507366596040558
 10
-7.075017758484287
 20
0.3565781718500097
 10
-7.080773346623509
 20
0.3629717216002872
 10
-7.087978282026748
 20
0.3700500101783493
 10
-7.095055326529783
 20
0.376955787036195
 10
-7.103795118612108
 20
0.383179479092885
 10
-7.114112231797005
 20
0.3890209913388136
 10
-7.123875151081013
 20
0.3943927409008109
 10
-7.135897642145285
 20
0.3991248700850873
 10
-7.149540250488838
 20
0.4030899856212879
 10
-7.163012254693827
 20
0.4067578501938493
 10
-7.178701200378971
 20
0.4085891284534884
 10
-7.195967467166698
 20
0.4085891284534884
 10
-7.21613284317406
 20
0.4085891284534884
 10
-7.234507746578501
 20
0.4057758604022992
 10
-7.250495021425826
 20
0.4002342531466639
 10
-7.266482379211462
 20
0.3946926458910537
 10
-7.280338139055388
 20
0.3868048792417842
 10
-7.291678462380218
 20
0.376955787036195
 10
-7.303189306905387
 20
0.3671942777037
 10
-7.312056989887928
 20
0.3552140022479256
 10
-7.318068276889284
 20
0.3419544860366841
 10
-7.323951672990359
 20
0.3284826477084203
 10
-7.326978590171872
 20
0.3143287245788239
 10
-7.326978590171872
 20
0.299789967612393
 10
-7.326978590171872
 20
0.2787302676251531
 10
-7.322971093150449
 20
0.2610385272201054
 10
-7.314870755569144
 20
0.2469270685139943
 10
-7.306685240325994
 20
0.2334101117358437
 10
-7.29619752300247
 20
0.2221145751075508
 10
-7.283450316837034
 20
0.2135022592337918
 10
-7.271342565172605
 20
0.2049748722069024
 10
-7.257060502328006
 20
0.1982389530426442
 10
-7.241243665742659
 20
0.1929945967509765
 10
-7.227132207036699
 20
0.1882200031431896
 10
-7.217923398715255
 20
0.1848945079846089
 10
-7.201083434928237
 20
0.1796926161163507
 10
-7.189061026802252
 20
0.1760698699938024
 10
-7.177038452799642
 20
0.1723170765744221
 10
-7.16548489503614
 20
0.1680547100743044
 10
-7.15444306675004
 20
0.164089594537826
 10
-7.144552173627503
 20
0.1589752855429651
 10
-7.136110876583958
 20
0.1528338683065916
 10
-7.12779747044063
 20
0.1464827829796478
 10
-7.121146645999955
 20
0.1388949213206969
 10
-7.116329090338922
 20
0.1303250698703727
 10
-7.111426357016019
 20
0.1217976828435086
 10
-7.108911003435296
 20
0.1107993971791075
 10
-7.108911003435296
 20
0.0982644301923301
 10
-7.108911003435296
 20
0.0864115480065822
 10
-7.111170492277298
 20
0.0757105133060728
 10
-7.115561744937672
 20
0.0664612310811966
 10
-7.120251409698526
 20
0.0573366881000463
 10
-7.126433134961782
 20
0.0498762197112986
 10
-7.134192347204248
 20
0.04420721918546
 10
-7.142335232147337
 20
0.0380233375256012
 10
-7.152439276770159
 20
0.0332912083414764
 10
-7.163822230395137
 20
0.0302656181732143
 10
-7.175375788158627
 20
0.0271099807080696
 10
-7.188506749963013
 20
0.0252760484219784
 10
-7.20295925106955
 20
0.0252760484219784
 10
-7.227942182737983
 20
0.0252760484219784
 10
-7.249088138585269
 20
0.0301806893263448
 10
-7.266013445910718
 20
0.0393025782810683
 10
-7.282427106697063
 20
0.0484271212621681
 10
-7.296837060441854
 20
0.0601074917278513
 10
-7.30894481210627
 20
0.0741340215869665
 10
-7.30894481210627
 20
0.0741340215869665
 10
-7.343989075159178
 20
0.0404119613426701
 10
-7.343989075159178
 20
0.0404119613426701
 10
-7.338446887335281
 20
0.033421255638157
 10
-7.331753432594545
 20
0.0265128247538592
 10
-7.323781151790058
 20
0.0199042988600064
 10
-7.314657604068795
 20
0.0123164372010807
 10
-7.30382892728307
 20
0.0054106603431339
 10
-7.291465310879882
 20
-0.0006007095963822
 10
-7.279655971315946
 20
-0.0065271506891552
 10
-7.266141336810947
 20
-0.011259279873482
 10
-7.251049215326727
 20
-0.0152243954097584
 10
-7.236085067681035
 20
-0.0186348194153854
 10
-7.219841928094991
 20
-0.0205961449716546
 10
-7.20295925106955
 20
-0.0205961449716546
 10
-7.183433412501547
 20
-0.0205961449716546
 10
-7.164717549634865
 20
-0.0179951990375887
 10
-7.147408569608753
 20
-0.0125385206287471
 10
-7.129971615744125
 20
-0.0071243066433908
 10
-7.1147517692364
 20
0.0006785311590092
 10
-7.101620807431951
 20
0.0108248743285155
 10
-7.08874562742796
 20
0.0210136819216587
 10
-7.078385883943016
 20
0.0335061844850012
 10
-7.070626754638864
 20
0.0481272162719254
 10
-7.062867376519799
 20
0.0630508070756959
 10
-7.059073030998685
 20
0.0798906049860509
 10
-7.059073030998685
 20
0.0982644301923301
 10
-7.059073030998685
 20
0.1192816657561353
 10
-7.062824829158052
 20
0.1374007044217301
 10
-7.070328176661746
 20
0.1518969969650293
 97
        0
 72
     1
 10
-7.070328176661746
 20
0.1518969969650294
 11
-7.070328176661746
 21
0.1518969969650293
 97
        0
 75
     2
 76
     1
 98
        1
 10
0.0
 20
0.0
450
        0
451
        0
460
0.0
461
0.0
452
        0
462
0.0
453
        0
470

  0
SPLINE
  5
CE
330
C1
100
AcDbEntity
  8
Layer 2
100
AcDbSpline
210
0.0
220
0.0
230
1.0
 70
     9
 71
     3
 72
   149
 73
   145
 74
     0
 42
0.0000000001
 43
0.0000000001
 40
0.0
 40
0.0
 40
0.0
 40
0.0
 40
1.0
 40
1.0
 40
1.0
 40
2.0
 40
2.0
 40
2.0
 40
3.0
 40
3.0
 40
3.0
 40
4.0
 40
4.0
 40
4.0
 40
5.0
 40
5.0
 40
5.0
 40
6.0
 40
6.0
 40
6.0
 40
7.0
 40
7.0
 40
7.0
 40
8.0
 40
8.0
 40
8.0
 40
9.0
 40
9.0
 40
9.0
 40
10.0
 40
10.0
 40
10.0
 40
11.0
 40
11.0
 40
11.0
 40
12.0
 40
12.0
 40
12.0
 40
13.0
 40
13.0
 40
13.0
 40
14.0
 40
14.0
 40
14.0
 40
15.0
 40
15.0
 40
15.0
 40
16.0
 40
16.0
 40
16.0
 40
17.0
 40
17.0
 40
17.0
 40
18.0
 40
18.0
 40
18.0
 40
19.0
 40
19.0
 40
19.0
 40
20.0
 40
20.0
 40
20.0
 40
21.0
 40
21.0
 40
21.0
 40
22.0
 40
22.0
 40
22.0
 40
23.0
 40
23.0
 40
23.0
 40
24.0
 40
24.0
 40
24.0
 40
25.0
 40
25.0
 40
25.0
 40
26.0
 40
26.0
 40
26.0
 40
27.0
 40
27.0
 40
27.0
 40
28.0
 40
28.0
 40
28.0
 40
29.0
 40
29.0
 40
29.0
 40
30.0
 40
30.0
 40
30.0
 40
31.0
 40
31.0
 40
31.0
 40
32.0
 40
32.0
 40
32.0
 40
33.0
 40
33.0
 40
33.0
 40
34.0
 40
34.0
 40
34.0
 40
35.0
 40
35.0
 40
35.0
 40
36.0
 40
36.0
 40
36.0
 40
37.0
 40
37.0
 40
37.0
 40
38.0
 40
38.0
 40
38.0
 40
39.0
 40
39.0
 40
39.0
 40
40.0
 40
40.0
 40
40.0
 40
41.0
 40
41.0
 40
41.0
 40
42.0
 40
42.0
 40
42.0
 40
43.0
 40
43.0
 40
43.0
 40
44.0
 40
44.0
 40
44.0
 40
45.0
 40
45.0
 40
45.0
 40
46.0
 40
46.0
 40
46.0
 40
47.0
 40
47.0
 40
47.0
 40
48.0
 40
48.0
 40
48.0
 40
48.0
 10
-6.47664460132906
 20
0.0826507925080225
 30
0.0
 10
-6.4640679993022
 20
0.0674724151636686
 30
0.0
 10
-6.449018508118051
 20
0.0551099598972087
 30
0.0
 10
-6.431453829229894
 20
0.0454758438348411
 30
0.0
 10
-6.41393161476507
 20
0.0359240025932448
 30
0.0
 10
-6.392572507417487
 20
0.0311069445620989
 30
0.0
 10
-6.367461767787213
 20
0.0311069445620989
 30
0.0
 10
-6.353009100804026
 20
0.0311069445620989
 30
0.0
 10
-6.339792878399495
 20
0.0328134835780879
 30
0.0
 10
-6.32781310057357
 20
0.0360965143133348
 30
0.0
 10
-6.315790526570999
 20
0.0394220094719155
 30
0.0
 10
-6.305430700147679
 20
0.0443239963499056
 30
0.0
 10
-6.296776251603773
 20
0.0507626645499689
 30
0.0
 10
-6.288079172759845
 20
0.0572411431473686
 30
0.0
 10
-6.281343087719
 20
0.0653412319136856
 30
0.0
 10
-6.27652569793463
 20
0.0751903241192748
 30
0.0
 10
-6.271750606696981
 20
0.0849518334518204
 30
0.0
 10
-6.269320679593065
 20
0.0963349529533844
 30
0.0
 10
-6.269320679593065
 20
0.1092547537772993
 30
0.0
 10
-6.269320679593065
 20
0.1229389142226612
 30
0.0
 10
-6.272006388497376
 20
0.1345768202646316
 30
0.0
 10
-6.277335507759251
 20
0.1441711259299912
 30
0.0
 10
-6.28270725732121
 20
0.1538477064156672
 30
0.0
 10
-6.289869811239377
 20
0.1618628663351652
 30
0.0
 10
-6.298694615106872
 20
0.1683015345353548
 30
0.0
 10
-6.307605177204512
 20
0.1747800131324766
 30
0.0
 10
-6.317623795350577
 20
0.1800668338476296
 30
0.0
 10
-6.328921654251985
 20
0.1841168782309018
 30
0.0
 10
-6.340176716976745
 20
0.1881669226139214
 30
0.0
 10
-6.351559670601671
 20
0.1918772516098923
 30
0.0
 10
-6.36298525452667
 20
0.1952027467685487
 30
0.0
 10
-6.377054082932595
 20
0.1989104217378654
 30
0.0
 10
-6.39112307721517
 20
0.2030453949679567
 30
0.0
 10
-6.405149275320972
 20
0.2076501308820298
 30
0.0
 10
-6.419175473426864
 20
0.2122973312193102
 30
0.0
 10
-6.431752241330336
 20
0.218393630005898
 30
0.0
 10
-6.44283678285482
 20
0.2259814916646721
 30
0.0
 10
-6.453921324379292
 20
0.2335295429266403
 30
0.0
 10
-6.462874185023628
 20
0.2431636589889573
 30
0.0
 10
-6.469738160964639
 20
0.2548015650309783
 30
0.0
 10
-6.476559340728916
 20
0.266442125099603
 30
0.0
 10
-6.479927466187644
 20
0.2814479907237151
 30
0.0
 10
-6.479927466187644
 20
0.2999943276500087
 30
0.0
 10
-6.479927466187644
 20
0.312526640610334
 30
0.0
 10
-6.477369482306862
 20
0.3245493804895432
 30
0.0
 10
-6.472210884245264
 20
0.3360174288378503
 30
0.0
 10
-6.467052286183665
 20
0.347443012763026
 30
0.0
 10
-6.459591486041681
 20
0.3574194982388942
 30
0.0
 10
-6.449743389095866
 20
0.3659468852659857
 30
0.0
 10
-6.439980386873558
 20
0.3744742722928498
 30
0.0
 10
-6.427957812870923
 20
0.3812101914569565
 30
0.0
 10
-6.413761093564819
 20
0.3861546427583056
 30
0.0
 10
-6.39952174395863
 20
0.3911866769329511
 30
0.0
 10
-6.383363699096055
 20
0.3936575755704376
 30
0.0
 10
-6.365244826306959
 20
0.3936575755704376
 30
0.0
 10
-6.349683771522007
 20
0.3936575755704376
 30
0.0
 10
-6.33595581964001
 20
0.3919961550042595
 30
0.0
 10
-6.323933577390675
 20
0.3886281954222441
 30
0.0
 10
-6.311911003388078
 20
0.3853876291104572
 30
0.0
 10
-6.301380489887858
 20
0.3812101914569565
 30
0.0
 10
-6.292342368643352
 20
0.3761781572822605
 30
0.0
 10
-6.283304247398821
 20
0.371233705981063
 30
0.0
 10
-6.275715556356658
 20
0.3657345631488877
 30
0.0
 10
-6.269619091693546
 20
0.3598505864793222
 30
0.0
 10
-6.263479830853699
 20
0.3539241453865745
 30
0.0
 10
-6.258406493392233
 20
0.3482126804373516
 30
0.0
 10
-6.254356449009062
 20
0.3426259547318801
 30
0.0
 10
-6.254356449009062
 20
0.3426259547318801
 30
0.0
 10
-6.27320020277596
 20
0.326595634892884
 30
0.0
 10
-6.27320020277596
 20
0.326595634892884
 30
0.0
 10
-6.27652569793463
 20
0.3310305131132938
 30
0.0
 10
-6.280788893818161
 20
0.3357626422973933
 30
0.0
 10
-6.285947491879747
 20
0.3407070935988182
 30
0.0
 10
-6.291148720241444
 20
0.3457391277734385
 30
0.0
 10
-6.297415706104806
 20
0.3503438636874863
 30
0.0
 10
-6.304791245646621
 20
0.3545637657641944
 30
0.0
 10
-6.312209415488521
 20
0.3587836678411804
 30
0.0
 10
-6.320949290509234
 20
0.3623666035666702
 30
0.0
 10
-6.331095799555529
 20
0.3650524783476561
 30
0.0
 10
-6.341327569201943
 20
0.3678657463988202
 30
0.0
 10
-6.353009100804026
 20
0.3692299160011822
 30
0.0
 10
-6.366353214108774
 20
0.3692299160011822
 30
0.0
 10
-6.381487965893041
 20
0.3692299160011822
 30
0.0
 10
-6.394491036797236
 20
0.3672261260212761
 30
0.0
 10
-6.405405057121406
 20
0.3631760816381555
 30
0.0
 10
-6.416319077445627
 20
0.3591260372549085
 30
0.0
 10
-6.425271938089937
 20
0.3537118232695522
 30
0.0
 10
-6.43230643523125
 20
0.3471032973756994
 30
0.0
 10
-6.439298136195803
 20
0.3404523070583107
 30
0.0
 10
-6.444499530434161
 20
0.3329493742461535
 30
0.0
 10
-6.44778222941607
 20
0.3246343093363369
 30
0.0
 10
-6.451150188998111
 20
0.316321898452947
 30
0.0
 10
-6.452812936577477
 20
0.3077095825791881
 30
0.0
 10
-6.452812936577477
 20
0.2988424801649722
 30
0.0
 10
-6.452812936577477
 20
0.2855829639537306
 30
0.0
 10
-6.449743389095866
 20
0.2745846782893548
 30
0.0
 10
-6.44364675855613
 20
0.2658449691451905
 30
0.0
 10
-6.437592924193065
 20
0.2571901888480473
 30
0.0
 10
-6.429535299850132
 20
0.2499845069998325
 30
0.0
 10
-6.419559146127463
 20
0.2442730420505339
 30
0.0
 10
-6.409582992404769
 20
0.2385589230748843
 30
0.0
 10
-6.398413190280203
 20
0.2338267938905321
 30
0.0
 10
-6.386006943576969
 20
0.2301191189212154
 30
0.0
 10
-6.373643493050457
 20
0.2264512543488561
 30
0.0
 10
-6.361151985747078
 20
0.2229559014963343
 30
0.0
 10
-6.348575383720205
 20
0.2195879419144199
 30
0.0
 10
-6.335657407539478
 20
0.2162624467557634
 30
0.0
 10
-6.322739763112116
 20
0.2120850091022627
 30
0.0
 10
-6.309779322507981
 20
0.2071379037744363
 30
0.0
 10
-6.29686151220393
 20
0.2021509880498039
 30
0.0
 10
-6.285308037378727
 20
0.1954999977324152
 30
0.0
 10
-6.275161362455744
 20
0.1871451224255907
 30
0.0
 10
-6.265014687532811
 20
0.1788725219391583
 30
0.0
 10
-6.25665865108941
 20
0.1683864633821486
 30
0.0
 10
-6.250178513725674
 20
0.1558514963953712
 30
0.0
 10
-6.243740840785322
 20
0.143274064985437
 30
0.0
 10
-6.240500772103485
 20
0.1277559722538071
 30
0.0
 10
-6.240500772103485
 20
0.1092547537772993
 30
0.0
 10
-6.240500772103485
 20
0.0933942916319161
 30
0.0
 10
-6.243826101385517
 20
0.0790705108089343
 30
0.0
 10
-6.250476925826167
 20
0.0663232217050588
 30
0.0
 10
-6.257127584390192
 20
0.0535759326012087
 30
0.0
 10
-6.266080445034528
 20
0.0427899690539056
 30
0.0
 10
-6.277335507759251
 20
0.0339202126132629
 30
0.0
 10
-6.288633366660708
 20
0.0250106457756374
 30
0.0
 10
-6.302062740565588
 20
0.0181897977645854
 30
0.0
 10
-6.31753853475042
 20
0.0133727397334143
 30
0.0
 10
-6.33309958953541
 20
0.0085556817024452
 30
0.0
 10
-6.349683771522007
 20
0.0061670578854015
 30
0.0
 10
-6.367461767787213
 20
0.0061670578854015
 30
0.0
 10
-6.382980026395456
 20
0.0061670578854015
 30
0.0
 10
-6.397390063078558
 20
0.0078311324778042
 30
0.0
 10
-6.410691546083221
 20
0.0111566276366122
 30
0.0
 10
-6.423993029087884
 20
0.0145245872186277
 30
0.0
 10
-6.436100863690651
 20
0.0187869537187453
 30
0.0
 10
-6.446972087838098
 20
0.0242011677041774
 30
0.0
 10
-6.457886108162268
 20
0.0295729172660736
 30
0.0
 10
-6.467478755061025
 20
0.0356267516293024
 30
0.0
 10
-6.475834625627751
 20
0.0424475996402281
 30
0.0
 10
-6.484148197647755
 20
0.049310912074639
 30
0.0
 10
-6.490884116811924
 20
0.0563892006524485
 30
0.0
 10
-6.496042714873484
 20
0.0638072046177866
 30
0.0
 10
-6.496042714873484
 20
0.0638072046177866
 30
0.0
 10
-6.47664460132906
 20
0.0826507925080225
 30
0.0
 10
-6.47664460132906
 20
0.0826507925080225
 30
0.0
  0
HATCH
  5
CF
330
C1
100
AcDbEntity
  8
Layer 2
 62
   250
420
  2170655
440
 33554687
100
AcDbHatch
 10
0.0
 20
0.0
 30
0.0
210
0.0
220
0.0
230
1.0
  2
SOLID
 70
     1
 71
     1
 91
        1
 92
        1
 93
        1
 72
     4
 94
        3
 73
     0
 74
     0
 95
      149
 96
      145
 40
0.0
 40
0.0
 40
0.0
 40
0.0
 40
1.0
 40
1.0
 40
1.0
 40
2.0
 40
2.0
 40
2.0
 40
3.0
 40
3.0
 40
3.0
 40
4.0
 40
4.0
 40
4.0
 40
5.0
 40
5.0
 40
5.0
 40
6.0
 40
6.0
 40
6.0
 40
7.0
 40
7.0
 40
7.0
 40
8.0
 40
8.0
 40
8.0
 40
9.0
 40
9.0
 40
9.0
 40
10.0
 40
10.0
 40
10.0
 40
11.0
 40
11.0
 40
11.0
 40
12.0
 40
12.0
 40
12.0
 40
13.0
 40
13.0
 40
13.0
 40
14.0
 40
14.0
 40
14.0
 40
15.0
 40
15.0
 40
15.0
 40
16.0
 40
16.0
 40
16.0
 40
17.0
 40
17.0
 40
17.0
 40
18.0
 40
18.0
 40
18.0
 40
19.0
 40
19.0
 40
19.0
 40
20.0
 40
20.0
 40
20.0
 40
21.0
 40
21.0
 40
21.0
 40
22.0
 40
22.0
 40
22.0
 40
23.0
 40
23.0
 40
23.0
 40
24.0
 40
24.0
 40
24.0
 40
25.0
 40
25.0
 40
25.0
 40
26.0
 40
26.0
 40
26.0
 40
27.0
 40
27.0
 40
27.0
 40
28.0
 40
28.0
 40
28.0
 40
29.0
 40
29.0
 40
29.0
 40
30.0
 40
30.0
 40
30.0
 40
31.0
 40
31.0
 40
31.0
 40
32.0
 40
32.0
 40
32.0
 40
33.0
 40
33.0
 40
33.0
 40
34.0
 40
34.0
 40
34.0
 40
35.0
 40
35.0
 40
35.0
 40
36.0
 40
36.0
 40
36.0
 40
37.0
 40
37.0
 40
37.0
 40
38.0
 40
38.0
 40
38.0
 40
39.0
 40
39.0
 40
39.0
 40
40.0
 40
40.0
 40
40.0
 40
41.0
 40
41.0
 40
41.0
 40
42.0
 40
42.0
 40
42.0
 40
43.0
 40
43.0
 40
43.0
 40
44.0
 40
44.0
 40
44.0
 40
45.0
 40
45.0
 40
45.0
 40
46.0
 40
46.0
 40
46.0
 40
47.0
 40
47.0
 40
47.0
 40
48.0
 40
48.0
 40
48.0
 40
48.0
 10
-6.47664460132906
 20
0.0826507925080225
 10
-6.4640679993022
 20
0.0674724151636686
 10
-6.449018508118051
 20
0.0551099598972087
 10
-6.431453829229894
 20
0.0454758438348411
 10
-6.41393161476507
 20
0.0359240025932448
 10
-6.392572507417487
 20
0.0311069445620989
 10
-6.367461767787213
 20
0.0311069445620989
 10
-6.353009100804026
 20
0.0311069445620989
 10
-6.339792878399495
 20
0.0328134835780879
 10
-6.32781310057357
 20
0.0360965143133348
 10
-6.315790526570999
 20
0.0394220094719155
 10
-6.305430700147679
 20
0.0443239963499056
 10
-6.296776251603773
 20
0.0507626645499689
 10
-6.288079172759845
 20
0.0572411431473686
 10
-6.281343087719
 20
0.0653412319136856
 10
-6.27652569793463
 20
0.0751903241192748
 10
-6.271750606696981
 20
0.0849518334518204
 10
-6.269320679593065
 20
0.0963349529533844
 10
-6.269320679593065
 20
0.1092547537772993
 10
-6.269320679593065
 20
0.1229389142226612
 10
-6.272006388497376
 20
0.1345768202646316
 10
-6.277335507759251
 20
0.1441711259299912
 10
-6.28270725732121
 20
0.1538477064156672
 10
-6.289869811239377
 20
0.1618628663351652
 10
-6.298694615106872
 20
0.1683015345353548
 10
-6.307605177204512
 20
0.1747800131324766
 10
-6.317623795350577
 20
0.1800668338476296
 10
-6.328921654251985
 20
0.1841168782309018
 10
-6.340176716976745
 20
0.1881669226139214
 10
-6.351559670601671
 20
0.1918772516098923
 10
-6.36298525452667
 20
0.1952027467685487
 10
-6.377054082932595
 20
0.1989104217378654
 10
-6.39112307721517
 20
0.2030453949679567
 10
-6.405149275320972
 20
0.2076501308820298
 10
-6.419175473426864
 20
0.2122973312193102
 10
-6.431752241330336
 20
0.218393630005898
 10
-6.44283678285482
 20
0.2259814916646721
 10
-6.453921324379292
 20
0.2335295429266403
 10
-6.462874185023628
 20
0.2431636589889573
 10
-6.469738160964639
 20
0.2548015650309783
 10
-6.476559340728916
 20
0.266442125099603
 10
-6.479927466187644
 20
0.2814479907237151
 10
-6.479927466187644
 20
0.2999943276500087
 10
-6.479927466187644
 20
0.312526640610334
 10
-6.477369482306862
 20
0.3245493804895432
 10
-6.472210884245264
 20
0.3360174288378503
 10
-6.467052286183665
 20
0.347443012763026
 10
-6.459591486041681
 20
0.3574194982388942
 10
-6.449743389095866
 20
0.3659468852659857
 10
-6.439980386873558
 20
0.3744742722928498
 10
-6.427957812870923
 20
0.3812101914569565
 10
-6.413761093564819
 20
0.3861546427583056
 10
-6.39952174395863
 20
0.3911866769329511
 10
-6.383363699096055
 20
0.3936575755704376
 10
-6.365244826306959
 20
0.3936575755704376
 10
-6.349683771522007
 20
0.3936575755704376
 10
-6.33595581964001
 20
0.3919961550042595
 10
-6.323933577390675
 20
0.3886281954222441
 10
-6.311911003388078
 20
0.3853876291104572
 10
-6.301380489887858
 20
0.3812101914569565
 10
-6.292342368643352
 20
0.3761781572822605
 10
-6.283304247398821
 20
0.371233705981063
 10
-6.275715556356658
 20
0.3657345631488877
 10
-6.269619091693546
 20
0.3598505864793222
 10
-6.263479830853699
 20
0.3539241453865745
 10
-6.258406493392233
 20
0.3482126804373516
 10
-6.254356449009062
 20
0.3426259547318801
 10
-6.254356449009062
 20
0.3426259547318801
 10
-6.27320020277596
 20
0.326595634892884
 10
-6.27320020277596
 20
0.326595634892884
 10
-6.27652569793463
 20
0.3310305131132938
 10
-6.280788893818161
 20
0.3357626422973933
 10
-6.285947491879747
 20
0.3407070935988182
 10
-6.291148720241444
 20
0.3457391277734385
 10
-6.297415706104806
 20
0.3503438636874863
 10
-6.304791245646621
 20
0.3545637657641944
 10
-6.312209415488521
 20
0.3587836678411804
 10
-6.320949290509234
 20
0.3623666035666702
 10
-6.331095799555529
 20
0.3650524783476561
 10
-6.341327569201943
 20
0.3678657463988202
 10
-6.353009100804026
 20
0.3692299160011822
 10
-6.366353214108774
 20
0.3692299160011822
 10
-6.381487965893041
 20
0.3692299160011822
 10
-6.394491036797236
 20
0.3672261260212761
 10
-6.405405057121406
 20
0.3631760816381555
 10
-6.416319077445627
 20
0.3591260372549085
 10
-6.425271938089937
 20
0.3537118232695522
 10
-6.43230643523125
 20
0.3471032973756994
 10
-6.439298136195803
 20
0.3404523070583107
 10
-6.444499530434161
 20
0.3329493742461535
 10
-6.44778222941607
 20
0.3246343093363369
 10
-6.451150188998111
 20
0.316321898452947
 10
-6.452812936577477
 20
0.3077095825791881
 10
-6.452812936577477
 20
0.2988424801649722
 10
-6.452812936577477
 20
0.2855829639537306
 10
-6.449743389095866
 20
0.2745846782893548
 10
-6.44364675855613
 20
0.2658449691451905
 10
-6.437592924193065
 20
0.2571901888480473
 10
-6.429535299850132
 20
0.2499845069998325
 10
-6.419559146127463
 20
0.2442730420505339
 10
-6.409582992404769
 20
0.2385589230748843
 10
-6.398413190280203
 20
0.2338267938905321
 10
-6.386006943576969
 20
0.2301191189212154
 10
-6.373643493050457
 20
0.2264512543488561
 10
-6.361151985747078
 20
0.2229559014963343
 10
-6.348575383720205
 20
0.2195879419144199
 10
-6.335657407539478
 20
0.2162624467557634
 10
-6.322739763112116
 20
0.2120850091022627
 10
-6.309779322507981
 20
0.2071379037744363
 10
-6.29686151220393
 20
0.2021509880498039
 10
-6.285308037378727
 20
0.1954999977324152
 10
-6.275161362455744
 20
0.1871451224255907
 10
-6.265014687532811
 20
0.1788725219391583
 10
-6.25665865108941
 20
0.1683864633821486
 10
-6.250178513725674
 20
0.1558514963953712
 10
-6.243740840785322
 20
0.143274064985437
 10
-6.240500772103485
 20
0.1277559722538071
 10
-6.240500772103485
 20
0.1092547537772993
 10
-6.240500772103485
 20
0.0933942916319161
 10
-6.243826101385517
 20
0.0790705108089343
 10
-6.250476925826167
 20
0.0663232217050588
 10
-6.257127584390192
 20
0.0535759326012087
 10
-6.266080445034528
 20
0.0427899690539056
 10
-6.277335507759251
 20
0.0339202126132629
 10
-6.288633366660708
 20
0.0250106457756374
 10
-6.302062740565588
 20
0.0181897977645854
 10
-6.31753853475042
 20
0.0133727397334143
 10
-6.33309958953541
 20
0.0085556817024452
 10
-6.349683771522007
 20
0.0061670578854015
 10
-6.367461767787213
 20
0.0061670578854015
 10
-6.382980026395456
 20
0.0061670578854015
 10
-6.397390063078558
 20
0.0078311324778042
 10
-6.410691546083221
 20
0.0111566276366122
 10
-6.423993029087884
 20
0.0145245872186277
 10
-6.436100863690651
 20
0.0187869537187453
 10
-6.446972087838098
 20
0.0242011677041774
 10
-6.457886108162268
 20
0.0295729172660736
 10
-6.467478755061025
 20
0.0356267516293024
 10
-6.475834625627751
 20
0.0424475996402281
 10
-6.484148197647755
 20
0.049310912074639
 10
-6.490884116811924
 20
0.0563892006524485
 10
-6.496042714873484
 20
0.0638072046177866
 10
-6.496042714873484
 20
0.0638072046177866
 10
-6.47664460132906
 20
0.0826507925080225
 10
-6.47664460132906
 20
0.0826507925080225
 97
        0
 97
        1
330
CE
 75
     2
 76
     1
 98
        1
 10
0.0
 20
0.0
450
        0
451
        0
460
0.0
461
0.0
452
        0
462
0.0
453
        0
470

  0
LWPOLYLINE
  5
D0
330
C1
100
AcDbEntity
  8
Layer 2
100
AcDbPolyline
 90
        4
 70
     1
 43
0.0
 10
-6.128559409806219
 20
0.3847665869179258
 10
-6.10191381349677
 20
0.3847665869179258
 10
-6.10191381349677
 20
0.0150129280879254
 10
-6.128559409806219
 20
0.0150129280879254
  0
HATCH
  5
D1
330
C1
100
AcDbEntity
  8
Layer 2
 62
   250
420
  2170655
440
 33554687
100
AcDbHatch
 10
0.0
 20
0.0
 30
0.0
210
0.0
220
0.0
230
1.0
  2
SOLID
 70
     1
 71
     1
 91
        1
 92
        1
 93
        4
 72
     1
 10
-6.128559409806219
 20
0.3847665869179258
 11
-6.10191381349677
 21
0.3847665869179258
 72
     1
 10
-6.10191381349677
 20
0.3847665869179258
 11
-6.10191381349677
 21
0.0150129280879254
 72
     1
 10
-6.10191381349677
 20
0.0150129280879254
 11
-6.128559409806219
 21
0.0150129280879254
 72
     1
 10
-6.128559409806219
 20
0.0150129280879254
 11
-6.128559409806219
 21
0.3847665869179258
 97
        1
330
D0
 75
     2
 76
     1
 98
        1
 10
0.0
 20
0.0
450
        0
451
        0
460
0.0
461
0.0
452
        0
462
0.0
453
        0
470

  0
SPLINE
  5
D2
330
C1
100
AcDbEntity
  8
Layer 2
100
AcDbSpline
210
0.0
220
0.0
230
1.0
 70
    11
 71
     3
 72
   113
 73
   109
 74
     0
 42
0.0000000001
 43
0.0000000001
 40
0.0
 40
0.0
 40
0.0
 40
0.0
 40
1.0
 40
1.0
 40
1.0
 40
2.0
 40
2.0
 40
2.0
 40
3.0
 40
3.0
 40
3.0
 40
4.0
 40
4.0
 40
4.0
 40
5.0
 40
5.0
 40
5.0
 40
6.0
 40
6.0
 40
6.0
 40
7.0
 40
7.0
 40
7.0
 40
8.0
 40
8.0
 40
8.0
 40
9.0
 40
9.0
 40
9.0
 40
10.0
 40
10.0
 40
10.0
 40
11.0
 40
11.0
 40
11.0
 40
12.0
 40
12.0
 40
12.0
 40
13.0
 40
13.0
 40
13.0
 40
14.0
 40
14.0
 40
14.0
 40
15.0
 40
15.0
 40
15.0
 40
16.0
 40
16.0
 40
16.0
 40
17.0
 40
17.0
 40
17.0
 40
18.0
 40
18.0
 40
18.0
 40
19.0
 40
19.0
 40
19.0
 40
20.0
 40
20.0
 40
20.0
 40
21.0
 40
21.0
 40
21.0
 40
22.0
 40
22.0
 40
22.0
 40
23.0
 40
23.0
 40
23.0
 40
24.0
 40
24.0
 40
24.0
 40
25.0
 40
25.0
 40
25.0
 40
26.0
 40
26.0
 40
26.0
 40
27.0
 40
27.0
 40
27.0
 40
28.0
 40
28.0
 40
28.0
 40
29.0
 40
29.0
 40
29.0
 40
30.0
 40
30.0
 40
30.0
 40
31.0
 40
31.0
 40
31.0
 40
32.0
 40
32.0
 40
32.0
 40
33.0
 40
33.0
 40
33.0
 40
34.0
 40
34.0
 40
34.0
 40
35.0
 40
35.0
 40
35.0
 40
36.0
 40
36.0
 40
36.0
 40
36.0
 10
-5.695042931069224
 20
0.1652547121553248
 30
0.0
 10
-5.695042931069224
 20
0.1652547121553248
 30
0.0
 10
-5.793695748740851
 20
0.1652547121553248
 30
0.0
 10
-5.793695748740851
 20
0.1652547121553248
 30
0.0
 10
-5.793695748740851
 20
0.1652547121553248
 30
0.0
 10
-5.793695748740851
 20
0.1901945988319969
 30
0.0
 10
-5.793695748740851
 20
0.1901945988319969
 30
0.0
 10
-5.793695748740851
 20
0.1901945988319969
 30
0.0
 10
-5.66844029681316
 20
0.1901945988319969
 30
0.0
 10
-5.66844029681316
 20
0.1901945988319969
 30
0.0
 10
-5.66844029681316
 20
0.1901945988319969
 30
0.0
 10
-5.66844029681316
 20
0.0516384932830331
 30
0.0
 10
-5.66844029681316
 20
0.0516384932830331
 30
0.0
 10
-5.674707116799936
 20
0.046051767577612
 30
0.0
 10
-5.682295807842087
 20
0.0406375535922052
 30
0.0
 10
-5.691163573762978
 20
0.0352658040302837
 30
0.0
 10
-5.700031173807221
 20
0.029894054468337
 30
0.0
 10
-5.71030557375367
 20
0.0249920675903721
 30
0.0
 10
-5.721944475055718
 20
0.0205571893699875
 30
0.0
 10
-5.73358321048104
 20
0.0161249651761055
 30
0.0
 10
-5.746714172285477
 20
0.0126296123236342
 30
0.0
 10
-5.761294564292206
 20
0.0100286663895178
 30
0.0
 10
-5.775875122175585
 20
0.007427720455376
 30
0.0
 10
-5.792246152661832
 20
0.0061909441234952
 30
0.0
 10
-5.810322561027533
 20
0.0061909441234952
 30
0.0
 10
-5.83696815733693
 20
0.0061909441234952
 30
0.0
 10
-5.861354181866064
 20
0.0108806088844126
 30
0.0
 10
-5.883523264914944
 20
0.0203448672528895
 30
0.0
 10
-5.905692513840549
 20
0.0297241967746484
 30
0.0
 10
-5.924664158507627
 20
0.0430261774092742
 30
0.0
 10
-5.940353104192795
 20
0.0602056907069305
 30
0.0
 10
-5.956041884001302
 20
0.0773878580309631
 30
0.0
 10
-5.968234979204225
 20
0.0978955205138542
 30
0.0
 10
-5.976932223924854
 20
0.1217260241288992
 30
0.0
 10
-5.985629302768794
 20
0.1456016461938311
 30
0.0
 10
-5.989935128952374
 20
0.1717783092025103
 30
0.0
 10
-5.989935128952374
 20
0.2001710843080168
 30
0.0
 10
-5.989935128952374
 20
0.2271147609646201
 30
0.0
 10
-5.985629302768794
 20
0.2523545526317876
 30
0.0
 10
-5.976932223924854
 20
0.2758453408593292
 30
0.0
 10
-5.968234979204225
 20
0.2992936646636886
 30
0.0
 10
-5.956041884001302
 20
0.3197986731201277
 30
0.0
 10
-5.940353104192795
 20
0.3374054846783059
 30
0.0
 10
-5.924664158507627
 20
0.3549300214163193
 30
0.0
 10
-5.905692513840549
 20
0.3686991107084496
 30
0.0
 10
-5.883523264914944
 20
0.3786755961844948
 30
0.0
 10
-5.861354181866064
 20
0.3886096172369283
 30
0.0
 10
-5.83696815733693
 20
0.3936814618085817
 30
0.0
 10
-5.810322561027533
 20
0.3936814618085817
 30
0.0
 10
-5.788536984802552
 20
0.3936814618085817
 30
0.0
 10
-5.769778657512447
 20
0.3906558716402691
 30
0.0
 10
-5.754047081527257
 20
0.3847718949709815
 30
0.0
 10
-5.738358135842051
 20
0.378845453878158
 30
0.0
 10
-5.725141913437545
 20
0.3719396770202871
 30
0.0
 10
-5.714441044613673
 20
0.364009445947608
 30
0.0
 10
-5.703740175789865
 20
0.3560792148749038
 30
0.0
 10
-5.695341509046354
 20
0.3481914482256343
 30
0.0
 10
-5.689245044383255
 20
0.3404337288729948
 30
0.0
 10
-5.683105783543396
 20
0.3326733554939286
 30
0.0
 10
-5.678970312683443
 20
0.3269194261213215
 30
0.0
 10
-5.676753702956526
 20
0.3232940259724222
 30
0.0
 10
-5.676753702956526
 20
0.3232940259724222
 30
0.0
 10
-5.696705678648552
 20
0.3093975434099623
 30
0.0
 10
-5.696705678648552
 20
0.3093975434099623
 30
0.0
 10
-5.698922620128806
 20
0.3122957403079959
 30
0.0
 10
-5.702588991811327
 20
0.3170278694922975
 30
0.0
 10
-5.707790386049686
 20
0.3235090021158713
 30
0.0
 10
-5.712991614411344
 20
0.3300299451364026
 30
0.0
 10
-5.720111372152738
 20
0.336553542183588
 30
0.0
 10
-5.729106863097184
 20
0.3432045325008251
 30
0.0
 10
-5.738187448765137
 20
0.3498979872416486
 30
0.0
 10
-5.749186729689401
 20
0.3557394994876025
 30
0.0
 10
-5.762104705870178
 20
0.3609387373294592
 30
0.0
 10
-5.775065146474288
 20
0.3660981647743837
 30
0.0
 10
-5.790199732381905
 20
0.3686991107084496
 30
0.0
 10
-5.807551259769752
 20
0.3686991107084496
 30
0.0
 10
-5.831596407774983
 20
0.3686991107084496
 30
0.0
 10
-5.853125870446218
 20
0.3643518153612604
 30
0.0
 10
-5.872140311290055
 20
0.3556545706407835
 30
0.0
 10
-5.891197216557277
 20
0.3469573259201803
 30
0.0
 10
-5.907269834943045
 20
0.3350619793110228
 30
0.0
 10
-5.92035816644741
 20
0.3199260663903563
 30
0.0
 10
-5.933531758551882
 20
0.3047503430724545
 30
0.0
 10
-5.943550542574611
 20
0.2869285553705241
 30
0.0
 10
-5.950627670015958
 20
0.2664235469142871
 30
0.0
 10
-5.957619370980523
 20
0.2459583488548813
 30
0.0
 10
-5.961115221462793
 20
0.2238317302294237
 30
0.0
 10
-5.961115221462793
 20
0.2001710843080168
 30
0.0
 10
-5.961115221462793
 20
0.176510438386635
 30
0.0
 10
-5.957747261880727
 20
0.154468748608047
 30
0.0
 10
-5.950883451816391
 20
0.1339186217016959
 30
0.0
 10
-5.944019475875379
 20
0.1134136132455347
 30
0.0
 10
-5.934085952452758
 20
0.0955493611202201
 30
0.0
 10
-5.920912360348299
 20
0.0801586616587934
 30
0.0
 10
-5.907824028843959
 20
0.0648104266210036
 30
0.0
 10
-5.891921931658442
 20
0.0527876867416682
 30
0.0
 10
-5.87329149526853
 20
0.0441355604709265
 30
0.0
 10
-5.854575466525198
 20
0.0354807801737328
 30
0.0
 10
-5.833642828054949
 20
0.031088366376783
 30
0.0
 10
-5.810322561027533
 20
0.031088366376783
 30
0.0
 10
-5.781886326238551
 20
0.031088366376783
 30
0.0
 10
-5.758523428911088
 20
0.0342440038416751
 30
0.0
 10
-5.740233869045065
 20
0.0405526247454367
 30
0.0
 10
-5.721944475055718
 20
0.0468638996752967
 30
0.0
 10
-5.70689514974822
 20
0.0542394392172001
 30
0.0
 10
-5.695042931069224
 20
0.0627217077943038
 30
0.0
 10
-5.695042931069224
 20
0.0627217077943038
 30
0.0
 10
-5.695042931069224
 20
0.1652547121553248
 30
0.0
 10
-5.695042931069224
 20
0.1652547121553248
 30
0.0
  0
HATCH
  5
D3
330
C1
100
AcDbEntity
  8
Layer 2
 62
   250
420
  2170655
440
 33554687
100
AcDbHatch
 10
0.0
 20
0.0
 30
0.0
210
0.0
220
0.0
230
1.0
  2
SOLID
 70
     1
 71
     1
 91
        1
 92
        1
 93
        1
 72
     4
 94
        3
 73
     0
 74
     0
 95
      113
 96
      109
 40
0.0
 40
0.0
 40
0.0
 40
0.0
 40
1.0
 40
1.0
 40
1.0
 40
2.0
 40
2.0
 40
2.0
 40
3.0
 40
3.0
 40
3.0
 40
4.0
 40
4.0
 40
4.0
 40
5.0
 40
5.0
 40
5.0
 40
6.0
 40
6.0
 40
6.0
 40
7.0
 40
7.0
 40
7.0
 40
8.0
 40
8.0
 40
8.0
 40
9.0
 40
9.0
 40
9.0
 40
10.0
 40
10.0
 40
10.0
 40
11.0
 40
11.0
 40
11.0
 40
12.0
 40
12.0
 40
12.0
 40
13.0
 40
13.0
 40
13.0
 40
14.0
 40
14.0
 40
14.0
 40
15.0
 40
15.0
 40
15.0
 40
16.0
 40
16.0
 40
16.0
 40
17.0
 40
17.0
 40
17.0
 40
18.0
 40
18.0
 40
18.0
 40
19.0
 40
19.0
 40
19.0
 40
20.0
 40
20.0
 40
20.0
 40
21.0
 40
21.0
 40
21.0
 40
22.0
 40
22.0
 40
22.0
 40
23.0
 40
23.0
 40
23.0
 40
24.0
 40
24.0
 40
24.0
 40
25.0
 40
25.0
 40
25.0
 40
26.0
 40
26.0
 40
26.0
 40
27.0
 40
27.0
 40
27.0
 40
28.0
 40
28.0
 40
28.0
 40
29.0
 40
29.0
 40
29.0
 40
30.0
 40
30.0
 40
30.0
 40
31.0
 40
31.0
 40
31.0
 40
32.0
 40
32.0
 40
32.0
 40
33.0
 40
33.0
 40
33.0
 40
34.0
 40
34.0
 40
34.0
 40
35.0
 40
35.0
 40
35.0
 40
36.0
 40
36.0
 40
36.0
 40
36.0
 10
-5.695042931069224
 20
0.1652547121553248
 10
-5.695042931069224
 20
0.1652547121553248
 10
-5.793695748740851
 20
0.1652547121553248
 10
-5.793695748740851
 20
0.1652547121553248
 10
-5.793695748740851
 20
0.1652547121553248
 10
-5.793695748740851
 20
0.1901945988319969
 10
-5.793695748740851
 20
0.1901945988319969
 10
-5.793695748740851
 20
0.1901945988319969
 10
-5.66844029681316
 20
0.1901945988319969
 10
-5.66844029681316
 20
0.1901945988319969
 10
-5.66844029681316
 20
0.1901945988319969
 10
-5.66844029681316
 20
0.0516384932830331
 10
-5.66844029681316
 20
0.0516384932830331
 10
-5.674707116799936
 20
0.046051767577612
 10
-5.682295807842087
 20
0.0406375535922052
 10
-5.691163573762978
 20
0.0352658040302837
 10
-5.700031173807221
 20
0.029894054468337
 10
-5.71030557375367
 20
0.0249920675903721
 10
-5.721944475055718
 20
0.0205571893699875
 10
-5.73358321048104
 20
0.0161249651761055
 10
-5.746714172285477
 20
0.0126296123236342
 10
-5.761294564292206
 20
0.0100286663895178
 10
-5.775875122175585
 20
0.007427720455376
 10
-5.792246152661832
 20
0.0061909441234952
 10
-5.810322561027533
 20
0.0061909441234952
 10
-5.83696815733693
 20
0.0061909441234952
 10
-5.861354181866064
 20
0.0108806088844126
 10
-5.883523264914944
 20
0.0203448672528895
 10
-5.905692513840549
 20
0.0297241967746484
 10
-5.924664158507627
 20
0.0430261774092742
 10
-5.940353104192795
 20
0.0602056907069305
 10
-5.956041884001302
 20
0.0773878580309631
 10
-5.968234979204225
 20
0.0978955205138542
 10
-5.976932223924854
 20
0.1217260241288992
 10
-5.985629302768794
 20
0.1456016461938311
 10
-5.989935128952374
 20
0.1717783092025103
 10
-5.989935128952374
 20
0.2001710843080168
 10
-5.989935128952374
 20
0.2271147609646201
 10
-5.985629302768794
 20
0.2523545526317876
 10
-5.976932223924854
 20
0.2758453408593292
 10
-5.968234979204225
 20
0.2992936646636886
 10
-5.956041884001302
 20
0.3197986731201277
 10
-5.940353104192795
 20
0.3374054846783059
 10
-5.924664158507627
 20
0.3549300214163193
 10
-5.905692513840549
 20
0.3686991107084496
 10
-5.883523264914944
 20
0.3786755961844948
 10
-5.861354181866064
 20
0.3886096172369283
 10
-5.83696815733693
 20
0.3936814618085817
 10
-5.810322561027533
 20
0.3936814618085817
 10
-5.788536984802552
 20
0.3936814618085817
 10
-5.769778657512447
 20
0.3906558716402691
 10
-5.754047081527257
 20
0.3847718949709815
 10
-5.738358135842051
 20
0.378845453878158
 10
-5.725141913437545
 20
0.3719396770202871
 10
-5.714441044613673
 20
0.364009445947608
 10
-5.703740175789865
 20
0.3560792148749038
 10
-5.695341509046354
 20
0.3481914482256343
 10
-5.689245044383255
 20
0.3404337288729948
 10
-5.683105783543396
 20
0.3326733554939286
 10
-5.678970312683443
 20
0.3269194261213215
 10
-5.676753702956526
 20
0.3232940259724222
 10
-5.676753702956526
 20
0.3232940259724222
 10
-5.696705678648552
 20
0.3093975434099623
 10
-5.696705678648552
 20
0.3093975434099623
 10
-5.698922620128806
 20
0.3122957403079959
 10
-5.702588991811327
 20
0.3170278694922975
 10
-5.707790386049686
 20
0.3235090021158713
 10
-5.712991614411344
 20
0.3300299451364026
 10
-5.720111372152738
 20
0.336553542183588
 10
-5.729106863097184
 20
0.3432045325008251
 10
-5.738187448765137
 20
0.3498979872416486
 10
-5.749186729689401
 20
0.3557394994876025
 10
-5.762104705870178
 20
0.3609387373294592
 10
-5.775065146474288
 20
0.3660981647743837
 10
-5.790199732381905
 20
0.3686991107084496
 10
-5.807551259769752
 20
0.3686991107084496
 10
-5.831596407774983
 20
0.3686991107084496
 10
-5.853125870446218
 20
0.3643518153612604
 10
-5.872140311290055
 20
0.3556545706407835
 10
-5.891197216557277
 20
0.3469573259201803
 10
-5.907269834943045
 20
0.3350619793110228
 10
-5.92035816644741
 20
0.3199260663903563
 10
-5.933531758551882
 20
0.3047503430724545
 10
-5.943550542574611
 20
0.2869285553705241
 10
-5.950627670015958
 20
0.2664235469142871
 10
-5.957619370980523
 20
0.2459583488548813
 10
-5.961115221462793
 20
0.2238317302294237
 10
-5.961115221462793
 20
0.2001710843080168
 10
-5.961115221462793
 20
0.176510438386635
 10
-5.957747261880727
 20
0.154468748608047
 10
-5.950883451816391
 20
0.1339186217016959
 10
-5.944019475875379
 20
0.1134136132455347
 10
-5.934085952452758
 20
0.0955493611202201
 10
-5.920912360348299
 20
0.0801586616587934
 10
-5.907824028843959
 20
0.0648104266210036
 10
-5.891921931658442
 20
0.0527876867416682
 10
-5.87329149526853
 20
0.0441355604709265
 10
-5.854575466525198
 20
0.0354807801737328
 10
-5.833642828054949
 20
0.031088366376783
 10
-5.810322561027533
 20
0.031088366376783
 10
-5.781886326238551
 20
0.031088366376783
 10
-5.758523428911088
 20
0.0342440038416751
 10
-5.740233869045065
 20
0.0405526247454367
 10
-5.721944475055718
 20
0.0468638996752967
 10
-5.70689514974822
 20
0.0542394392172001
 10
-5.695042931069224
 20
0.0627217077943038
 10
-5.695042931069224
 20
0.0627217077943038
 10
-5.695042931069224
 20
0.1652547121553248
 10
-5.695042931069224
 20
0.1652547121553248
 97
        0
 97
        1
330
D2
 75
     2
 76
     1
 98
        1
 10
0.0
 20
0.0
450
        0
451
        0
460
0.0
461
0.0
452
        0
462
0.0
453
        0
470

  0
LWPOLYLINE
  5
D4
330
C1
100
AcDbEntity
  8
Layer 2
100
AcDbPolyline
 90
       10
 70
     1
 43
0.0
 10
-5.54261373156593
 20
0.3847798570503629
 10
-5.514859913331368
 20
0.3847798570503629
 10
-5.277607530427379
 20
0.0549294860976362
 10
-5.277607530427379
 20
0.3847798570503629
 10
-5.251558592442266
 20
0.3847798570503629
 10
-5.251558592442266
 20
0.0150235441937336
 10
-5.279270278006706
 20
0.0150235441937336
 10
-5.516522329157421
 20
0.340441690952452
 10
-5.516522329157421
 20
0.0150235441937336
 10
-5.54261373156593
 20
0.0150235441937336
  0
HATCH
  5
D5
330
C1
100
AcDbEntity
  8
Layer 2
 62
   250
420
  2170655
440
 33554687
100
AcDbHatch
 10
0.0
 20
0.0
 30
0.0
210
0.0
220
0.0
230
1.0
  2
SOLID
 70
     1
 71
     1
 91
        1
 92
        1
 93
       10
 72
     1
 10
-5.54261373156593
 20
0.3847798570503629
 11
-5.514859913331368
 21
0.3847798570503629
 72
     1
 10
-5.514859913331368
 20
0.3847798570503629
 11
-5.277607530427379
 21
0.0549294860976362
 72
     1
 10
-5.277607530427379
 20
0.0549294860976362
 11
-5.277607530427379
 21
0.3847798570503629
 72
     1
 10
-5.277607530427379
 20
0.3847798570503629
 11
-5.251558592442266
 21
0.3847798570503629
 72
     1
 10
-5.251558592442266
 20
0.3847798570503629
 11
-5.251558592442266
 21
0.0150235441937336
 72
     1
 10
-5.251558592442266
 20
0.0150235441937336
 11
-5.279270278006706
 21
0.0150235441937336
 72
     1
 10
-5.279270278006706
 20
0.0150235441937336
 11
-5.516522329157421
 21
0.340441690952452
 72
     1
 10
-5.516522329157421
 20
0.340441690952452
 11
-5.516522329157421
 21
0.0150235441937336
 72
     1
 10
-5.516522329157421
 20
0.0150235441937336
 11
-5.54261373156593
 21
0.0150235441937336
 72
     1
 10
-5.54261373156593
 20
0.0150235441937336
 11
-5.54261373156593
 21
0.3847798570503629
 97
        1
330
D4
 75
     2
 76
     1
 98
        1
 10
0.0
 20
0.0
450
        0
451
        0
460
0.0
461
0.0
452
        0
462
0.0
453
        0
470

  0
SPLINE
  5
D6
330
C1
100
AcDbEntity
  8
Layer 2
100
AcDbSpline
210
0.0
220
0.0
230
1.0
 70
    11
 71
     3
 72
    14
 73
    10
 74
     0
 42
0.0000000001
 43
0.0000000001
 40
0.0
 40
0.0
 40
0.0
 40
0.0
 40
1.0
 40
1.0
 40
1.0
 40
2.0
 40
2.0
 40
2.0
 40
3.0
 40
3.0
 40
3.0
 40
3.0
 10
-4.918954669033824
 20
0.1591663754483711
 30
0.0
 10
-4.918954669033824
 20
0.1591663754483711
 30
0.0
 10
-4.996035559610845
 20
0.3509728679592727
 30
0.0
 10
-4.996035559610845
 20
0.3509728679592727
 30
0.0
 10
-4.996035559610845
 20
0.3509728679592727
 30
0.0
 10
-5.073073322257755
 20
0.1591663754483711
 30
0.0
 10
-5.073073322257755
 20
0.1591663754483711
 30
0.0
 10
-5.073073322257755
 20
0.1591663754483711
 30
0.0
 10
-4.918954669033824
 20
0.1591663754483711
 30
0.0
 10
-4.918954669033824
 20
0.1591663754483711
 30
0.0
  0
SPLINE
  5
D7
330
C1
100
AcDbEntity
  8
Layer 2
100
AcDbSpline
210
0.0
220
0.0
230
1.0
 70
    11
 71
     3
 72
    29
 73
    25
 74
     0
 42
0.0000000001
 43
0.0000000001
 40
0.0
 40
0.0
 40
0.0
 40
0.0
 40
1.0
 40
1.0
 40
1.0
 40
2.0
 40
2.0
 40
2.0
 40
3.0
 40
3.0
 40
3.0
 40
4.0
 40
4.0
 40
4.0
 40
5.0
 40
5.0
 40
5.0
 40
6.0
 40
6.0
 40
6.0
 40
7.0
 40
7.0
 40
7.0
 40
8.0
 40
8.0
 40
8.0
 40
8.0
 10
-5.008185692760346
 20
0.3847798570503629
 30
0.0
 10
-5.008185692760346
 20
0.3847798570503629
 30
0.0
 10
-4.98158272675097
 20
0.3847798570503629
 30
0.0
 10
-4.98158272675097
 20
0.3847798570503629
 30
0.0
 10
-4.98158272675097
 20
0.3847798570503629
 30
0.0
 10
-4.830235872414783
 20
0.0150235441937336
 30
0.0
 10
-4.830235872414783
 20
0.0150235441937336
 30
0.0
 10
-4.830235872414783
 20
0.0150235441937336
 30
0.0
 10
-4.860760826030463
 20
0.0150235441937336
 30
0.0
 10
-4.860760826030463
 20
0.0150235441937336
 30
0.0
 10
-4.860760826030463
 20
0.0150235441937336
 30
0.0
 10
-4.908978847064481
 20
0.1342264887714716
 30
0.0
 10
-4.908978847064481
 20
0.1342264887714716
 30
0.0
 10
-4.908978847064481
 20
0.1342264887714716
 30
0.0
 10
-5.083049475980399
 20
0.1342264887714716
 30
0.0
 10
-5.083049475980399
 20
0.1342264887714716
 30
0.0
 10
-5.083049475980399
 20
0.1342264887714716
 30
0.0
 10
-5.130712805483565
 20
0.0150235441937336
 30
0.0
 10
-5.130712805483565
 20
0.0150235441937336
 30
0.0
 10
-5.130712805483565
 20
0.0150235441937336
 30
0.0
 10
-5.159532878849782
 20
0.0150235441937336
 30
0.0
 10
-5.159532878849782
 20
0.0150235441937336
 30
0.0
 10
-5.159532878849782
 20
0.0150235441937336
 30
0.0
 10
-5.008185692760346
 20
0.3847798570503629
 30
0.0
 10
-5.008185692760346
 20
0.3847798570503629
 30
0.0
  0
HATCH
  5
D8
330
C1
100
AcDbEntity
  8
Layer 2
 62
   250
420
  2170655
440
 33554687
100
AcDbHatch
 10
0.0
 20
0.0
 30
0.0
210
0.0
220
0.0
230
1.0
  2
SOLID
 70
     1
 71
     1
 91
        2
 92
        1
 93
        1
 72
     4
 94
        3
 73
     0
 74
     0
 95
       14
 96
       10
 40
0.0
 40
0.0
 40
0.0
 40
0.0
 40
1.0
 40
1.0
 40
1.0
 40
2.0
 40
2.0
 40
2.0
 40
3.0
 40
3.0
 40
3.0
 40
3.0
 10
-4.918954669033824
 20
0.1591663754483711
 10
-4.918954669033824
 20
0.1591663754483711
 10
-4.996035559610845
 20
0.3509728679592727
 10
-4.996035559610845
 20
0.3509728679592727
 10
-4.996035559610845
 20
0.3509728679592727
 10
-5.073073322257755
 20
0.1591663754483711
 10
-5.073073322257755
 20
0.1591663754483711
 10
-5.073073322257755
 20
0.1591663754483711
 10
-4.918954669033824
 20
0.1591663754483711
 10
-4.918954669033824
 20
0.1591663754483711
 97
        0
 97
        1
330
D6
 92
        1
 93
        1
 72
     4
 94
        3
 73
     0
 74
     0
 95
       29
 96
       25
 40
0.0
 40
0.0
 40
0.0
 40
0.0
 40
1.0
 40
1.0
 40
1.0
 40
2.0
 40
2.0
 40
2.0
 40
3.0
 40
3.0
 40
3.0
 40
4.0
 40
4.0
 40
4.0
 40
5.0
 40
5.0
 40
5.0
 40
6.0
 40
6.0
 40
6.0
 40
7.0
 40
7.0
 40
7.0
 40
8.0
 40
8.0
 40
8.0
 40
8.0
 10
-5.008185692760346
 20
0.3847798570503629
 10
-5.008185692760346
 20
0.3847798570503629
 10
-4.98158272675097
 20
0.3847798570503629
 10
-4.98158272675097
 20
0.3847798570503629
 10
-4.98158272675097
 20
0.3847798570503629
 10
-4.830235872414783
 20
0.0150235441937336
 10
-4.830235872414783
 20
0.0150235441937336
 10
-4.830235872414783
 20
0.0150235441937336
 10
-4.860760826030463
 20
0.0150235441937336
 10
-4.860760826030463
 20
0.0150235441937336
 10
-4.860760826030463
 20
0.0150235441937336
 10
-4.908978847064481
 20
0.1342264887714716
 10
-4.908978847064481
 20
0.1342264887714716
 10
-4.908978847064481
 20
0.1342264887714716
 10
-5.083049475980399
 20
0.1342264887714716
 10
-5.083049475980399
 20
0.1342264887714716
 10
-5.083049475980399
 20
0.1342264887714716
 10
-5.130712805483565
 20
0.0150235441937336
 10
-5.130712805483565
 20
0.0150235441937336
 10
-5.130712805483565
 20
0.0150235441937336
 10
-5.159532878849782
 20
0.0150235441937336
 10
-5.159532878849782
 20
0.0150235441937336
 10
-5.159532878849782
 20
0.0150235441937336
 10
-5.008185692760346
 20
0.3847798570503629
 10
-5.008185692760346
 20
0.3847798570503629
 97
        0
 97
        1
330
D7
 75
     2
 76
     1
 98
        1
 10
0.0
 20
0.0
450
        0
451
        0
460
0.0
461
0.0
452
        0
462
0.0
453
        0
470

  0
LWPOLYLINE
  5
D9
330
C1
100
AcDbEntity
  8
Layer 2
100
AcDbPolyline
 90
        8
 70
     1
 43
0.0
 10
-4.692271614767074
 20
0.3609360833030577
 10
-4.835816958314012
 20
0.3609360833030577
 10
-4.835816958314012
 20
0.3847665869179258
 10
-4.522081172540613
 20
0.3847665869179258
 10
-4.522081172540613
 20
0.3609360833030577
 10
-4.665668980511011
 20
0.3609360833030577
 10
-4.665668980511011
 20
0.0150553925113349
 10
-4.692271614767074
 20
0.0150553925113349
  0
HATCH
  5
DA
330
C1
100
AcDbEntity
  8
Layer 2
 62
   250
420
  2170655
440
 33554687
100
AcDbHatch
 10
0.0
 20
0.0
 30
0.0
210
0.0
220
0.0
230
1.0
  2
SOLID
 70
     1
 71
     1
 91
        1
 92
        1
 93
        8
 72
     1
 10
-4.692271614767074
 20
0.3609360833030577
 11
-4.835816958314012
 21
0.3609360833030577
 72
     1
 10
-4.835816958314012
 20
0.3609360833030577
 11
-4.835816958314012
 21
0.3847665869179258
 72
     1
 10
-4.835816958314012
 20
0.3847665869179258
 11
-4.522081172540613
 21
0.3847665869179258
 72
     1
 10
-4.522081172540613
 20
0.3847665869179258
 11
-4.522081172540613
 21
0.3609360833030577
 72
     1
 10
-4.522081172540613
 20
0.3609360833030577
 11
-4.665668980511011
 21
0.3609360833030577
 72
     1
 10
-4.665668980511011
 20
0.3609360833030577
 11
-4.665668980511011
 21
0.0150553925113349
 72
     1
 10
-4.665668980511011
 20
0.0150553925113349
 11
-4.692271614767074
 21
0.0150553925113349
 72
     1
 10
-4.692271614767074
 20
0.0150553925113349
 11
-4.692271614767074
 21
0.3609360833030577
 97
        1
330
D9
 75
     2
 76
     1
 98
        1
 10
0.0
 20
0.0
450
        0
451
        0
460
0.0
461
0.0
452
        0
462
0.0
453
        0
470

  0
SPLINE
  5
DB
330
C1
100
AcDbEntity
  8
Layer 2
100
AcDbSpline
210
0.0
220
0.0
230
1.0
 70
    11
 71
     3
 72
    71
 73
    67
 74
     0
 42
0.0000000001
 43
0.0000000001
 40
0.0
 40
0.0
 40
0.0
 40
0.0
 40
1.0
 40
1.0
 40
1.0
 40
2.0
 40
2.0
 40
2.0
 40
3.0
 40
3.0
 40
3.0
 40
4.0
 40
4.0
 40
4.0
 40
5.0
 40
5.0
 40
5.0
 40
6.0
 40
6.0
 40
6.0
 40
7.0
 40
7.0
 40
7.0
 40
8.0
 40
8.0
 40
8.0
 40
9.0
 40
9.0
 40
9.0
 40
10.0
 40
10.0
 40
10.0
 40
11.0
 40
11.0
 40
11.0
 40
12.0
 40
12.0
 40
12.0
 40
13.0
 40
13.0
 40
13.0
 40
14.0
 40
14.0
 40
14.0
 40
15.0
 40
15.0
 40
15.0
 40
16.0
 40
16.0
 40
16.0
 40
17.0
 40
17.0
 40
17.0
 40
18.0
 40
18.0
 40
18.0
 40
19.0
 40
19.0
 40
19.0
 40
20.0
 40
20.0
 40
20.0
 40
21.0
 40
21.0
 40
21.0
 40
22.0
 40
22.0
 40
22.0
 40
22.0
 10
-4.43004185706257
 20
0.3847798570503629
 30
0.0
 10
-4.43004185706257
 20
0.3847798570503629
 30
0.0
 10
-4.403439222806544
 20
0.3847798570503629
 30
0.0
 10
-4.403439222806544
 20
0.3847798570503629
 30
0.0
 10
-4.403439222806544
 20
0.3847798570503629
 30
0.0
 10
-4.403439222806544
 20
0.1763485427724542
 30
0.0
 10
-4.403439222806544
 20
0.1763485427724542
 30
0.0
 10
-4.403439222806544
 20
0.1552437243353526
 30
0.0
 10
-4.401776475227203
 20
0.1358454449142654
 30
0.0
 10
-4.398450980068509
 20
0.118111240085606
 30
0.0
 10
-4.395125816663153
 20
0.1003743812307978
 30
0.0
 10
-4.389114446723535
 20
0.085071264642617
 30
0.0
 10
-4.38041753375622
 20
0.0721089993952925
 30
0.0
 10
-4.371720289035616
 20
0.0591493881743696
 30
0.0
 10
-4.360038591556872
 20
0.0491304382751423
 30
0.0
 10
-4.345245048049807
 20
0.0419247564269022
 30
0.0
 10
-4.330451504542755
 20
0.0347217286051394
 30
0.0
 10
-4.311607584899194
 20
0.0310963284562402
 30
0.0
 10
-4.288671488202364
 20
0.0310963284562402
 30
0.0
 10
-4.265777192422307
 20
0.0310963284562402
 30
0.0
 10
-4.246890808355348
 20
0.0347217286051394
 30
0.0
 10
-4.232139729271681
 20
0.0419247564269022
 30
0.0
 10
-4.217388981941313
 20
0.0491304382751423
 30
0.0
 10
-4.205622023862462
 20
0.0591493881743696
 30
0.0
 10
-4.196967907071868
 20
0.0721089993952925
 30
0.0
 10
-4.188227866174543
 20
0.085071264642617
 30
0.0
 10
-4.182216827988187
 20
0.1003743812307978
 30
0.0
 10
-4.178933797252991
 20
0.118111240085606
 30
0.0
 10
-4.175608633847622
 20
0.1358454449142654
 30
0.0
 10
-4.173945886268319
 20
0.1552437243353526
 30
0.0
 10
-4.173945886268319
 20
0.1763485427724542
 30
0.0
 10
-4.173945886268319
 20
0.1763485427724542
 30
0.0
 10
-4.173945886268319
 20
0.3847798570503629
 30
0.0
 10
-4.173945886268319
 20
0.3847798570503629
 30
0.0
 10
-4.173945886268319
 20
0.3847798570503629
 30
0.0
 10
-4.147342920258918
 20
0.3847798570503629
 30
0.0
 10
-4.147342920258918
 20
0.3847798570503629
 30
0.0
 10
-4.147342920258918
 20
0.3847798570503629
 30
0.0
 10
-4.147342920258918
 20
0.1624494061835927
 30
0.0
 10
-4.147342920258918
 20
0.1624494061835927
 30
0.0
 10
-4.147342920258918
 20
0.1406625029454365
 30
0.0
 10
-4.149645288215967
 20
0.1202424233357912
 30
0.0
 10
-4.154292156800099
 20
0.1012714421753521
 30
0.0
 10
-4.158896560960796
 20
0.0822128781415662
 30
0.0
 10
-4.166655939079898
 20
0.0656729852216055
 30
0.0
 10
-4.177569627650781
 20
0.051646455362465
 30
0.0
 10
-4.188441183551566
 20
0.0375774610797382
 30
0.0
 10
-4.202978945258211
 20
0.0264915925421671
 30
0.0
 10
-4.221055519500547
 20
0.0183490393523648
 30
0.0
 10
-4.239174226412981
 20
0.0102489505860477
 30
0.0
 10
-4.261727148039148
 20
0.0061564417795429
 30
0.0
 10
-4.288671488202364
 20
0.0061564417795429
 30
0.0
 10
-4.315657961035677
 20
0.0061564417795429
 30
0.0
 10
-4.338210550908558
 20
0.0102489505860477
 30
0.0
 10
-4.356287125150844
 20
0.0183490393523648
 30
0.0
 10
-4.3744489599933
 20
0.0264915925421671
 30
0.0
 10
-4.388943925523259
 20
0.0375774610797382
 30
0.0
 10
-4.399858277600742
 20
0.051646455362465
 30
0.0
 10
-4.410729501748201
 20
0.0656729852216055
 30
0.0
 10
-4.418488548113979
 20
0.0822128781415662
 30
0.0
 10
-4.423092952274702
 20
0.1012714421753521
 30
0.0
 10
-4.427740152612171
 20
0.1202424233357912
 30
0.0
 10
-4.43004185706257
 20
0.1406625029454365
 30
0.0
 10
-4.43004185706257
 20
0.1624494061835927
 30
0.0
 10
-4.43004185706257
 20
0.1624494061835927
 30
0.0
 10
-4.43004185706257
 20
0.3847798570503629
 30
0.0
 10
-4.43004185706257
 20
0.3847798570503629
 30
0.0
  0
HATCH
  5
DC
330
C1
100
AcDbEntity
  8
Layer 2
 62
   250
420
  2170655
440
 33554687
100
AcDbHatch
 10
0.0
 20
0.0
 30
0.0
210
0.0
220
0.0
230
1.0
  2
SOLID
 70
     1
 71
     1
 91
        1
 92
        1
 93
        1
 72
     4
 94
        3
 73
     0
 74
     0
 95
       71
 96
       67
 40
0.0
 40
0.0
 40
0.0
 40
0.0
 40
1.0
 40
1.0
 40
1.0
 40
2.0
 40
2.0
 40
2.0
 40
3.0
 40
3.0
 40
3.0
 40
4.0
 40
4.0
 40
4.0
 40
5.0
 40
5.0
 40
5.0
 40
6.0
 40
6.0
 40
6.0
 40
7.0
 40
7.0
 40
7.0
 40
8.0
 40
8.0
 40
8.0
 40
9.0
 40
9.0
 40
9.0
 40
10.0
 40
10.0
 40
10.0
 40
11.0
 40
11.0
 40
11.0
 40
12.0
 40
12.0
 40
12.0
 40
13.0
 40
13.0
 40
13.0
 40
14.0
 40
14.0
 40
14.0
 40
15.0
 40
15.0
 40
15.0
 40
16.0
 40
16.0
 40
16.0
 40
17.0
 40
17.0
 40
17.0
 40
18.0
 40
18.0
 40
18.0
 40
19.0
 40
19.0
 40
19.0
 40
20.0
 40
20.0
 40
20.0
 40
21.0
 40
21.0
 40
21.0
 40
22.0
 40
22.0
 40
22.0
 40
22.0
 10
-4.43004185706257
 20
0.3847798570503629
 10
-4.43004185706257
 20
0.3847798570503629
 10
-4.403439222806544
 20
0.3847798570503629
 10
-4.403439222806544
 20
0.3847798570503629
 10
-4.403439222806544
 20
0.3847798570503629
 10
-4.403439222806544
 20
0.1763485427724542
 10
-4.403439222806544
 20
0.1763485427724542
 10
-4.403439222806544
 20
0.1552437243353526
 10
-4.401776475227203
 20
0.1358454449142654
 10
-4.398450980068509
 20
0.118111240085606
 10
-4.395125816663153
 20
0.1003743812307978
 10
-4.389114446723535
 20
0.085071264642617
 10
-4.38041753375622
 20
0.0721089993952925
 10
-4.371720289035616
 20
0.0591493881743696
 10
-4.360038591556872
 20
0.0491304382751423
 10
-4.345245048049807
 20
0.0419247564269022
 10
-4.330451504542755
 20
0.0347217286051394
 10
-4.311607584899194
 20
0.0310963284562402
 10
-4.288671488202364
 20
0.0310963284562402
 10
-4.265777192422307
 20
0.0310963284562402
 10
-4.246890808355348
 20
0.0347217286051394
 10
-4.232139729271681
 20
0.0419247564269022
 10
-4.217388981941313
 20
0.0491304382751423
 10
-4.205622023862462
 20
0.0591493881743696
 10
-4.196967907071868
 20
0.0721089993952925
 10
-4.188227866174543
 20
0.085071264642617
 10
-4.182216827988187
 20
0.1003743812307978
 10
-4.178933797252991
 20
0.118111240085606
 10
-4.175608633847622
 20
0.1358454449142654
 10
-4.173945886268319
 20
0.1552437243353526
 10
-4.173945886268319
 20
0.1763485427724542
 10
-4.173945886268319
 20
0.1763485427724542
 10
-4.173945886268319
 20
0.3847798570503629
 10
-4.173945886268319
 20
0.3847798570503629
 10
-4.173945886268319
 20
0.3847798570503629
 10
-4.147342920258918
 20
0.3847798570503629
 10
-4.147342920258918
 20
0.3847798570503629
 10
-4.147342920258918
 20
0.3847798570503629
 10
-4.147342920258918
 20
0.1624494061835927
 10
-4.147342920258918
 20
0.1624494061835927
 10
-4.147342920258918
 20
0.1406625029454365
 10
-4.149645288215967
 20
0.1202424233357912
 10
-4.154292156800099
 20
0.1012714421753521
 10
-4.158896560960796
 20
0.0822128781415662
 10
-4.166655939079898
 20
0.0656729852216055
 10
-4.177569627650781
 20
0.051646455362465
 10
-4.188441183551566
 20
0.0375774610797382
 10
-4.202978945258211
 20
0.0264915925421671
 10
-4.221055519500547
 20
0.0183490393523648
 10
-4.239174226412981
 20
0.0102489505860477
 10
-4.261727148039148
 20
0.0061564417795429
 10
-4.288671488202364
 20
0.0061564417795429
 10
-4.315657961035677
 20
0.0061564417795429
 10
-4.338210550908558
 20
0.0102489505860477
 10
-4.356287125150844
 20
0.0183490393523648
 10
-4.3744489599933
 20
0.0264915925421671
 10
-4.388943925523259
 20
0.0375774610797382
 10
-4.399858277600742
 20
0.051646455362465
 10
-4.410729501748201
 20
0.0656729852216055
 10
-4.418488548113979
 20
0.0822128781415662
 10
-4.423092952274702
 20
0.1012714421753521
 10
-4.427740152612171
 20
0.1202424233357912
 10
-4.43004185706257
 20
0.1406625029454365
 10
-4.43004185706257
 20
0.1624494061835927
 10
-4.43004185706257
 20
0.1624494061835927
 10
-4.43004185706257
 20
0.3847798570503629
 10
-4.43004185706257
 20
0.3847798570503629
 97
        0
 97
        1
330
DB
 75
     2
 76
     1
 98
        1
 10
0.0
 20
0.0
450
        0
451
        0
460
0.0
461
0.0
452
        0
462
0.0
453
        0
470

  0
SPLINE
  5
DD
330
C1
100
AcDbEntity
  8
Layer 2
100
AcDbSpline
210
0.0
220
0.0
230
1.0
 70
     9
 71
     3
 72
    23
 73
    19
 74
     0
 42
0.0000000001
 43
0.0000000001
 40
0.0
 40
0.0
 40
0.0
 40
0.0
 40
1.0
 40
1.0
 40
1.0
 40
2.0
 40
2.0
 40
2.0
 40
3.0
 40
3.0
 40
3.0
 40
4.0
 40
4.0
 40
4.0
 40
5.0
 40
5.0
 40
5.0
 40
6.0
 40
6.0
 40
6.0
 40
6.0
 10
-3.898989076411794
 20
0.2001763923610724
 30
0.0
 10
-3.838024098027302
 20
0.2001763923610724
 30
0.0
 10
-3.807541277081769
 20
0.226780353630324
 30
0.0
 10
-3.807541277081769
 20
0.2799856221422235
 30
0.0
 10
-3.807541277081769
 20
0.3065869293851493
 30
0.0
 10
-3.815556437001254
 20
0.3265823647605985
 30
0.0
 10
-3.831629221263723
 20
0.3398418809717896
 30
0.0
 10
-3.847744138196212
 20
0.3531863260298501
 30
0.0
 10
-3.871277722600666
 20
0.3598373163471125
 30
0.0
 10
-3.902314571570438
 20
0.3598373163471125
 30
0.0
 10
-3.902314571570438
 20
0.3598373163471125
 30
0.0
 10
-3.994870426948978
 20
0.3598373163471125
 30
0.0
 10
-3.994870426948978
 20
0.3598373163471125
 30
0.0
 10
-3.994870426948978
 20
0.3598373163471125
 30
0.0
 10
-3.994870426948978
 20
0.2001763923610724
 30
0.0
 10
-3.994870426948978
 20
0.2001763923610724
 30
0.0
 10
-3.994870426948978
 20
0.2001763923610724
 30
0.0
 10
-3.898989076411794
 20
0.2001763923610724
 30
0.0
 10
-3.898989076411794
 20
0.2001763923610724
 30
0.0
  0
SPLINE
  5
DE
330
C1
100
AcDbEntity
  8
Layer 2
100
AcDbSpline
210
0.0
220
0.0
230
1.0
 70
    11
 71
     3
 72
    47
 73
    43
 74
     0
 42
0.0000000001
 43
0.0000000001
 40
0.0
 40
0.0
 40
0.0
 40
0.0
 40
1.0
 40
1.0
 40
1.0
 40
2.0
 40
2.0
 40
2.0
 40
3.0
 40
3.0
 40
3.0
 40
4.0
 40
4.0
 40
4.0
 40
5.0
 40
5.0
 40
5.0
 40
6.0
 40
6.0
 40
6.0
 40
7.0
 40
7.0
 40
7.0
 40
8.0
 40
8.0
 40
8.0
 40
9.0
 40
9.0
 40
9.0
 40
10.0
 40
10.0
 40
10.0
 40
11.0
 40
11.0
 40
11.0
 40
12.0
 40
12.0
 40
12.0
 40
13.0
 40
13.0
 40
13.0
 40
14.0
 40
14.0
 40
14.0
 40
14.0
 10
-4.021516189135038
 20
0.3847772030237845
 30
0.0
 10
-4.021516189135038
 20
0.3847772030237845
 30
0.0
 10
-3.910073617936227
 20
0.3847772030237845
 30
0.0
 10
-3.910073617936227
 20
0.3847772030237845
 30
0.0
 10
-3.886028801684296
 20
0.3847772030237845
 30
0.0
 10
-3.86573512008513
 20
0.3822187215130018
 30
0.0
 10
-3.849108307798435
 20
0.3770592940681277
 30
0.0
 10
-3.832481495511753
 20
0.3718175918030637
 30
0.0
 10
-3.818966861006717
 20
0.3645269811079793
 30
0.0
 10
-3.808649996636833
 20
0.3551476515861951
 30
0.0
 10
-3.798332468760286
 20
0.3457258576411783
 30
0.0
 10
-3.790786739771482
 20
0.3345975246800966
 30
0.0
 10
-3.786182335610785
 20
0.3218502355763222
 30
0.0
 10
-3.78157793145005
 20
0.3091454108958563
 30
0.0
 10
-3.779233099069617
 20
0.2951613454601505
 30
0.0
 10
-3.779233099069617
 20
0.2799856221422235
 30
0.0
 10
-3.779233099069617
 20
0.2559826068071642
 30
0.0
 10
-3.78545745463297
 20
0.2346230018295551
 30
0.0
 10
-3.797821236912783
 20
0.2159943900829957
 30
0.0
 10
-3.810227483616055
 20
0.1973631243098326
 30
0.0
 10
-3.829881213084199
 20
0.18487062174649
 30
0.0
 10
-3.856867685917538
 20
0.1785620008430063
 30
0.0
 10
-3.856867685917538
 20
0.1785620008430063
 30
0.0
 10
-3.768702585569422
 20
0.0150208901673068
 30
0.0
 10
-3.768702585569422
 20
0.0150208901673068
 30
0.0
 10
-3.768702585569422
 20
0.0150208901673068
 30
0.0
 10
-3.79922787093839
 20
0.0150208901673068
 30
0.0
 10
-3.79922787093839
 20
0.0150208901673068
 30
0.0
 10
-3.79922787093839
 20
0.0150208901673068
 30
0.0
 10
-3.88513339950623
 20
0.175236505684173
 30
0.0
 10
-3.88513339950623
 20
0.175236505684173
 30
0.0
 10
-3.88513339950623
 20
0.175236505684173
 30
0.0
 10
-3.994870426948978
 20
0.175236505684173
 30
0.0
 10
-3.994870426948978
 20
0.175236505684173
 30
0.0
 10
-3.994870426948978
 20
0.175236505684173
 30
0.0
 10
-3.994870426948978
 20
0.0150208901673068
 30
0.0
 10
-3.994870426948978
 20
0.0150208901673068
 30
0.0
 10
-3.994870426948978
 20
0.0150208901673068
 30
0.0
 10
-4.021516189135038
 20
0.0150208901673068
 30
0.0
 10
-4.021516189135038
 20
0.0150208901673068
 30
0.0
 10
-4.021516189135038
 20
0.0150208901673068
 30
0.0
 10
-4.021516189135038
 20
0.3847772030237845
 30
0.0
 10
-4.021516189135038
 20
0.3847772030237845
 30
0.0
  0
HATCH
  5
DF
330
C1
100
AcDbEntity
  8
Layer 2
 62
   250
420
  2170655
440
 33554687
100
AcDbHatch
 10
0.0
 20
0.0
 30
0.0
210
0.0
220
0.0
230
1.0
  2
SOLID
 70
     1
 71
     1
 91
        2
 92
        1
 93
        1
 72
     4
 94
        3
 73
     0
 74
     0
 95
       23
 96
       19
 40
0.0
 40
0.0
 40
0.0
 40
0.0
 40
1.0
 40
1.0
 40
1.0
 40
2.0
 40
2.0
 40
2.0
 40
3.0
 40
3.0
 40
3.0
 40
4.0
 40
4.0
 40
4.0
 40
5.0
 40
5.0
 40
5.0
 40
6.0
 40
6.0
 40
6.0
 40
6.0
 10
-3.898989076411794
 20
0.2001763923610724
 10
-3.838024098027302
 20
0.2001763923610724
 10
-3.807541277081769
 20
0.226780353630324
 10
-3.807541277081769
 20
0.2799856221422235
 10
-3.807541277081769
 20
0.3065869293851493
 10
-3.815556437001254
 20
0.3265823647605985
 10
-3.831629221263723
 20
0.3398418809717896
 10
-3.847744138196212
 20
0.3531863260298501
 10
-3.871277722600666
 20
0.3598373163471125
 10
-3.902314571570438
 20
0.3598373163471125
 10
-3.902314571570438
 20
0.3598373163471125
 10
-3.994870426948978
 20
0.3598373163471125
 10
-3.994870426948978
 20
0.3598373163471125
 10
-3.994870426948978
 20
0.3598373163471125
 10
-3.994870426948978
 20
0.2001763923610724
 10
-3.994870426948978
 20
0.2001763923610724
 10
-3.994870426948978
 20
0.2001763923610724
 10
-3.898989076411794
 20
0.2001763923610724
 10
-3.898989076411794
 20
0.2001763923610724
 97
        0
 97
        1
330
DD
 92
        1
 93
        1
 72
     4
 94
        3
 73
     0
 74
     0
 95
       47
 96
       43
 40
0.0
 40
0.0
 40
0.0
 40
0.0
 40
1.0
 40
1.0
 40
1.0
 40
2.0
 40
2.0
 40
2.0
 40
3.0
 40
3.0
 40
3.0
 40
4.0
 40
4.0
 40
4.0
 40
5.0
 40
5.0
 40
5.0
 40
6.0
 40
6.0
 40
6.0
 40
7.0
 40
7.0
 40
7.0
 40
8.0
 40
8.0
 40
8.0
 40
9.0
 40
9.0
 40
9.0
 40
10.0
 40
10.0
 40
10.0
 40
11.0
 40
11.0
 40
11.0
 40
12.0
 40
12.0
 40
12.0
 40
13.0
 40
13.0
 40
13.0
 40
14.0
 40
14.0
 40
14.0
 40
14.0
 10
-4.021516189135038
 20
0.3847772030237845
 10
-4.021516189135038
 20
0.3847772030237845
 10
-3.910073617936227
 20
0.3847772030237845
 10
-3.910073617936227
 20
0.3847772030237845
 10
-3.886028801684296
 20
0.3847772030237845
 10
-3.86573512008513
 20
0.3822187215130018
 10
-3.849108307798435
 20
0.3770592940681277
 10
-3.832481495511753
 20
0.3718175918030637
 10
-3.818966861006717
 20
0.3645269811079793
 10
-3.808649996636833
 20
0.3551476515861951
 10
-3.798332468760286
 20
0.3457258576411783
 10
-3.790786739771482
 20
0.3345975246800966
 10
-3.786182335610785
 20
0.3218502355763222
 10
-3.78157793145005
 20
0.3091454108958563
 10
-3.779233099069617
 20
0.2951613454601505
 10
-3.779233099069617
 20
0.2799856221422235
 10
-3.779233099069617
 20
0.2559826068071642
 10
-3.78545745463297
 20
0.2346230018295551
 10
-3.797821236912783
 20
0.2159943900829957
 10
-3.810227483616055
 20
0.1973631243098326
 10
-3.829881213084199
 20
0.18487062174649
 10
-3.856867685917538
 20
0.1785620008430063
 10
-3.856867685917538
 20
0.1785620008430063
 10
-3.768702585569422
 20
0.0150208901673068
 10
-3.768702585569422
 20
0.0150208901673068
 10
-3.768702585569422
 20
0.0150208901673068
 10
-3.79922787093839
 20
0.0150208901673068
 10
-3.79922787093839
 20
0.0150208901673068
 10
-3.79922787093839
 20
0.0150208901673068
 10
-3.88513339950623
 20
0.175236505684173
 10
-3.88513339950623
 20
0.175236505684173
 10
-3.88513339950623
 20
0.175236505684173
 10
-3.994870426948978
 20
0.175236505684173
 10
-3.994870426948978
 20
0.175236505684173
 10
-3.994870426948978
 20
0.175236505684173
 10
-3.994870426948978
 20
0.0150208901673068
 10
-3.994870426948978
 20
0.0150208901673068
 10
-3.994870426948978
 20
0.0150208901673068
 10
-4.021516189135038
 20
0.0150208901673068
 10
-4.021516189135038
 20
0.0150208901673068
 10
-4.021516189135038
 20
0.0150208901673068
 10
-4.021516189135038
 20
0.3847772030237845
 10
-4.021516189135038
 20
0.3847772030237845
 97
        0
 97
        1
330
DE
 75
     2
 76
     1
 98
        1
 10
0.0
 20
0.0
450
        0
451
        0
460
0.0
461
0.0
452
        0
462
0.0
453
        0
470

  0
LWPOLYLINE
  5
E0
330
C1
100
AcDbEntity
  8
Layer 2
100
AcDbPolyline
 90
       12
 70
     1
 43
0.0
 10
-3.657862810131114
 20
0.3847798570503629
 10
-3.436129183465304
 20
0.3847798570503629
 10
-3.436129183465304
 20
0.3598399703734887
 10
-3.631260175875088
 20
0.3598399703734887
 10
-3.631260175875088
 20
0.2201320173393368
 10
-3.478804601983799
 20
0.2201320173393368
 10
-3.478804601983799
 20
0.19519213066269
 10
-3.631260175875088
 20
0.19519213066269
 10
-3.631260175875088
 20
0.0399634308704309
 10
-3.42176194295895
 20
0.0399634308704309
 10
-3.42176194295895
 20
0.0150235441937336
 10
-3.657862810131114
 20
0.0150235441937336
  0
HATCH
  5
E1
330
C1
100
AcDbEntity
  8
Layer 2
 62
   250
420
  2170655
440
 33554687
100
AcDbHatch
 10
0.0
 20
0.0
 30
0.0
210
0.0
220
0.0
230
1.0
  2
SOLID
 70
     1
 71
     1
 91
        1
 92
        1
 93
       12
 72
     1
 10
-3.657862810131114
 20
0.3847798570503629
 11
-3.436129183465304
 21
0.3847798570503629
 72
     1
 10
-3.436129183465304
 20
0.3847798570503629
 11
-3.436129183465304
 21
0.3598399703734887
 72
     1
 10
-3.436129183465304
 20
0.3598399703734887
 11
-3.631260175875088
 21
0.3598399703734887
 72
     1
 10
-3.631260175875088
 20
0.3598399703734887
 11
-3.631260175875088
 21
0.2201320173393368
 72
     1
 10
-3.631260175875088
 20
0.2201320173393368
 11
-3.478804601983799
 21
0.2201320173393368
 72
     1
 10
-3.478804601983799
 20
0.2201320173393368
 11
-3.478804601983799
 21
0.19519213066269
 72
     1
 10
-3.478804601983799
 20
0.19519213066269
 11
-3.631260175875088
 21
0.19519213066269
 72
     1
 10
-3.631260175875088
 20
0.19519213066269
 11
-3.631260175875088
 21
0.0399634308704309
 72
     1
 10
-3.631260175875088
 20
0.0399634308704309
 11
-3.42176194295895
 21
0.0399634308704309
 72
     1
 10
-3.42176194295895
 20
0.0399634308704309
 11
-3.42176194295895
 21
0.0150235441937336
 72
     1
 10
-3.42176194295895
 20
0.0150235441937336
 11
-3.657862810131114
 21
0.0150235441937336
 72
     1
 10
-3.657862810131114
 20
0.0150235441937336
 11
-3.657862810131114
 21
0.3847798570503629
 97
        1
330
E0
 75
     2
 76
     1
 98
        1
 10
0.0
 20
0.0
450
        0
451
        0
460
0.0
461
0.0
452
        0
462
0.0
453
        0
470

  0
LWPOLYLINE
  5
E2
330
C1
100
AcDbEntity
  8
Layer 2
100
AcDbPolyline
 90
       12
 70
     1
 43
0.0
 10
-3.104662842149751
 20
0.3847798570503629
 10
-3.077974615540268
 20
0.3847798570503629
 10
-3.077974615540268
 20
0.2201320173393368
 10
-2.845199243526748
 20
0.2201320173393368
 10
-2.845199243526748
 20
0.3847798570503629
 10
-2.818595945764084
 20
0.3847798570503629
 10
-2.818595945764084
 20
0.0150235441937336
 10
-2.845199243526748
 20
0.0150235441937336
 10
-2.845199243526748
 20
0.19519213066269
 10
-3.077974615540268
 20
0.19519213066269
 10
-3.077974615540268
 20
0.0150235441937336
 10
-3.104662842149751
 20
0.0150235441937336
  0
HATCH
  5
E3
330
C1
100
AcDbEntity
  8
Layer 2
 62
   250
420
  2170655
440
 33554687
100
AcDbHatch
 10
0.0
 20
0.0
 30
0.0
210
0.0
220
0.0
230
1.0
  2
SOLID
 70
     1
 71
     1
 91
        1
 92
        1
 93
       12
 72
     1
 10
-3.104662842149751
 20
0.3847798570503629
 11
-3.077974615540268
 21
0.3847798570503629
 72
     1
 10
-3.077974615540268
 20
0.3847798570503629
 11
-3.077974615540268
 21
0.2201320173393368
 72
     1
 10
-3.077974615540268
 20
0.2201320173393368
 11
-2.845199243526748
 21
0.2201320173393368
 72
     1
 10
-2.845199243526748
 20
0.2201320173393368
 11
-2.845199243526748
 21
0.3847798570503629
 72
     1
 10
-2.845199243526748
 20
0.3847798570503629
 11
-2.818595945764084
 21
0.3847798570503629
 72
     1
 10
-2.818595945764084
 20
0.3847798570503629
 11
-2.818595945764084
 21
0.0150235441937336
 72
     1
 10
-2.818595945764084
 20
0.0150235441937336
 11
-2.845199243526748
 21
0.0150235441937336
 72
     1
 10
-2.845199243526748
 20
0.0150235441937336
 11
-2.845199243526748
 21
0.19519213066269
 72
     1
 10
-2.845199243526748
 20
0.19519213066269
 11
-3.077974615540268
 21
0.19519213066269
 72
     1
 10
-3.077974615540268
 20
0.19519213066269
 11
-3.077974615540268
 21
0.0150235441937336
 72
     1
 10
-3.077974615540268
 20
0.0150235441937336
 11
-3.104662842149751
 21
0.0150235441937336
 72
     1
 10
-3.104662842149751
 20
0.0150235441937336
 11
-3.104662842149751
 21
0.3847798570503629
 97
        1
330
E2
 75
     2
 76
     1
 98
        1
 10
0.0
 20
0.0
450
        0
451
        0
460
0.0
461
0.0
452
        0
462
0.0
453
        0
470

  0
SPLINE
  5
E4
330
C1
100
AcDbEntity
  8
Layer 2
100
AcDbSpline
210
0.0
220
0.0
230
1.0
 70
    11
 71
     3
 72
    14
 73
    10
 74
     0
 42
0.0000000001
 43
0.0000000001
 40
0.0
 40
0.0
 40
0.0
 40
0.0
 40
1.0
 40
1.0
 40
1.0
 40
2.0
 40
2.0
 40
2.0
 40
3.0
 40
3.0
 40
3.0
 40
3.0
 10
-2.485987377809351
 20
0.1591663754483711
 30
0.0
 10
-2.485987377809351
 20
0.1591663754483711
 30
0.0
 10
-2.563068268386334
 20
0.3509728679592727
 30
0.0
 10
-2.563068268386334
 20
0.3509728679592727
 30
0.0
 10
-2.563068268386334
 20
0.3509728679592727
 30
0.0
 10
-2.640105367526631
 20
0.1591663754483711
 30
0.0
 10
-2.640105367526631
 20
0.1591663754483711
 30
0.0
 10
-2.640105367526631
 20
0.1591663754483711
 30
0.0
 10
-2.485987377809351
 20
0.1591663754483711
 30
0.0
 10
-2.485987377809351
 20
0.1591663754483711
 30
0.0
  0
SPLINE
  5
E5
330
C1
100
AcDbEntity
  8
Layer 2
100
AcDbSpline
210
0.0
220
0.0
230
1.0
 70
    11
 71
     3
 72
    29
 73
    25
 74
     0
 42
0.0000000001
 43
0.0000000001
 40
0.0
 40
0.0
 40
0.0
 40
0.0
 40
1.0
 40
1.0
 40
1.0
 40
2.0
 40
2.0
 40
2.0
 40
3.0
 40
3.0
 40
3.0
 40
4.0
 40
4.0
 40
4.0
 40
5.0
 40
5.0
 40
5.0
 40
6.0
 40
6.0
 40
6.0
 40
7.0
 40
7.0
 40
7.0
 40
8.0
 40
8.0
 40
8.0
 40
8.0
 10
-2.575260865959257
 20
0.3847798570503629
 30
0.0
 10
-2.575260865959257
 20
0.3847798570503629
 30
0.0
 10
-2.54865756819658
 20
0.3847798570503629
 30
0.0
 10
-2.54865756819658
 20
0.3847798570503629
 30
0.0
 10
-2.54865756819658
 20
0.3847798570503629
 30
0.0
 10
-2.397311045613719
 20
0.0150235441937336
 30
0.0
 10
-2.397311045613719
 20
0.0150235441937336
 30
0.0
 10
-2.397311045613719
 20
0.0150235441937336
 30
0.0
 10
-2.427793866559252
 20
0.0150235441937336
 30
0.0
 10
-2.427793866559252
 20
0.0150235441937336
 30
0.0
 10
-2.427793866559252
 20
0.0150235441937336
 30
0.0
 10
-2.476011555839969
 20
0.1342264887714716
 30
0.0
 10
-2.476011555839969
 20
0.1342264887714716
 30
0.0
 10
-2.476011555839969
 20
0.1342264887714716
 30
0.0
 10
-2.650081853002613
 20
0.1342264887714716
 30
0.0
 10
-2.650081853002613
 20
0.1342264887714716
 30
0.0
 10
-2.650081853002613
 20
0.1342264887714716
 30
0.0
 10
-2.697745514259092
 20
0.0150235441937336
 30
0.0
 10
-2.697745514259092
 20
0.0150235441937336
 30
0.0
 10
-2.697745514259092
 20
0.0150235441937336
 30
0.0
 10
-2.726564924118684
 20
0.0150235441937336
 30
0.0
 10
-2.726564924118684
 20
0.0150235441937336
 30
0.0
 10
-2.726564924118684
 20
0.0150235441937336
 30
0.0
 10
-2.575260865959257
 20
0.3847798570503629
 30
0.0
 10
-2.575260865959257
 20
0.3847798570503629
 30
0.0
  0
HATCH
  5
E6
330
C1
100
AcDbEntity
  8
Layer 2
 62
   250
420
  2170655
440
 33554687
100
AcDbHatch
 10
0.0
 20
0.0
 30
0.0
210
0.0
220
0.0
230
1.0
  2
SOLID
 70
     1
 71
     1
 91
        2
 92
        1
 93
        1
 72
     4
 94
        3
 73
     0
 74
     0
 95
       14
 96
       10
 40
0.0
 40
0.0
 40
0.0
 40
0.0
 40
1.0
 40
1.0
 40
1.0
 40
2.0
 40
2.0
 40
2.0
 40
3.0
 40
3.0
 40
3.0
 40
3.0
 10
-2.485987377809351
 20
0.1591663754483711
 10
-2.485987377809351
 20
0.1591663754483711
 10
-2.563068268386334
 20
0.3509728679592727
 10
-2.563068268386334
 20
0.3509728679592727
 10
-2.563068268386334
 20
0.3509728679592727
 10
-2.640105367526631
 20
0.1591663754483711
 10
-2.640105367526631
 20
0.1591663754483711
 10
-2.640105367526631
 20
0.1591663754483711
 10
-2.485987377809351
 20
0.1591663754483711
 10
-2.485987377809351
 20
0.1591663754483711
 97
        0
 97
        1
330
E4
 92
        1
 93
        1
 72
     4
 94
        3
 73
     0
 74
     0
 95
       29
 96
       25
 40
0.0
 40
0.0
 40
0.0
 40
0.0
 40
1.0
 40
1.0
 40
1.0
 40
2.0
 40
2.0
 40
2.0
 40
3.0
 40
3.0
 40
3.0
 40
4.0
 40
4.0
 40
4.0
 40
5.0
 40
5.0
 40
5.0
 40
6.0
 40
6.0
 40
6.0
 40
7.0
 40
7.0
 40
7.0
 40
8.0
 40
8.0
 40
8.0
 40
8.0
 10
-2.575260865959257
 20
0.3847798570503629
 10
-2.575260865959257
 20
0.3847798570503629
 10
-2.54865756819658
 20
0.3847798570503629
 10
-2.54865756819658
 20
0.3847798570503629
 10
-2.54865756819658
 20
0.3847798570503629
 10
-2.397311045613719
 20
0.0150235441937336
 10
-2.397311045613719
 20
0.0150235441937336
 10
-2.397311045613719
 20
0.0150235441937336
 10
-2.427793866559252
 20
0.0150235441937336
 10
-2.427793866559252
 20
0.0150235441937336
 10
-2.427793866559252
 20
0.0150235441937336
 10
-2.476011555839969
 20
0.1342264887714716
 10
-2.476011555839969
 20
0.1342264887714716
 10
-2.476011555839969
 20
0.1342264887714716
 10
-2.650081853002613
 20
0.1342264887714716
 10
-2.650081853002613
 20
0.1342264887714716
 10
-2.650081853002613
 20
0.1342264887714716
 10
-2.697745514259092
 20
0.0150235441937336
 10
-2.697745514259092
 20
0.0150235441937336
 10
-2.697745514259092
 20
0.0150235441937336
 10
-2.726564924118684
 20
0.0150235441937336
 10
-2.726564924118684
 20
0.0150235441937336
 10
-2.726564924118684
 20
0.0150235441937336
 10
-2.575260865959257
 20
0.3847798570503629
 10
-2.575260865959257
 20
0.3847798570503629
 97
        0
 97
        1
330
E5
 75
     2
 76
     1
 98
        1
 10
0.0
 20
0.0
450
        0
451
        0
460
0.0
461
0.0
452
        0
462
0.0
453
        0
470

  0
SPLINE
  5
E7
330
C1
100
AcDbEntity
  8
Layer 2
100
AcDbSpline
210
0.0
220
0.0
230
1.0
 70
     9
 71
     3
 72
    23
 73
    19
 74
     0
 42
0.0000000001
 43
0.0000000001
 40
0.0
 40
0.0
 40
0.0
 40
0.0
 40
1.0
 40
1.0
 40
1.0
 40
2.0
 40
2.0
 40
2.0
 40
3.0
 40
3.0
 40
3.0
 40
4.0
 40
4.0
 40
4.0
 40
5.0
 40
5.0
 40
5.0
 40
6.0
 40
6.0
 40
6.0
 40
6.0
 10
-2.182748266698733
 20
0.2001763923610724
 30
0.0
 10
-2.121783288314254
 20
0.2001763923610724
 30
0.0
 10
-2.091301130875308
 20
0.226780353630324
 30
0.0
 10
-2.091301130875308
 20
0.2799856221422235
 30
0.0
 10
-2.091301130875308
 20
0.3065869293851493
 30
0.0
 10
-2.099358755218241
 20
0.3265823647605985
 30
0.0
 10
-2.115430875974058
 20
0.3398418809717896
 30
0.0
 10
-2.131503660236489
 20
0.3531863260298501
 30
0.0
 10
-2.155036912887605
 20
0.3598373163471125
 30
0.0
 10
-2.186073761857401
 20
0.3598373163471125
 30
0.0
 10
-2.186073761857401
 20
0.3598373163471125
 30
0.0
 10
-2.278672745165951
 20
0.3598373163471125
 30
0.0
 10
-2.278672745165951
 20
0.3598373163471125
 30
0.0
 10
-2.278672745165951
 20
0.3598373163471125
 30
0.0
 10
-2.278672745165951
 20
0.2001763923610724
 30
0.0
 10
-2.278672745165951
 20
0.2001763923610724
 30
0.0
 10
-2.278672745165951
 20
0.2001763923610724
 30
0.0
 10
-2.182748266698733
 20
0.2001763923610724
 30
0.0
 10
-2.182748266698733
 20
0.2001763923610724
 30
0.0
  0
SPLINE
  5
E8
330
C1
100
AcDbEntity
  8
Layer 2
100
AcDbSpline
210
0.0
220
0.0
230
1.0
 70
    11
 71
     3
 72
    47
 73
    43
 74
     0
 42
0.0000000001
 43
0.0000000001
 40
0.0
 40
0.0
 40
0.0
 40
0.0
 40
1.0
 40
1.0
 40
1.0
 40
2.0
 40
2.0
 40
2.0
 40
3.0
 40
3.0
 40
3.0
 40
4.0
 40
4.0
 40
4.0
 40
5.0
 40
5.0
 40
5.0
 40
6.0
 40
6.0
 40
6.0
 40
7.0
 40
7.0
 40
7.0
 40
8.0
 40
8.0
 40
8.0
 40
9.0
 40
9.0
 40
9.0
 40
10.0
 40
10.0
 40
10.0
 40
11.0
 40
11.0
 40
11.0
 40
12.0
 40
12.0
 40
12.0
 40
13.0
 40
13.0
 40
13.0
 40
14.0
 40
14.0
 40
14.0
 40
14.0
 10
-2.305276042928628
 20
0.3847772030237845
 30
0.0
 10
-2.305276042928628
 20
0.3847772030237845
 30
0.0
 10
-2.193833471729804
 20
0.3847772030237845
 30
0.0
 10
-2.193833471729804
 20
0.3847772030237845
 30
0.0
 10
-2.169831119901282
 20
0.3847772030237845
 30
0.0
 10
-2.149494642125407
 20
0.3822187215130018
 30
0.0
 10
-2.1328678298387
 20
0.3770592940681277
 30
0.0
 10
-2.116241017552018
 20
0.3718175918030637
 30
0.0
 10
-2.102769179223716
 20
0.3645269811079793
 30
0.0
 10
-2.092409850430385
 20
0.3551476515861951
 30
0.0
 10
-2.082092322553888
 20
0.3457258576411783
 30
0.0
 10
-2.074589389741807
 20
0.3345975246800966
 30
0.0
 10
-2.069984653827759
 20
0.3218502355763222
 30
0.0
 10
-2.065337453490352
 20
0.3091454108958563
 30
0.0
 10
-2.063035085533316
 20
0.2951613454601505
 30
0.0
 10
-2.063035085533316
 20
0.2799856221422235
 30
0.0
 10
-2.063035085533316
 20
0.2559826068071642
 30
0.0
 10
-2.069216976673235
 20
0.2346230018295551
 30
0.0
 10
-2.081623223376494
 20
0.2159943900829957
 30
0.0
 10
-2.093987005656281
 20
0.1973631243098326
 30
0.0
 10
-2.113683199547886
 20
0.18487062174649
 30
0.0
 10
-2.140627539711102
 20
0.1785620008430063
 30
0.0
 10
-2.140627539711102
 20
0.1785620008430063
 30
0.0
 10
-2.052505235539709
 20
0.0150208901673068
 30
0.0
 10
-2.052505235539709
 20
0.0150208901673068
 30
0.0
 10
-2.052505235539709
 20
0.0150208901673068
 30
0.0
 10
-2.082987392978654
 20
0.0150208901673068
 30
0.0
 10
-2.082987392978654
 20
0.0150208901673068
 30
0.0
 10
-2.082987392978654
 20
0.0150208901673068
 30
0.0
 10
-2.168892921546469
 20
0.175236505684173
 30
0.0
 10
-2.168892921546469
 20
0.175236505684173
 30
0.0
 10
-2.168892921546469
 20
0.175236505684173
 30
0.0
 10
-2.278672745165951
 20
0.175236505684173
 30
0.0
 10
-2.278672745165951
 20
0.175236505684173
 30
0.0
 10
-2.278672745165951
 20
0.175236505684173
 30
0.0
 10
-2.278672745165951
 20
0.0150208901673068
 30
0.0
 10
-2.278672745165951
 20
0.0150208901673068
 30
0.0
 10
-2.278672745165951
 20
0.0150208901673068
 30
0.0
 10
-2.305276042928628
 20
0.0150208901673068
 30
0.0
 10
-2.305276042928628
 20
0.0150208901673068
 30
0.0
 10
-2.305276042928628
 20
0.0150208901673068
 30
0.0
 10
-2.305276042928628
 20
0.3847772030237845
 30
0.0
 10
-2.305276042928628
 20
0.3847772030237845
 30
0.0
  0
HATCH
  5
E9
330
C1
100
AcDbEntity
  8
Layer 2
 62
   250
420
  2170655
440
 33554687
100
AcDbHatch
 10
0.0
 20
0.0
 30
0.0
210
0.0
220
0.0
230
1.0
  2
SOLID
 70
     1
 71
     1
 91
        2
 92
        1
 93
        1
 72
     4
 94
        3
 73
     0
 74
     0
 95
       23
 96
       19
 40
0.0
 40
0.0
 40
0.0
 40
0.0
 40
1.0
 40
1.0
 40
1.0
 40
2.0
 40
2.0
 40
2.0
 40
3.0
 40
3.0
 40
3.0
 40
4.0
 40
4.0
 40
4.0
 40
5.0
 40
5.0
 40
5.0
 40
6.0
 40
6.0
 40
6.0
 40
6.0
 10
-2.182748266698733
 20
0.2001763923610724
 10
-2.121783288314254
 20
0.2001763923610724
 10
-2.091301130875308
 20
0.226780353630324
 10
-2.091301130875308
 20
0.2799856221422235
 10
-2.091301130875308
 20
0.3065869293851493
 10
-2.099358755218241
 20
0.3265823647605985
 10
-2.115430875974058
 20
0.3398418809717896
 10
-2.131503660236489
 20
0.3531863260298501
 10
-2.155036912887605
 20
0.3598373163471125
 10
-2.186073761857401
 20
0.3598373163471125
 10
-2.186073761857401
 20
0.3598373163471125
 10
-2.278672745165951
 20
0.3598373163471125
 10
-2.278672745165951
 20
0.3598373163471125
 10
-2.278672745165951
 20
0.3598373163471125
 10
-2.278672745165951
 20
0.2001763923610724
 10
-2.278672745165951
 20
0.2001763923610724
 10
-2.278672745165951
 20
0.2001763923610724
 10
-2.182748266698733
 20
0.2001763923610724
 10
-2.182748266698733
 20
0.2001763923610724
 97
        0
 97
        1
330
E7
 92
        1
 93
        1
 72
     4
 94
        3
 73
     0
 74
     0
 95
       47
 96
       43
 40
0.0
 40
0.0
 40
0.0
 40
0.0
 40
1.0
 40
1.0
 40
1.0
 40
2.0
 40
2.0
 40
2.0
 40
3.0
 40
3.0
 40
3.0
 40
4.0
 40
4.0
 40
4.0
 40
5.0
 40
5.0
 40
5.0
 40
6.0
 40
6.0
 40
6.0
 40
7.0
 40
7.0
 40
7.0
 40
8.0
 40
8.0
 40
8.0
 40
9.0
 40
9.0
 40
9.0
 40
10.0
 40
10.0
 40
10.0
 40
11.0
 40
11.0
 40
11.0
 40
12.0
 40
12.0
 40
12.0
 40
13.0
 40
13.0
 40
13.0
 40
14.0
 40
14.0
 40
14.0
 40
14.0
 10
-2.305276042928628
 20
0.3847772030237845
 10
-2.305276042928628
 20
0.3847772030237845
 10
-2.193833471729804
 20
0.3847772030237845
 10
-2.193833471729804
 20
0.3847772030237845
 10
-2.169831119901282
 20
0.3847772030237845
 10
-2.149494642125407
 20
0.3822187215130018
 10
-2.1328678298387
 20
0.3770592940681277
 10
-2.116241017552018
 20
0.3718175918030637
 10
-2.102769179223716
 20
0.3645269811079793
 10
-2.092409850430385
 20
0.3551476515861951
 10
-2.082092322553888
 20
0.3457258576411783
 10
-2.074589389741807
 20
0.3345975246800966
 10
-2.069984653827759
 20
0.3218502355763222
 10
-2.065337453490352
 20
0.3091454108958563
 10
-2.063035085533316
 20
0.2951613454601505
 10
-2.063035085533316
 20
0.2799856221422235
 10
-2.063035085533316
 20
0.2559826068071642
 10
-2.069216976673235
 20
0.2346230018295551
 10
-2.081623223376494
 20
0.2159943900829957
 10
-2.093987005656281
 20
0.1973631243098326
 10
-2.113683199547886
 20
0.18487062174649
 10
-2.140627539711102
 20
0.1785620008430063
 10
-2.140627539711102
 20
0.1785620008430063
 10
-2.052505235539709
 20
0.0150208901673068
 10
-2.052505235539709
 20
0.0150208901673068
 10
-2.052505235539709
 20
0.0150208901673068
 10
-2.082987392978654
 20
0.0150208901673068
 10
-2.082987392978654
 20
0.0150208901673068
 10
-2.082987392978654
 20
0.0150208901673068
 10
-2.168892921546469
 20
0.175236505684173
 10
-2.168892921546469
 20
0.175236505684173
 10
-2.168892921546469
 20
0.175236505684173
 10
-2.278672745165951
 20
0.175236505684173
 10
-2.278672745165951
 20
0.175236505684173
 10
-2.278672745165951
 20
0.175236505684173
 10
-2.278672745165951
 20
0.0150208901673068
 10
-2.278672745165951
 20
0.0150208901673068
 10
-2.278672745165951
 20
0.0150208901673068
 10
-2.305276042928628
 20
0.0150208901673068
 10
-2.305276042928628
 20
0.0150208901673068
 10
-2.305276042928628
 20
0.0150208901673068
 10
-2.305276042928628
 20
0.3847772030237845
 10
-2.305276042928628
 20
0.3847772030237845
 97
        0
 97
        1
330
E8
 75
     2
 76
     1
 98
        1
 10
0.0
 20
0.0
450
        0
451
        0
460
0.0
461
0.0
452
        0
462
0.0
453
        0
470

  0
SPLINE
  5
EA
330
C1
100
AcDbEntity
  8
Layer 2
100
AcDbSpline
210
0.0
220
0.0
230
1.0
 70
     9
 71
     3
 72
    38
 73
    34
 74
     0
 42
0.0000000001
 43
0.0000000001
 40
0.0
 40
0.0
 40
0.0
 40
0.0
 40
1.0
 40
1.0
 40
1.0
 40
2.0
 40
2.0
 40
2.0
 40
3.0
 40
3.0
 40
3.0
 40
4.0
 40
4.0
 40
4.0
 40
5.0
 40
5.0
 40
5.0
 40
6.0
 40
6.0
 40
6.0
 40
7.0
 40
7.0
 40
7.0
 40
8.0
 40
8.0
 40
8.0
 40
9.0
 40
9.0
 40
9.0
 40
10.0
 40
10.0
 40
10.0
 40
11.0
 40
11.0
 40
11.0
 40
11.0
 10
-1.835188904168957
 20
0.0399660848968071
 30
0.0
 10
-1.808969776736881
 20
0.0399660848968071
 30
0.0
 10
-1.785222874955454
 20
0.0432491156322309
 30
0.0
 10
-1.763949525837953
 20
0.0496426653825589
 30
0.0
 10
-1.742674849707239
 20
0.0561237980061075
 30
0.0
 10
-1.724514010124708
 20
0.0660578190587431
 30
0.0
 10
-1.709336296287069
 20
0.0793597996933941
 30
0.0
 10
-1.694201710379426
 20
0.0926166618781584
 30
0.0
 10
-1.682563140830741
 20
0.1093715309416944
 30
0.0
 10
-1.674419924134339
 20
0.1295368240108069
 30
0.0
 10
-1.666319835368022
 20
0.1496171882329236
 30
0.0
 10
-1.662269127478212
 20
0.173192905307461
 30
0.0
 10
-1.662269127478212
 20
0.2001817004138502
 30
0.0
 10
-1.662269127478212
 20
0.2271253770704789
 30
0.0
 10
-1.666404764214841
 20
0.2506586297216573
 30
0.0
 10
-1.674718502111494
 20
0.2705664822236839
 30
0.0
 10
-1.683074704431545
 20
0.2905619175991331
 30
0.0
 10
-1.694841330757109
 20
0.3071469289689806
 30
0.0
 10
-1.710188902288425
 20
0.3204913740270159
 30
0.0
 10
-1.725537137326366
 20
0.3337508902382575
 30
0.0
 10
-1.744082147239472
 20
0.3436397928408041
 30
0.0
 10
-1.765910187887824
 20
0.3501209254645801
 30
0.0
 10
-1.787738228536189
 20
0.3566020580881286
 30
0.0
 10
-1.812295271895537
 20
0.3598399703734887
 30
0.0
 10
-1.839622455376103
 20
0.3598399703734887
 30
0.0
 10
-1.839622455376103
 20
0.3598399703734887
 30
0.0
 10
-1.915039934867144
 20
0.3598399703734887
 30
0.0
 10
-1.915039934867144
 20
0.3598399703734887
 30
0.0
 10
-1.915039934867144
 20
0.3598399703734887
 30
0.0
 10
-1.915039934867144
 20
0.0399660848968071
 30
0.0
 10
-1.915039934867144
 20
0.0399660848968071
 30
0.0
 10
-1.915039934867144
 20
0.0399660848968071
 30
0.0
 10
-1.835188904168957
 20
0.0399660848968071
 30
0.0
 10
-1.835188904168957
 20
0.0399660848968071
 30
0.0
  0
SPLINE
  5
EB
330
C1
100
AcDbEntity
  8
Layer 2
100
AcDbSpline
210
0.0
220
0.0
230
1.0
 70
    11
 71
     3
 72
    38
 73
    34
 74
     0
 42
0.0000000001
 43
0.0000000001
 40
0.0
 40
0.0
 40
0.0
 40
0.0
 40
1.0
 40
1.0
 40
1.0
 40
2.0
 40
2.0
 40
2.0
 40
3.0
 40
3.0
 40
3.0
 40
4.0
 40
4.0
 40
4.0
 40
5.0
 40
5.0
 40
5.0
 40
6.0
 40
6.0
 40
6.0
 40
7.0
 40
7.0
 40
7.0
 40
8.0
 40
8.0
 40
8.0
 40
9.0
 40
9.0
 40
9.0
 40
10.0
 40
10.0
 40
10.0
 40
11.0
 40
11.0
 40
11.0
 40
11.0
 10
-1.941600768206361
 20
0.3847825110767897
 30
0.0
 10
-1.941600768206361
 20
0.3847825110767897
 30
0.0
 10
-1.840774302861228
 20
0.3847825110767897
 30
0.0
 10
-1.840774302861228
 20
0.3847825110767897
 30
0.0
 10
-1.810462003115933
 20
0.3847825110767897
 30
0.0
 10
-1.782622592527938
 20
0.381199575351022
 30
0.0
 10
-1.757340999944075
 20
0.3739514290796251
 30
0.0
 10
-1.73201694293679
 20
0.3667484012578118
 30
0.0
 10
-1.710188902288425
 20
0.3556625327201901
 30
0.0
 10
-1.69189934242239
 20
0.3406991315193611
 30
0.0
 10
-1.673609782556405
 20
0.3257357303187089
 30
0.0
 10
-1.659413395003563
 20
0.3065922374381544
 30
0.0
 10
-1.649181459480511
 20
0.283356235750893
 30
0.0
 10
-1.63903445280424
 20
0.2601228880900584
 30
0.0
 10
-1.634003745642808
 20
0.2323697333622224
 30
0.0
 10
-1.634003745642808
 20
0.2001817004138502
 30
0.0
 10
-1.634003745642808
 20
0.1680785963124233
 30
0.0
 10
-1.63903445280424
 20
0.1403227875581352
 30
0.0
 10
-1.649181459480511
 20
0.1170045110504563
 30
0.0
 10
-1.659413395003563
 20
0.0937685093631949
 30
0.0
 10
-1.673609782556405
 20
0.0745400876357962
 30
0.0
 10
-1.69189934242239
 20
0.059406828741506
 30
0.0
 10
-1.710188902288425
 20
0.0442284513972027
 30
0.0
 10
-1.73201694293679
 20
0.0330603080391383
 30
0.0
 10
-1.757340999944075
 20
0.0258546261909234
 30
0.0
 10
-1.782622592527938
 20
0.0186489443426833
 30
0.0
 10
-1.810462003115933
 20
0.0150261982201856
 30
0.0
 10
-1.840774302861228
 20
0.0150261982201856
 30
0.0
 10
-1.840774302861228
 20
0.0150261982201856
 30
0.0
 10
-1.941600768206361
 20
0.0150261982201856
 30
0.0
 10
-1.941600768206361
 20
0.0150261982201856
 30
0.0
 10
-1.941600768206361
 20
0.0150261982201856
 30
0.0
 10
-1.941600768206361
 20
0.3847825110767897
 30
0.0
 10
-1.941600768206361
 20
0.3847825110767897
 30
0.0
  0
HATCH
  5
EC
330
C1
100
AcDbEntity
  8
Layer 2
 62
   250
420
  2170655
440
 33554687
100
AcDbHatch
 10
0.0
 20
0.0
 30
0.0
210
0.0
220
0.0
230
1.0
  2
SOLID
 70
     1
 71
     1
 91
        2
 92
        1
 93
        1
 72
     4
 94
        3
 73
     0
 74
     0
 95
       38
 96
       34
 40
0.0
 40
0.0
 40
0.0
 40
0.0
 40
1.0
 40
1.0
 40
1.0
 40
2.0
 40
2.0
 40
2.0
 40
3.0
 40
3.0
 40
3.0
 40
4.0
 40
4.0
 40
4.0
 40
5.0
 40
5.0
 40
5.0
 40
6.0
 40
6.0
 40
6.0
 40
7.0
 40
7.0
 40
7.0
 40
8.0
 40
8.0
 40
8.0
 40
9.0
 40
9.0
 40
9.0
 40
10.0
 40
10.0
 40
10.0
 40
11.0
 40
11.0
 40
11.0
 40
11.0
 10
-1.835188904168957
 20
0.0399660848968071
 10
-1.808969776736881
 20
0.0399660848968071
 10
-1.785222874955454
 20
0.0432491156322309
 10
-1.763949525837953
 20
0.0496426653825589
 10
-1.742674849707239
 20
0.0561237980061075
 10
-1.724514010124708
 20
0.0660578190587431
 10
-1.709336296287069
 20
0.0793597996933941
 10
-1.694201710379426
 20
0.0926166618781584
 10
-1.682563140830741
 20
0.1093715309416944
 10
-1.674419924134339
 20
0.1295368240108069
 10
-1.666319835368022
 20
0.1496171882329236
 10
-1.662269127478212
 20
0.173192905307461
 10
-1.662269127478212
 20
0.2001817004138502
 10
-1.662269127478212
 20
0.2271253770704789
 10
-1.666404764214841
 20
0.2506586297216573
 10
-1.674718502111494
 20
0.2705664822236839
 10
-1.683074704431545
 20
0.2905619175991331
 10
-1.694841330757109
 20
0.3071469289689806
 10
-1.710188902288425
 20
0.3204913740270159
 10
-1.725537137326366
 20
0.3337508902382575
 10
-1.744082147239472
 20
0.3436397928408041
 10
-1.765910187887824
 20
0.3501209254645801
 10
-1.787738228536189
 20
0.3566020580881286
 10
-1.812295271895537
 20
0.3598399703734887
 10
-1.839622455376103
 20
0.3598399703734887
 10
-1.839622455376103
 20
0.3598399703734887
 10
-1.915039934867144
 20
0.3598399703734887
 10
-1.915039934867144
 20
0.3598399703734887
 10
-1.915039934867144
 20
0.3598399703734887
 10
-1.915039934867144
 20
0.0399660848968071
 10
-1.915039934867144
 20
0.0399660848968071
 10
-1.915039934867144
 20
0.0399660848968071
 10
-1.835188904168957
 20
0.0399660848968071
 10
-1.835188904168957
 20
0.0399660848968071
 97
        0
 97
        1
330
EA
 92
        1
 93
        1
 72
     4
 94
        3
 73
     0
 74
     0
 95
       38
 96
       34
 40
0.0
 40
0.0
 40
0.0
 40
0.0
 40
1.0
 40
1.0
 40
1.0
 40
2.0
 40
2.0
 40
2.0
 40
3.0
 40
3.0
 40
3.0
 40
4.0
 40
4.0
 40
4.0
 40
5.0
 40
5.0
 40
5.0
 40
6.0
 40
6.0
 40
6.0
 40
7.0
 40
7.0
 40
7.0
 40
8.0
 40
8.0
 40
8.0
 40
9.0
 40
9.0
 40
9.0
 40
10.0
 40
10.0
 40
10.0
 40
11.0
 40
11.0
 40
11.0
 40
11.0
 10
-1.941600768206361
 20
0.3847825110767897
 10
-1.941600768206361
 20
0.3847825110767897
 10
-1.840774302861228
 20
0.3847825110767897
 10
-1.840774302861228
 20
0.3847825110767897
 10
-1.810462003115933
 20
0.3847825110767897
 10
-1.782622592527938
 20
0.381199575351022
 10
-1.757340999944075
 20
0.3739514290796251
 10
-1.73201694293679
 20
0.3667484012578118
 10
-1.710188902288425
 20
0.3556625327201901
 10
-1.69189934242239
 20
0.3406991315193611
 10
-1.673609782556405
 20
0.3257357303187089
 10
-1.659413395003563
 20
0.3065922374381544
 10
-1.649181459480511
 20
0.283356235750893
 10
-1.63903445280424
 20
0.2601228880900584
 10
-1.634003745642808
 20
0.2323697333622224
 10
-1.634003745642808
 20
0.2001817004138502
 10
-1.634003745642808
 20
0.1680785963124233
 10
-1.63903445280424
 20
0.1403227875581352
 10
-1.649181459480511
 20
0.1170045110504563
 10
-1.659413395003563
 20
0.0937685093631949
 10
-1.673609782556405
 20
0.0745400876357962
 10
-1.69189934242239
 20
0.059406828741506
 10
-1.710188902288425
 20
0.0442284513972027
 10
-1.73201694293679
 20
0.0330603080391383
 10
-1.757340999944075
 20
0.0258546261909234
 10
-1.782622592527938
 20
0.0186489443426833
 10
-1.810462003115933
 20
0.0150261982201856
 10
-1.840774302861228
 20
0.0150261982201856
 10
-1.840774302861228
 20
0.0150261982201856
 10
-1.941600768206361
 20
0.0150261982201856
 10
-1.941600768206361
 20
0.0150261982201856
 10
-1.941600768206361
 20
0.0150261982201856
 10
-1.941600768206361
 20
0.3847825110767897
 10
-1.941600768206361
 20
0.3847825110767897
 97
        0
 97
        1
330
EB
 75
     2
 76
     1
 98
        1
 10
0.0
 20
0.0
450
        0
451
        0
460
0.0
461
0.0
452
        0
462
0.0
453
        0
470

  0
LWPOLYLINE
  5
ED
330
C1
100
AcDbEntity
  8
Layer 2
100
AcDbPolyline
 90
       13
 70
     1
 43
0.0
 10
-1.553078497733622
 20
0.3847798570503629
 10
-1.523107903895518
 20
0.3847798570503629
 10
-1.434431571699873
 20
0.0527531843976653
 10
-1.34076633325963
 20
0.3736939885124886
 10
-1.308024935793696
 20
0.3736939885124886
 10
-1.218793912067225
 20
0.0549294860976362
 10
-1.130628479965808
 20
0.3847798570503629
 10
-1.101850871022987
 20
0.3847798570503629
 10
-1.205535059362634
 20
0.0150235441937336
 10
-1.234866696329655
 20
0.0150235441937336
 10
-1.325248240528026
 20
0.3343453921660158
 10
-1.420021535016783
 20
0.0150235441937336
 10
-1.451058383986517
 20
0.0150235441937336
  0
HATCH
  5
EE
330
C1
100
AcDbEntity
  8
Layer 2
 62
   250
420
  2170655
440
 33554687
100
AcDbHatch
 10
0.0
 20
0.0
 30
0.0
210
0.0
220
0.0
230
1.0
  2
SOLID
 70
     1
 71
     1
 91
        1
 92
        1
 93
       13
 72
     1
 10
-1.553078497733622
 20
0.3847798570503629
 11
-1.523107903895518
 21
0.3847798570503629
 72
     1
 10
-1.523107903895518
 20
0.3847798570503629
 11
-1.434431571699873
 21
0.0527531843976653
 72
     1
 10
-1.434431571699873
 20
0.0527531843976653
 11
-1.34076633325963
 21
0.3736939885124886
 72
     1
 10
-1.34076633325963
 20
0.3736939885124886
 11
-1.308024935793696
 21
0.3736939885124886
 72
     1
 10
-1.308024935793696
 20
0.3736939885124886
 11
-1.218793912067225
 21
0.0549294860976362
 72
     1
 10
-1.218793912067225
 20
0.0549294860976362
 11
-1.130628479965808
 21
0.3847798570503629
 72
     1
 10
-1.130628479965808
 20
0.3847798570503629
 11
-1.101850871022987
 21
0.3847798570503629
 72
     1
 10
-1.101850871022987
 20
0.3847798570503629
 11
-1.205535059362634
 21
0.0150235441937336
 72
     1
 10
-1.205535059362634
 20
0.0150235441937336
 11
-1.234866696329655
 21
0.0150235441937336
 72
     1
 10
-1.234866696329655
 20
0.0150235441937336
 11
-1.325248240528026
 21
0.3343453921660158
 72
     1
 10
-1.325248240528026
 20
0.3343453921660158
 11
-1.420021535016783
 21
0.0150235441937336
 72
     1
 10
-1.420021535016783
 20
0.0150235441937336
 11
-1.451058383986517
 21
0.0150235441937336
 72
     1
 10
-1.451058383986517
 20
0.0150235441937336
 11
-1.553078497733622
 21
0.3847798570503629
 97
        1
330
ED
 75
     2
 76
     1
 98
        1
 10
0.0
 20
0.0
450
        0
451
        0
460
0.0
461
0.0
452
        0
462
0.0
453
        0
470

  0
SPLINE
  5
EF
330
C1
100
AcDbEntity
  8
Layer 2
100
AcDbSpline
210
0.0
220
0.0
230
1.0
 70
    11
 71
     3
 72
    14
 73
    10
 74
     0
 42
0.0000000001
 43
0.0000000001
 40
0.0
 40
0.0
 40
0.0
 40
0.0
 40
1.0
 40
1.0
 40
1.0
 40
2.0
 40
2.0
 40
2.0
 40
3.0
 40
3.0
 40
3.0
 40
3.0
 10
-0.8169198979636702
 20
0.1591663754483711
 30
0.0
 10
-0.8169198979636702
 20
0.1591663754483711
 30
0.0
 10
-0.89395766061058
 20
0.3509728679592727
 30
0.0
 10
-0.89395766061058
 20
0.3509728679592727
 30
0.0
 10
-0.89395766061058
 20
0.3509728679592727
 30
0.0
 10
-0.9710378876809626
 20
0.1591663754483711
 30
0.0
 10
-0.9710378876809626
 20
0.1591663754483711
 30
0.0
 10
-0.9710378876809626
 20
0.1591663754483711
 30
0.0
 10
-0.8169198979636702
 20
0.1591663754483711
 30
0.0
 10
-0.8169198979636702
 20
0.1591663754483711
 30
0.0
  0
SPLINE
  5
F0
330
C1
100
AcDbEntity
  8
Layer 2
100
AcDbSpline
210
0.0
220
0.0
230
1.0
 70
    11
 71
     3
 72
    29
 73
    25
 74
     0
 42
0.0000000001
 43
0.0000000001
 40
0.0
 40
0.0
 40
0.0
 40
0.0
 40
1.0
 40
1.0
 40
1.0
 40
2.0
 40
2.0
 40
2.0
 40
3.0
 40
3.0
 40
3.0
 40
4.0
 40
4.0
 40
4.0
 40
5.0
 40
5.0
 40
5.0
 40
6.0
 40
6.0
 40
6.0
 40
7.0
 40
7.0
 40
7.0
 40
8.0
 40
8.0
 40
8.0
 40
8.0
 10
-0.9061502581835156
 20
0.3847798570503629
 30
0.0
 10
-0.9061502581835156
 20
0.3847798570503629
 30
0.0
 10
-0.8795476239274648
 20
0.3847798570503629
 30
0.0
 10
-0.8795476239274648
 20
0.3847798570503629
 30
0.0
 10
-0.8795476239274648
 20
0.3847798570503629
 30
0.0
 10
-0.7281586369212062
 20
0.0150235441937336
 30
0.0
 10
-0.7281586369212062
 20
0.0150235441937336
 30
0.0
 10
-0.7281586369212062
 20
0.0150235441937336
 30
0.0
 10
-0.7586832587835362
 20
0.0150235441937336
 30
0.0
 10
-0.7586832587835362
 20
0.0150235441937336
 30
0.0
 10
-0.7586832587835362
 20
0.0150235441937336
 30
0.0
 10
-0.8069440759943011
 20
0.1342264887714716
 30
0.0
 10
-0.8069440759943011
 20
0.1342264887714716
 30
0.0
 10
-0.8069440759943011
 20
0.1342264887714716
 30
0.0
 10
-0.9809712452269094
 20
0.1342264887714716
 30
0.0
 10
-0.9809712452269094
 20
0.1342264887714716
 30
0.0
 10
-0.9809712452269094
 20
0.1342264887714716
 30
0.0
 10
-1.028634906483375
 20
0.0150235441937336
 30
0.0
 10
-1.028634906483375
 20
0.0150235441937336
 30
0.0
 10
-1.028634906483375
 20
0.0150235441937336
 30
0.0
 10
-1.057454979849606
 20
0.0150235441937336
 30
0.0
 10
-1.057454979849606
 20
0.0150235441937336
 30
0.0
 10
-1.057454979849606
 20
0.0150235441937336
 30
0.0
 10
-0.9061502581835156
 20
0.3847798570503629
 30
0.0
 10
-0.9061502581835156
 20
0.3847798570503629
 30
0.0
  0
HATCH
  5
F1
330
C1
100
AcDbEntity
  8
Layer 2
 62
   250
420
  2170655
440
 33554687
100
AcDbHatch
 10
0.0
 20
0.0
 30
0.0
210
0.0
220
0.0
230
1.0
  2
SOLID
 70
     1
 71
     1
 91
        2
 92
        1
 93
        1
 72
     4
 94
        3
 73
     0
 74
     0
 95
       14
 96
       10
 40
0.0
 40
0.0
 40
0.0
 40
0.0
 40
1.0
 40
1.0
 40
1.0
 40
2.0
 40
2.0
 40
2.0
 40
3.0
 40
3.0
 40
3.0
 40
3.0
 10
-0.8169198979636702
 20
0.1591663754483711
 10
-0.8169198979636702
 20
0.1591663754483711
 10
-0.89395766061058
 20
0.3509728679592727
 10
-0.89395766061058
 20
0.3509728679592727
 10
-0.89395766061058
 20
0.3509728679592727
 10
-0.9710378876809626
 20
0.1591663754483711
 10
-0.9710378876809626
 20
0.1591663754483711
 10
-0.9710378876809626
 20
0.1591663754483711
 10
-0.8169198979636702
 20
0.1591663754483711
 10
-0.8169198979636702
 20
0.1591663754483711
 97
        0
 97
        1
330
EF
 92
        1
 93
        1
 72
     4
 94
        3
 73
     0
 74
     0
 95
       29
 96
       25
 40
0.0
 40
0.0
 40
0.0
 40
0.0
 40
1.0
 40
1.0
 40
1.0
 40
2.0
 40
2.0
 40
2.0
 40
3.0
 40
3.0
 40
3.0
 40
4.0
 40
4.0
 40
4.0
 40
5.0
 40
5.0
 40
5.0
 40
6.0
 40
6.0
 40
6.0
 40
7.0
 40
7.0
 40
7.0
 40
8.0
 40
8.0
 40
8.0
 40
8.0
 10
-0.9061502581835156
 20
0.3847798570503629
 10
-0.9061502581835156
 20
0.3847798570503629
 10
-0.8795476239274648
 20
0.3847798570503629
 10
-0.8795476239274648
 20
0.3847798570503629
 10
-0.8795476239274648
 20
0.3847798570503629
 10
-0.7281586369212062
 20
0.0150235441937336
 10
-0.7281586369212062
 20
0.0150235441937336
 10
-0.7281586369212062
 20
0.0150235441937336
 10
-0.7586832587835362
 20
0.0150235441937336
 10
-0.7586832587835362
 20
0.0150235441937336
 10
-0.7586832587835362
 20
0.0150235441937336
 10
-0.8069440759943011
 20
0.1342264887714716
 10
-0.8069440759943011
 20
0.1342264887714716
 10
-0.8069440759943011
 20
0.1342264887714716
 10
-0.9809712452269094
 20
0.1342264887714716
 10
-0.9809712452269094
 20
0.1342264887714716
 10
-0.9809712452269094
 20
0.1342264887714716
 10
-1.028634906483375
 20
0.0150235441937336
 10
-1.028634906483375
 20
0.0150235441937336
 10
-1.028634906483375
 20
0.0150235441937336
 10
-1.057454979849606
 20
0.0150235441937336
 10
-1.057454979849606
 20
0.0150235441937336
 10
-1.057454979849606
 20
0.0150235441937336
 10
-0.9061502581835156
 20
0.3847798570503629
 10
-0.9061502581835156
 20
0.3847798570503629
 97
        0
 97
        1
330
F0
 75
     2
 76
     1
 98
        1
 10
0.0
 20
0.0
450
        0
451
        0
460
0.0
461
0.0
452
        0
462
0.0
453
        0
470

  0
SPLINE
  5
F2
330
C1
100
AcDbEntity
  8
Layer 2
100
AcDbSpline
210
0.0
220
0.0
230
1.0
 70
     9
 71
     3
 72
    23
 73
    19
 74
     0
 42
0.0000000001
 43
0.0000000001
 40
0.0
 40
0.0
 40
0.0
 40
0.0
 40
1.0
 40
1.0
 40
1.0
 40
2.0
 40
2.0
 40
2.0
 40
3.0
 40
3.0
 40
3.0
 40
4.0
 40
4.0
 40
4.0
 40
5.0
 40
5.0
 40
5.0
 40
6.0
 40
6.0
 40
6.0
 40
6.0
 10
-0.5136602181479854
 20
0.2001763923610724
 30
0.0
 10
-0.4526952397634684
 20
0.2001763923610724
 30
0.0
 10
-0.4221699543945002
 20
0.226780353630324
 30
0.0
 10
-0.4221699543945002
 20
0.2799856221422235
 30
0.0
 10
-0.4221699543945002
 20
0.3065869293851493
 30
0.0
 10
-0.4302282422440208
 20
0.3265823647605985
 30
0.0
 10
-0.4463003629998765
 20
0.3398418809717896
 30
0.0
 10
-0.4623731472623326
 20
0.3531863260298501
 30
0.0
 10
-0.4859488643368321
 20
0.3598373163471125
 30
0.0
 10
-0.5169857133066166
 20
0.3598373163471125
 30
0.0
 10
-0.5169857133066166
 20
0.3598373163471125
 30
0.0
 10
-0.609542232191782
 20
0.3598373163471125
 30
0.0
 10
-0.609542232191782
 20
0.3598373163471125
 30
0.0
 10
-0.609542232191782
 20
0.3598373163471125
 30
0.0
 10
-0.609542232191782
 20
0.2001763923610724
 30
0.0
 10
-0.609542232191782
 20
0.2001763923610724
 30
0.0
 10
-0.609542232191782
 20
0.2001763923610724
 30
0.0
 10
-0.5136602181479854
 20
0.2001763923610724
 30
0.0
 10
-0.5136602181479854
 20
0.2001763923610724
 30
0.0
  0
SPLINE
  5
F3
330
C1
100
AcDbEntity
  8
Layer 2
100
AcDbSpline
210
0.0
220
0.0
230
1.0
 70
    11
 71
     3
 72
    47
 73
    43
 74
     0
 42
0.0000000001
 43
0.0000000001
 40
0.0
 40
0.0
 40
0.0
 40
0.0
 40
1.0
 40
1.0
 40
1.0
 40
2.0
 40
2.0
 40
2.0
 40
3.0
 40
3.0
 40
3.0
 40
4.0
 40
4.0
 40
4.0
 40
5.0
 40
5.0
 40
5.0
 40
6.0
 40
6.0
 40
6.0
 40
7.0
 40
7.0
 40
7.0
 40
8.0
 40
8.0
 40
8.0
 40
9.0
 40
9.0
 40
9.0
 40
10.0
 40
10.0
 40
10.0
 40
11.0
 40
11.0
 40
11.0
 40
12.0
 40
12.0
 40
12.0
 40
13.0
 40
13.0
 40
13.0
 40
14.0
 40
14.0
 40
14.0
 40
14.0
 10
-0.6361873308712297
 20
0.3847772030237845
 30
0.0
 10
-0.6361873308712297
 20
0.3847772030237845
 30
0.0
 10
-0.5247447596724316
 20
0.3847772030237845
 30
0.0
 10
-0.5247447596724316
 20
0.3847772030237845
 30
0.0
 10
-0.5007424078438968
 20
0.3847772030237845
 30
0.0
 10
-0.4804065935745964
 20
0.3822187215130018
 30
0.0
 10
-0.4637797812879146
 20
0.3770592940681277
 30
0.0
 10
-0.4471529690012327
 20
0.3718175918030637
 30
0.0
 10
-0.4336380027429211
 20
0.3645269811079793
 30
0.0
 10
-0.4233211383729869
 20
0.3551476515861951
 30
0.0
 10
-0.4130042740031538
 20
0.3457258576411783
 30
0.0
 10
-0.4055006776843836
 20
0.3345975246800966
 30
0.0
 10
-0.4008534773469516
 20
0.3218502355763222
 30
0.0
 10
-0.3962487414329416
 20
0.3091454108958563
 30
0.0
 10
-0.3939470369825433
 20
0.2951613454601505
 30
0.0
 10
-0.3939470369825433
 20
0.2799856221422235
 30
0.0
 10
-0.3939470369825433
 20
0.2559826068071642
 30
0.0
 10
-0.4001289281224496
 20
0.2346230018295551
 30
0.0
 10
-0.4125351748256713
 20
0.2159943900829957
 30
0.0
 10
-0.4248989571055088
 20
0.1973631243098326
 30
0.0
 10
-0.4445526865737167
 20
0.18487062174649
 30
0.0
 10
-0.4715388276537043
 20
0.1785620008430063
 30
0.0
 10
-0.4715388276537043
 20
0.1785620008430063
 30
0.0
 10
-0.3834165234823104
 20
0.0150208901673068
 30
0.0
 10
-0.3834165234823104
 20
0.0150208901673068
 30
0.0
 10
-0.3834165234823104
 20
0.0150208901673068
 30
0.0
 10
-0.4138993444278691
 20
0.0150208901673068
 30
0.0
 10
-0.4138993444278691
 20
0.0150208901673068
 30
0.0
 10
-0.4138993444278691
 20
0.0150208901673068
 30
0.0
 10
-0.4998042094890959
 20
0.175236505684173
 30
0.0
 10
-0.4998042094890959
 20
0.175236505684173
 30
0.0
 10
-0.4998042094890959
 20
0.175236505684173
 30
0.0
 10
-0.609542232191782
 20
0.175236505684173
 30
0.0
 10
-0.609542232191782
 20
0.175236505684173
 30
0.0
 10
-0.609542232191782
 20
0.175236505684173
 30
0.0
 10
-0.609542232191782
 20
0.0150208901673068
 30
0.0
 10
-0.609542232191782
 20
0.0150208901673068
 30
0.0
 10
-0.609542232191782
 20
0.0150208901673068
 30
0.0
 10
-0.6361873308712297
 20
0.0150208901673068
 30
0.0
 10
-0.6361873308712297
 20
0.0150208901673068
 30
0.0
 10
-0.6361873308712297
 20
0.0150208901673068
 30
0.0
 10
-0.6361873308712297
 20
0.3847772030237845
 30
0.0
 10
-0.6361873308712297
 20
0.3847772030237845
 30
0.0
  0
HATCH
  5
F4
330
C1
100
AcDbEntity
  8
Layer 2
 62
   250
420
  2170655
440
 33554687
100
AcDbHatch
 10
0.0
 20
0.0
 30
0.0
210
0.0
220
0.0
230
1.0
  2
SOLID
 70
     1
 71
     1
 91
        2
 92
        1
 93
        1
 72
     4
 94
        3
 73
     0
 74
     0
 95
       23
 96
       19
 40
0.0
 40
0.0
 40
0.0
 40
0.0
 40
1.0
 40
1.0
 40
1.0
 40
2.0
 40
2.0
 40
2.0
 40
3.0
 40
3.0
 40
3.0
 40
4.0
 40
4.0
 40
4.0
 40
5.0
 40
5.0
 40
5.0
 40
6.0
 40
6.0
 40
6.0
 40
6.0
 10
-0.5136602181479854
 20
0.2001763923610724
 10
-0.4526952397634684
 20
0.2001763923610724
 10
-0.4221699543945002
 20
0.226780353630324
 10
-0.4221699543945002
 20
0.2799856221422235
 10
-0.4221699543945002
 20
0.3065869293851493
 10
-0.4302282422440208
 20
0.3265823647605985
 10
-0.4463003629998765
 20
0.3398418809717896
 10
-0.4623731472623326
 20
0.3531863260298501
 10
-0.4859488643368321
 20
0.3598373163471125
 10
-0.5169857133066166
 20
0.3598373163471125
 10
-0.5169857133066166
 20
0.3598373163471125
 10
-0.609542232191782
 20
0.3598373163471125
 10
-0.609542232191782
 20
0.3598373163471125
 10
-0.609542232191782
 20
0.3598373163471125
 10
-0.609542232191782
 20
0.2001763923610724
 10
-0.609542232191782
 20
0.2001763923610724
 10
-0.609542232191782
 20
0.2001763923610724
 10
-0.5136602181479854
 20
0.2001763923610724
 10
-0.5136602181479854
 20
0.2001763923610724
 97
        0
 97
        1
330
F2
 92
        1
 93
        1
 72
     4
 94
        3
 73
     0
 74
     0
 95
       47
 96
       43
 40
0.0
 40
0.0
 40
0.0
 40
0.0
 40
1.0
 40
1.0
 40
1.0
 40
2.0
 40
2.0
 40
2.0
 40
3.0
 40
3.0
 40
3.0
 40
4.0
 40
4.0
 40
4.0
 40
5.0
 40
5.0
 40
5.0
 40
6.0
 40
6.0
 40
6.0
 40
7.0
 40
7.0
 40
7.0
 40
8.0
 40
8.0
 40
8.0
 40
9.0
 40
9.0
 40
9.0
 40
10.0
 40
10.0
 40
10.0
 40
11.0
 40
11.0
 40
11.0
 40
12.0
 40
12.0
 40
12.0
 40
13.0
 40
13.0
 40
13.0
 40
14.0
 40
14.0
 40
14.0
 40
14.0
 10
-0.6361873308712297
 20
0.3847772030237845
 10
-0.6361873308712297
 20
0.3847772030237845
 10
-0.5247447596724316
 20
0.3847772030237845
 10
-0.5247447596724316
 20
0.3847772030237845
 10
-0.5007424078438968
 20
0.3847772030237845
 10
-0.4804065935745964
 20
0.3822187215130018
 10
-0.4637797812879146
 20
0.3770592940681277
 10
-0.4471529690012327
 20
0.3718175918030637
 10
-0.4336380027429211
 20
0.3645269811079793
 10
-0.4233211383729869
 20
0.3551476515861951
 10
-0.4130042740031538
 20
0.3457258576411783
 10
-0.4055006776843836
 20
0.3345975246800966
 10
-0.4008534773469516
 20
0.3218502355763222
 10
-0.3962487414329416
 20
0.3091454108958563
 10
-0.3939470369825433
 20
0.2951613454601505
 10
-0.3939470369825433
 20
0.2799856221422235
 10
-0.3939470369825433
 20
0.2559826068071642
 10
-0.4001289281224496
 20
0.2346230018295551
 10
-0.4125351748256713
 20
0.2159943900829957
 10
-0.4248989571055088
 20
0.1973631243098326
 10
-0.4445526865737167
 20
0.18487062174649
 10
-0.4715388276537043
 20
0.1785620008430063
 10
-0.4715388276537043
 20
0.1785620008430063
 10
-0.3834165234823104
 20
0.0150208901673068
 10
-0.3834165234823104
 20
0.0150208901673068
 10
-0.3834165234823104
 20
0.0150208901673068
 10
-0.4138993444278691
 20
0.0150208901673068
 10
-0.4138993444278691
 20
0.0150208901673068
 10
-0.4138993444278691
 20
0.0150208901673068
 10
-0.4998042094890959
 20
0.175236505684173
 10
-0.4998042094890959
 20
0.175236505684173
 10
-0.4998042094890959
 20
0.175236505684173
 10
-0.609542232191782
 20
0.175236505684173
 10
-0.609542232191782
 20
0.175236505684173
 10
-0.609542232191782
 20
0.175236505684173
 10
-0.609542232191782
 20
0.0150208901673068
 10
-0.609542232191782
 20
0.0150208901673068
 10
-0.609542232191782
 20
0.0150208901673068
 10
-0.6361873308712297
 20
0.0150208901673068
 10
-0.6361873308712297
 20
0.0150208901673068
 10
-0.6361873308712297
 20
0.0150208901673068
 10
-0.6361873308712297
 20
0.3847772030237845
 10
-0.6361873308712297
 20
0.3847772030237845
 97
        0
 97
        1
330
F3
 75
     2
 76
     1
 98
        1
 10
0.0
 20
0.0
450
        0
451
        0
460
0.0
461
0.0
452
        0
462
0.0
453
        0
470

  0
LWPOLYLINE
  5
F5
330
C1
100
AcDbEntity
  8
Layer 2
100
AcDbPolyline
 90
       12
 70
     1
 43
0.0
 10
-0.2725326248540669
 20
0.3847798570503629
 10
-0.0507986664349826
 20
0.3847798570503629
 10
-0.0507986664349826
 20
0.3598399703734887
 10
-0.2459299905980288
 20
0.3598399703734887
 10
-0.2459299905980288
 20
0.2201320173393368
 10
-0.093474084953439
 20
0.2201320173393368
 10
-0.093474084953439
 20
0.19519213066269
 10
-0.2459299905980288
 20
0.19519213066269
 10
-0.2459299905980288
 20
0.0399634308704309
 10
-0.0363892932584551
 20
0.0399634308704309
 10
-0.0363892932584551
 20
0.0150235441937336
 10
-0.2725326248540669
 20
0.0150235441937336
  0
HATCH
  5
F6
330
C1
100
AcDbEntity
  8
Layer 2
 62
   250
420
  2170655
440
 33554687
100
AcDbHatch
 10
0.0
 20
0.0
 30
0.0
210
0.0
220
0.0
230
1.0
  2
SOLID
 70
     1
 71
     1
 91
        1
 92
        1
 93
       12
 72
     1
 10
-0.2725326248540669
 20
0.3847798570503629
 11
-0.0507986664349826
 21
0.3847798570503629
 72
     1
 10
-0.0507986664349826
 20
0.3847798570503629
 11
-0.0507986664349826
 21
0.3598399703734887
 72
     1
 10
-0.0507986664349826
 20
0.3598399703734887
 11
-0.2459299905980288
 21
0.3598399703734887
 72
     1
 10
-0.2459299905980288
 20
0.3598399703734887
 11
-0.2459299905980288
 21
0.2201320173393368
 72
     1
 10
-0.2459299905980288
 20
0.2201320173393368
 11
-0.093474084953439
 21
0.2201320173393368
 72
     1
 10
-0.093474084953439
 20
0.2201320173393368
 11
-0.093474084953439
 21
0.19519213066269
 72
     1
 10
-0.093474084953439
 20
0.19519213066269
 11
-0.2459299905980288
 21
0.19519213066269
 72
     1
 10
-0.2459299905980288
 20
0.19519213066269
 11
-0.2459299905980288
 21
0.0399634308704309
 72
     1
 10
-0.2459299905980288
 20
0.0399634308704309
 11
-0.0363892932584551
 21
0.0399634308704309
 72
     1
 10
-0.0363892932584551
 20
0.0399634308704309
 11
-0.0363892932584551
 21
0.0150235441937336
 72
     1
 10
-0.0363892932584551
 20
0.0150235441937336
 11
-0.2725326248540669
 21
0.0150235441937336
 72
     1
 10
-0.2725326248540669
 20
0.0150235441937336
 11
-0.2725326248540669
 21
0.3847798570503629
 97
        1
330
F5
 75
     2
 76
     1
 98
        1
 10
0.0
 20
0.0
450
        0
451
        0
460
0.0
461
0.0
452
        0
462
0.0
453
        0
470

  0
ENDBLK
  5
C4
330
C1
100
AcDbEntity
  8
0
100
AcDbBlockEnd
  0
ENDSEC
  0
SECTION
  2
ENTITIES
  0
LWPOLYLINE
  5
79
330
70
100
AcDbEntity
  8
Layer 1
100
AcDbPolyline
 90
        3
 70
     1
 43
0.0
 10
6.405850145551791
 20
18.74335082372027
 10
6.307516574859517
 20
18.3500176005893
 10
6.504182868533562
 20
18.3500176005893
  0
HATCH
  5
7A
330
70
100
AcDbEntity
  8
Layer 1
 62
    18
420
        0
440
 33554687
100
AcDbHatch
 10
0.0
 20
0.0
 30
0.0
210
0.0
220
0.0
230
1.0
  2
SOLID
 70
     1
 71
     1
 91
        1
 92
        1
 93
        3
 72
     1
 10
6.405850145551791
 20
18.74335082372027
 11
6.307516574859517
 21
18.3500176005893
 72
     1
 10
6.307516574859517
 20
18.3500176005893
 11
6.504182868533562
 21
18.3500176005893
 72
     1
 10
6.504182868533562
 20
18.3500176005893
 11
6.405850145551791
 21
18.74335082372027
 97
        1
330
79
 75
     0
 76
     1
 98
        1
 10
0.0
 20
0.0
450
        0
451
        0
460
0.0
461
0.0
452
        0
462
0.0
453
        0
470

  0
LWPOLYLINE
  5
7B
330
70
100
AcDbEntity
  8
Layer 1
 62
    18
420
        0
370
     0
100
AcDbPolyline
 90
        3
 70
     1
 43
0.0
 10
6.405850145551791
 20
18.74335082372027
 10
6.307516574859517
 20
18.3500176005893
 10
6.504182868533562
 20
18.3500176005893
  0
LWPOLYLINE
  5
7C
330
70
100
AcDbEntity
  8
Layer 1
100
AcDbPolyline
 90
        3
 70
     1
 43
0.0
 10
14.50168297025889
 20
8.802517626020643
 10
14.50168297025889
 20
8.605851332346597
 10
14.89501555760694
 20
8.704184903038871
  0
HATCH
  5
7D
330
70
100
AcDbEntity
  8
Layer 1
 62
    18
420
        0
440
 33554687
100
AcDbHatch
 10
0.0
 20
0.0
 30
0.0
210
0.0
220
0.0
230
1.0
  2
SOLID
 70
     1
 71
     1
 91
        1
 92
        1
 93
        3
 72
     1
 10
14.50168297025889
 20
8.802517626020643
 11
14.50168297025889
 21
8.605851332346597
 72
     1
 10
14.50168297025889
 20
8.605851332346597
 11
14.89501555760694
 21
8.704184903038871
 72
     1
 10
14.89501555760694
 20
8.704184903038871
 11
14.50168297025889
 21
8.802517626020643
 97
        1
330
7C
 75
     0
 76
     1
 98
        1
 10
0.0
 20
0.0
450
        0
451
        0
460
0.0
461
0.0
452
        0
462
0.0
453
        0
470

  0
LWPOLYLINE
  5
7E
330
70
100
AcDbEntity
  8
Layer 1
 62
    18
420
        0
370
     0
100
AcDbPolyline
 90
        3
 70
     1
 43
0.0
 10
14.50168297025889
 20
8.802517626020643
 10
14.50168297025889
 20
8.605851332346597
 10
14.89501555760694
 20
8.704184903038871
  0
LWPOLYLINE
  5
7F
330
70
100
AcDbEntity
  8
Layer 1
100
AcDbPolyline
 90
        3
 70
     1
 43
0.0
 10
-1.640816741519605
 20
8.802517626020643
 10
-2.034150070614385
 20
8.704184903038871
 10
-1.640816741519605
 20
8.605851332346597
  0
HATCH
  5
80
330
70
100
AcDbEntity
  8
Layer 1
 62
    18
420
        0
440
 33554687
100
AcDbHatch
 10
0.0
 20
0.0
 30
0.0
210
0.0
220
0.0
230
1.0
  2
SOLID
 70
     1
 71
     1
 91
        1
 92
        1
 93
        3
 72
     1
 10
-1.640816741519605
 20
8.802517626020643
 11
-2.034150070614385
 21
8.704184903038871
 72
     1
 10
-2.034150070614385
 20
8.704184903038871
 11
-1.640816741519605
 21
8.605851332346597
 72
     1
 10
-1.640816741519605
 20
8.605851332346597
 11
-1.640816741519605
 21
8.802517626020643
 97
        1
330
7F
 75
     0
 76
     1
 98
        1
 10
0.0
 20
0.0
450
        0
451
        0
460
0.0
461
0.0
452
        0
462
0.0
453
        0
470

  0
LWPOLYLINE
  5
81
330
70
100
AcDbEntity
  8
Layer 1
 62
    18
420
        0
370
     0
100
AcDbPolyline
 90
        3
 70
     1
 43
0.0
 10
-1.640816741519605
 20
8.802517626020643
 10
-2.034150070614385
 20
8.704184903038871
 10
-1.640816741519605
 20
8.605851332346597
  0
LWPOLYLINE
  5
82
330
70
100
AcDbEntity
  8
Layer 1
100
AcDbPolyline
 90
        3
 70
     1
 43
0.0
 10
6.430849976009691
 20
14.21585067113235
 10
6.331683105892503
 20
13.82168436050415
 10
6.529182698991462
 20
13.82168436050415
  0
HATCH
  5
83
330
70
100
AcDbEntity
  8
Layer 1
 62
    18
420
        0
440
 33554687
100
AcDbHatch
 10
0.0
 20
0.0
 30
0.0
210
0.0
220
0.0
230
1.0
  2
SOLID
 70
     1
 71
     1
 91
        1
 92
        1
 93
        3
 72
     1
 10
6.430849976009691
 20
14.21585067113235
 11
6.331683105892503
 21
13.82168436050415
 72
     1
 10
6.331683105892503
 20
13.82168436050415
 11
6.529182698991462
 21
13.82168436050415
 72
     1
 10
6.529182698991462
 20
13.82168436050415
 11
6.430849976009691
 21
14.21585067113235
 97
        1
330
82
 75
     0
 76
     1
 98
        1
 10
0.0
 20
0.0
450
        0
451
        0
460
0.0
461
0.0
452
        0
462
0.0
453
        0
470

  0
LWPOLYLINE
  5
84
330
70
100
AcDbEntity
  8
Layer 1
 62
    18
420
        0
370
     0
100
AcDbPolyline
 90
        3
 70
     1
 43
0.0
 10
6.430849976009691
 20
14.21585067113235
 10
6.331683105892503
 20
13.82168436050415
 10
6.529182698991462
 20
13.82168436050415
  0
LWPOLYLINE
  5
85
330
70
100
AcDbEntity
  8
Layer 1
100
AcDbPolyline
 90
        3
 70
     1
 43
0.0
 10
6.529183546701965
 20
3.585850450727674
 10
6.331683105892503
 20
3.585850450727674
 10
6.430849976009691
 20
3.192517863379584
  0
HATCH
  5
86
330
70
100
AcDbEntity
  8
Layer 1
 62
    18
420
        0
440
 33554687
100
AcDbHatch
 10
0.0
 20
0.0
 30
0.0
210
0.0
220
0.0
230
1.0
  2
SOLID
 70
     1
 71
     1
 91
        1
 92
        1
 93
        3
 72
     1
 10
6.529183546701965
 20
3.585850450727674
 11
6.331683105892503
 21
3.585850450727674
 72
     1
 10
6.331683105892503
 20
3.585850450727674
 11
6.430849976009691
 21
3.192517863379584
 72
     1
 10
6.430849976009691
 20
3.192517863379584
 11
6.529183546701965
 21
3.585850450727674
 97
        1
330
85
 75
     0
 76
     1
 98
        1
 10
0.0
 20
0.0
450
        0
451
        0
460
0.0
461
0.0
452
        0
462
0.0
453
        0
470

  0
LWPOLYLINE
  5
87
330
70
100
AcDbEntity
  8
Layer 1
 62
    18
420
        0
370
     0
100
AcDbPolyline
 90
        3
 70
     1
 43
0.0
 10
6.529183546701965
 20
3.585850450727674
 10
6.331683105892503
 20
3.585850450727674
 10
6.430849976009691
 20
3.192517863379584
  0
LWPOLYLINE
  5
88
330
70
100
AcDbEntity
  8
Layer 1
100
AcDbPolyline
 90
        3
 70
     1
 43
0.0
 10
6.504182868533562
 20
14.60918410619097
 10
6.307515727149014
 20
14.60918410619097
 10
6.405849297841288
 20
14.21585109498763
  0
HATCH
  5
89
330
70
100
AcDbEntity
  8
Layer 1
 62
    18
420
        0
440
 33554687
100
AcDbHatch
 10
0.0
 20
0.0
 30
0.0
210
0.0
220
0.0
230
1.0
  2
SOLID
 70
     1
 71
     1
 91
        1
 92
        1
 93
        3
 72
     1
 10
6.504182868533562
 20
14.60918410619097
 11
6.307515727149014
 21
14.60918410619097
 72
     1
 10
6.307515727149014
 20
14.60918410619097
 11
6.405849297841288
 21
14.21585109498763
 72
     1
 10
6.405849297841288
 20
14.21585109498763
 11
6.504182868533562
 21
14.60918410619097
 97
        1
330
88
 75
     0
 76
     1
 98
        1
 10
0.0
 20
0.0
450
        0
451
        0
460
0.0
461
0.0
452
        0
462
0.0
453
        0
470

  0
LWPOLYLINE
  5
8A
330
70
100
AcDbEntity
  8
Layer 1
 62
    18
420
        0
370
     0
100
AcDbPolyline
 90
        3
 70
     1
 43
0.0
 10
6.504182868533562
 20
14.60918410619097
 10
6.307515727149014
 20
14.60918410619097
 10
6.405849297841288
 20
14.21585109498763
  0
LINE
  5
8B
330
70
100
AcDbEntity
  8
Layer 1
 62
    18
420
        0
370
    15
100
AcDbLine
 10
12.04501623577529
 20
18.74335082372027
 30
0.0
 11
12.32668161392209
 21
19.35418420367778
 31
0.0
  0
LINE
  5
8C
330
70
100
AcDbEntity
  8
Layer 1
 62
    18
420
        0
370
    15
100
AcDbLine
 10
5.277516100141635
 20
18.74335082372027
 30
0.0
 11
5.559182325998841
 21
19.35418420367778
 31
0.0
  0
LINE
  5
8D
330
70
100
AcDbEntity
  8
Layer 1
 62
    18
420
        0
370
    15
100
AcDbLine
 10
-1.489984035492044
 20
18.74335082372027
 30
0.0
 11
-1.209150897132126
 21
19.35418420367778
 31
0.0
  0
LINE
  5
8E
330
70
100
AcDbEntity
  8
Layer 1
 62
    18
420
        0
370
    15
100
AcDbLine
 10
14.30168263117457
 20
18.74335082372027
 30
0.0
 11
14.58251555760694
 21
19.35418420367778
 31
0.0
  0
LINE
  5
8F
330
70
100
AcDbEntity
  8
Layer 1
 62
    18
420
        0
370
    15
100
AcDbLine
 10
3.021683004167243
 20
18.74335082372027
 30
0.0
 11
3.3033496538797
 21
19.35418420367778
 31
0.0
  0
LINE
  5
90
330
70
100
AcDbEntity
  8
Layer 1
 62
    18
420
        0
370
    15
100
AcDbLine
 10
9.789183139800973
 20
18.74335082372027
 30
0.0
 11
10.0708493656582
 21
19.35418420367778
 31
0.0
  0
LINE
  5
91
330
70
100
AcDbEntity
  8
Layer 1
 62
    18
420
        0
370
    15
100
AcDbLine
 10
0.7658499081928514
 20
18.74335082372027
 30
0.0
 11
1.047516557905308
 21
19.35418420367778
 31
0.0
  0
LINE
  5
92
330
70
100
AcDbEntity
  8
Layer 1
 62
    18
420
        0
370
    15
100
AcDbLine
 10
7.533350043826531
 20
18.74335082372027
 30
0.0
 11
7.815016269683736
 21
19.35418420367778
 31
0.0
  0
INSERT
  5
94
330
70
100
AcDbEntity
  8
Layer 1
100
AcDbBlockReference
  2
Block_0
 10
0.0
 20
0.0
 30
0.0
  0
LINE
  5
99
330
70
100
AcDbEntity
  8
Layer 1
 62
    18
420
        0
370
    15
100
AcDbLine
 10
6.410849942101271
 20
14.21585067113235
 30
0.0
 11
6.410849942101271
 21
14.21585067113235
 31
0.0
  0
LWPOLYLINE
  5
9A
330
70
100
AcDbEntity
  8
Layer 1
 62
    18
420
        0
370
    15
100
AcDbPolyline
 90
        4
 70
     1
 43
0.0
 10
-2.034149752722947
 20
14.21585109498763
 10
-2.034149752722947
 20
3.192517863379584
 10
14.89501725302792
 20
3.192517863379584
 10
14.89501725302792
 20
14.21585109498763
  0
LWPOLYLINE
  5
9B
330
70
100
AcDbEntity
  8
Layer 1
 62
    18
420
        0
370
    15
100
AcDbPolyline
 90
        4
 70
     0
 43
0.0
 10
6.405850145551791
 20
14.21585109498763
 10
6.504182868533562
 20
14.60918453004625
 10
6.307516574859517
 20
14.60918453004625
 10
6.405850145551791
 20
14.21585109498763
  0
LWPOLYLINE
  5
9C
330
70
100
AcDbEntity
  8
Layer 1
 62
    18
420
        0
370
    15
100
AcDbPolyline
 90
        4
 70
     0
 43
0.0
 10
6.405850145551791
 20
18.74335124757554
 10
6.307516574859517
 20
18.35001802444458
 10
6.504182868533562
 20
18.35001802444458
 10
6.405850145551791
 20
18.74335124757554
  0
LINE
  5
9D
330
70
100
AcDbEntity
  8
Layer 1
 62
    18
420
        0
370
    15
100
AcDbLine
 10
6.450016710493198
 20
3.192517863379584
 30
0.0
 11
6.410849942101271
 21
3.192517863379584
 31
0.0
  0
LWPOLYLINE
  5
9E
330
70
100
AcDbEntity
  8
Layer 1
 62
    18
420
        0
370
    15
100
AcDbPolyline
 90
        4
 70
     0
 43
0.0
 10
-2.034149752722947
 20
8.704184055328369
 10
-1.640816423628166
 20
8.605851332346597
 10
-1.640816423628166
 20
8.802517626020643
 10
-2.034149752722947
 20
8.704184055328369
  0
LINE
  5
9F
330
70
100
AcDbEntity
  8
Layer 1
 62
    18
420
        0
370
    15
100
AcDbLine
 10
6.405850145551791
 20
14.60918410619097
 30
0.0
 11
6.405850145551791
 21
18.35001738866166
 31
0.0
  0
LINE
  5
A0
330
70
100
AcDbEntity
  8
Layer 1
 62
    18
420
        0
370
    15
100
AcDbLine
 10
14.89501725302792
 20
8.723350789811876
 30
0.0
 11
14.89501725302792
 21
8.723350789811876
 31
0.0
  0
LINE
  5
A1
330
70
100
AcDbEntity
  8
Layer 1
 62
    18
420
        0
370
    15
100
AcDbLine
 10
-2.034149752722947
 20
8.723350789811876
 30
0.0
 11
-2.034149752722947
 21
8.723350789811876
 31
0.0
  0
LWPOLYLINE
  5
A2
330
70
100
AcDbEntity
  8
Layer 1
 62
    18
420
        0
370
    15
100
AcDbPolyline
 90
        4
 70
     0
 43
0.0
 10
6.430849976009691
 20
14.21585067113235
 10
6.331683105892503
 20
13.82168436050415
 10
6.529182698991462
 20
13.82168436050415
 10
6.430849976009691
 20
14.21585067113235
  0
LWPOLYLINE
  5
A3
330
70
100
AcDbEntity
  8
Layer 1
 62
    18
420
        0
370
    15
100
AcDbPolyline
 90
        4
 70
     0
 43
0.0
 10
14.89501725302792
 20
8.704184055328369
 10
14.50168297025889
 20
8.802517626020643
 10
14.50168297025889
 20
8.605851332346597
 10
14.89501725302792
 20
8.704184055328369
  0
LINE
  5
A4
330
70
100
AcDbEntity
  8
Layer 1
 62
    18
420
        0
370
    15
100
AcDbLine
 10
-1.640815469953849
 20
8.704184055328369
 30
0.0
 11
14.50168466567985
 21
8.704184055328369
 31
0.0
  0
LINE
  5
A5
330
70
100
AcDbEntity
  8
Layer 1
 62
    18
420
        0
370
    15
100
AcDbLine
 10
6.430850823720194
 20
3.585850450727674
 30
0.0
 11
6.430850823720194
 21
13.82168351279364
 31
0.0
  0
LWPOLYLINE
  5
A6
330
70
100
AcDbEntity
  8
Layer 1
 62
    18
420
        0
370
    15
100
AcDbPolyline
 90
        4
 70
     0
 43
0.0
 10
6.430850823720194
 20
3.192517863379584
 10
6.529183546701965
 20
3.585852146148681
 10
6.331683953603007
 20
3.585852146148681
 10
6.430850823720194
 20
3.192517863379584
  0
SPLINE
  5
A7
330
70
100
AcDbEntity
  8
Layer 1
100
AcDbSpline
210
0.0
220
0.0
230
1.0
 70
    11
 71
     3
 72
    32
 73
    28
 74
     0
 42
0.0000000001
 43
0.0000000001
 40
0.0
 40
0.0
 40
0.0
 40
0.0
 40
1.0
 40
1.0
 40
1.0
 40
2.0
 40
2.0
 40
2.0
 40
3.0
 40
3.0
 40
3.0
 40
4.0
 40
4.0
 40
4.0
 40
5.0
 40
5.0
 40
5.0
 40
6.0
 40
6.0
 40
6.0
 40
7.0
 40
7.0
 40
7.0
 40
8.0
 40
8.0
 40
8.0
 40
9.0
 40
9.0
 40
9.0
 40
9.0
 10
7.307516574859517
 20
5.830018202463785
 30
0.0
 10
7.307516574859517
 20
5.830018202463785
 30
0.0
 10
7.307516574859517
 20
5.734186225467257
 30
0.0
 10
7.307516574859517
 20
5.734186225467257
 30
0.0
 10
7.307516574859517
 20
5.734186225467257
 30
0.0
 10
6.698349263932868
 20
5.734186225467257
 30
0.0
 10
6.698349263932868
 20
5.734186225467257
 30
0.0
 10
6.720015896691115
 20
5.711686293284097
 30
0.0
 10
6.741682529449361
 20
5.681685818566216
 30
0.0
 10
6.764182461632521
 20
5.644186496734619
 30
0.0
 10
6.785849094390767
 20
5.606685479482014
 30
0.0
 10
6.802515930599534
 20
5.573351807064479
 30
0.0
 10
6.813349670833909
 20
5.543353027767604
 30
0.0
 10
6.813349670833909
 20
5.543353027767604
 30
0.0
 10
6.720849196116027
 20
5.543353027767604
 30
0.0
 10
6.720849196116027
 20
5.543353027767604
 30
0.0
 10
6.695849365658128
 20
5.596685886383056
 30
0.0
 10
6.665016439225837
 20
5.643352349599202
 30
0.0
 10
6.629182868533562
 20
5.683352417416042
 30
0.0
 10
6.594182597266201
 20
5.723352485232882
 30
0.0
 10
6.559183173709343
 20
5.751686361100937
 30
0.0
 10
6.525849501291808
 20
5.768352349599202
 30
0.0
 10
6.525849501291808
 20
5.768352349599202
 30
0.0
 10
6.525849501291808
 20
5.830018202463785
 30
0.0
 10
6.525849501291808
 20
5.830018202463785
 30
0.0
 10
6.525849501291808
 20
5.830018202463785
 30
0.0
 10
7.307516574859517
 20
5.830018202463785
 30
0.0
 10
7.307516574859517
 20
5.830018202463785
 30
0.0
  0
HATCH
  5
A8
330
70
100
AcDbEntity
  8
Layer 1
 62
    18
420
        0
440
 33554687
100
AcDbHatch
 10
0.0
 20
0.0
 30
0.0
210
0.0
220
0.0
230
1.0
  2
SOLID
 70
     1
 71
     1
 91
        1
 92
        1
 93
        2
 72
     4
 94
        3
 73
     0
 74
     0
 95
       32
 96
       28
 40
0.0
 40
0.0
 40
0.0
 40
0.0
 40
1.0
 40
1.0
 40
1.0
 40
2.0
 40
2.0
 40
2.0
 40
3.0
 40
3.0
 40
3.0
 40
4.0
 40
4.0
 40
4.0
 40
5.0
 40
5.0
 40
5.0
 40
6.0
 40
6.0
 40
6.0
 40
7.0
 40
7.0
 40
7.0
 40
8.0
 40
8.0
 40
8.0
 40
9.0
 40
9.0
 40
9.0
 40
9.0
 10
7.307516574859517
 20
5.830018202463785
 10
7.307516574859517
 20
5.830018202463785
 10
7.307516574859517
 20
5.734186225467257
 10
7.307516574859517
 20
5.734186225467257
 10
7.307516574859517
 20
5.734186225467257
 10
6.698349263932868
 20
5.734186225467257
 10
6.698349263932868
 20
5.734186225467257
 10
6.720015896691115
 20
5.711686293284097
 10
6.741682529449361
 20
5.681685818566216
 10
6.764182461632521
 20
5.644186496734619
 10
6.785849094390767
 20
5.606685479482014
 10
6.802515930599534
 20
5.573351807064479
 10
6.813349670833909
 20
5.543353027767604
 10
6.813349670833909
 20
5.543353027767604
 10
6.720849196116027
 20
5.543353027767604
 10
6.720849196116027
 20
5.543353027767604
 10
6.695849365658128
 20
5.596685886383056
 10
6.665016439225837
 20
5.643352349599202
 10
6.629182868533562
 20
5.683352417416042
 10
6.594182597266201
 20
5.723352485232882
 10
6.559183173709343
 20
5.751686361100937
 10
6.525849501291808
 20
5.768352349599202
 10
6.525849501291808
 20
5.768352349599202
 10
6.525849501291808
 20
5.830018202463785
 10
6.525849501291808
 20
5.830018202463785
 10
6.525849501291808
 20
5.830018202463785
 10
7.307516574859517
 20
5.830018202463785
 10
7.307516574859517
 20
5.830018202463785
 97
        0
 72
     1
 10
7.307516574859517
 20
5.830018202463785
 11
7.307516574859517
 21
5.830018202463785
 97
        0
 75
     2
 76
     1
 98
        1
 10
0.0
 20
0.0
450
        0
451
        0
460
0.0
461
0.0
452
        0
462
0.0
453
        0
470

  0
SPLINE
  5
A9
330
70
100
AcDbEntity
  8
Layer 1
100
AcDbSpline
210
0.0
220
0.0
230
1.0
 70
    11
 71
     3
 72
    32
 73
    28
 74
     0
 42
0.0000000001
 43
0.0000000001
 40
0.0
 40
0.0
 40
0.0
 40
0.0
 40
1.0
 40
1.0
 40
1.0
 40
2.0
 40
2.0
 40
2.0
 40
3.0
 40
3.0
 40
3.0
 40
4.0
 40
4.0
 40
4.0
 40
5.0
 40
5.0
 40
5.0
 40
6.0
 40
6.0
 40
6.0
 40
7.0
 40
7.0
 40
7.0
 40
8.0
 40
8.0
 40
8.0
 40
9.0
 40
9.0
 40
9.0
 40
9.0
 10
7.307516574859517
 20
6.437518066830104
 30
0.0
 10
7.307516574859517
 20
6.437518066830104
 30
0.0
 10
7.307516574859517
 20
6.341686089833577
 30
0.0
 10
7.307516574859517
 20
6.341686089833577
 30
0.0
 10
7.307516574859517
 20
6.341686089833577
 30
0.0
 10
6.698349263932868
 20
6.341686089833577
 30
0.0
 10
6.698349263932868
 20
6.341686089833577
 30
0.0
 10
6.720015896691115
 20
6.319186157650417
 30
0.0
 10
6.741682529449361
 20
6.289185682932535
 30
0.0
 10
6.764182461632521
 20
6.251686361100937
 30
0.0
 10
6.785849094390767
 20
6.214185343848334
 30
0.0
 10
6.802515930599534
 20
6.180851671430799
 30
0.0
 10
6.813349670833909
 20
6.150852892133924
 30
0.0
 10
6.813349670833909
 20
6.150852892133924
 30
0.0
 10
6.720849196116027
 20
6.150852892133924
 30
0.0
 10
6.720849196116027
 20
6.150852892133924
 30
0.0
 10
6.695849365658128
 20
6.204185750749375
 30
0.0
 10
6.665016439225837
 20
6.250852213965521
 30
0.0
 10
6.629182868533562
 20
6.290852281782361
 30
0.0
 10
6.594182597266201
 20
6.330852349599202
 30
0.0
 10
6.559183173709343
 20
6.359186225467257
 30
0.0
 10
6.525849501291808
 20
6.375852213965521
 30
0.0
 10
6.525849501291808
 20
6.375852213965521
 30
0.0
 10
6.525849501291808
 20
6.437518066830104
 30
0.0
 10
6.525849501291808
 20
6.437518066830104
 30
0.0
 10
6.525849501291808
 20
6.437518066830104
 30
0.0
 10
7.307516574859517
 20
6.437518066830104
 30
0.0
 10
7.307516574859517
 20
6.437518066830104
 30
0.0
  0
HATCH
  5
AA
330
70
100
AcDbEntity
  8
Layer 1
 62
    18
420
        0
440
 33554687
100
AcDbHatch
 10
0.0
 20
0.0
 30
0.0
210
0.0
220
0.0
230
1.0
  2
SOLID
 70
     1
 71
     1
 91
        1
 92
        1
 93
        2
 72
     4
 94
        3
 73
     0
 74
     0
 95
       32
 96
       28
 40
0.0
 40
0.0
 40
0.0
 40
0.0
 40
1.0
 40
1.0
 40
1.0
 40
2.0
 40
2.0
 40
2.0
 40
3.0
 40
3.0
 40
3.0
 40
4.0
 40
4.0
 40
4.0
 40
5.0
 40
5.0
 40
5.0
 40
6.0
 40
6.0
 40
6.0
 40
7.0
 40
7.0
 40
7.0
 40
8.0
 40
8.0
 40
8.0
 40
9.0
 40
9.0
 40
9.0
 40
9.0
 10
7.307516574859517
 20
6.437518066830104
 10
7.307516574859517
 20
6.437518066830104
 10
7.307516574859517
 20
6.341686089833577
 10
7.307516574859517
 20
6.341686089833577
 10
7.307516574859517
 20
6.341686089833577
 10
6.698349263932868
 20
6.341686089833577
 10
6.698349263932868
 20
6.341686089833577
 10
6.720015896691115
 20
6.319186157650417
 10
6.741682529449361
 20
6.289185682932535
 10
6.764182461632521
 20
6.251686361100937
 10
6.785849094390767
 20
6.214185343848334
 10
6.802515930599534
 20
6.180851671430799
 10
6.813349670833909
 20
6.150852892133924
 10
6.813349670833909
 20
6.150852892133924
 10
6.720849196116027
 20
6.150852892133924
 10
6.720849196116027
 20
6.150852892133924
 10
6.695849365658128
 20
6.204185750749375
 10
6.665016439225837
 20
6.250852213965521
 10
6.629182868533562
 20
6.290852281782361
 10
6.594182597266201
 20
6.330852349599202
 10
6.559183173709343
 20
6.359186225467257
 10
6.525849501291808
 20
6.375852213965521
 10
6.525849501291808
 20
6.375852213965521
 10
6.525849501291808
 20
6.437518066830104
 10
6.525849501291808
 20
6.437518066830104
 10
6.525849501291808
 20
6.437518066830104
 10
7.307516574859517
 20
6.437518066830104
 10
7.307516574859517
 20
6.437518066830104
 97
        0
 72
     1
 10
7.307516574859517
 20
6.437518066830104
 11
7.307516574859517
 21
6.437518066830104
 97
        0
 75
     2
 76
     1
 98
        1
 10
0.0
 20
0.0
450
        0
451
        0
460
0.0
461
0.0
452
        0
462
0.0
453
        0
470

  0
SPLINE
  5
AB
330
70
100
AcDbEntity
  8
Layer 1
100
AcDbSpline
210
0.0
220
0.0
230
1.0
 70
    11
 71
     3
 72
    23
 73
    19
 74
     0
 42
0.0000000001
 43
0.0000000001
 40
0.0
 40
0.0
 40
0.0
 40
0.0
 40
1.0
 40
1.0
 40
1.0
 40
2.0
 40
2.0
 40
2.0
 40
3.0
 40
3.0
 40
3.0
 40
4.0
 40
4.0
 40
4.0
 40
5.0
 40
5.0
 40
5.0
 40
6.0
 40
6.0
 40
6.0
 40
6.0
 10
6.804183377159865
 20
6.715851094987656
 30
0.0
 10
6.804183377159865
 20
6.715851094987656
 30
0.0
 10
6.655849297841288
 20
6.689184665679931
 30
0.0
 10
6.655849297841288
 20
6.689184665679931
 30
0.0
 10
6.655849297841288
 20
6.689184665679931
 30
0.0
 10
6.529182698991462
 20
6.689184665679931
 30
0.0
 10
6.529182698991462
 20
6.689184665679931
 30
0.0
 10
6.529182698991462
 20
6.689184665679931
 30
0.0
 10
6.529182698991462
 20
6.798351128896077
 30
0.0
 10
6.529182698991462
 20
6.798351128896077
 30
0.0
 10
6.529182698991462
 20
6.798351128896077
 30
0.0
 10
6.655849297841288
 20
6.798351128896077
 30
0.0
 10
6.655849297841288
 20
6.798351128896077
 30
0.0
 10
6.655849297841288
 20
6.798351128896077
 30
0.0
 10
6.804183377159865
 20
6.775017897288003
 30
0.0
 10
6.804183377159865
 20
6.775017897288003
 30
0.0
 10
6.804183377159865
 20
6.775017897288003
 30
0.0
 10
6.804183377159865
 20
6.715851094987656
 30
0.0
 10
6.804183377159865
 20
6.715851094987656
 30
0.0
  0
SPLINE
  5
AC
330
70
100
AcDbEntity
  8
Layer 1
100
AcDbSpline
210
0.0
220
0.0
230
1.0
 70
    11
 71
     3
 72
    23
 73
    19
 74
     0
 42
0.0000000001
 43
0.0000000001
 40
0.0
 40
0.0
 40
0.0
 40
0.0
 40
1.0
 40
1.0
 40
1.0
 40
2.0
 40
2.0
 40
2.0
 40
3.0
 40
3.0
 40
3.0
 40
4.0
 40
4.0
 40
4.0
 40
5.0
 40
5.0
 40
5.0
 40
6.0
 40
6.0
 40
6.0
 40
6.0
 10
6.804183377159865
 20
6.891684903038871
 30
0.0
 10
6.804183377159865
 20
6.891684903038871
 30
0.0
 10
6.655849297841288
 20
6.865018473731146
 30
0.0
 10
6.655849297841288
 20
6.865018473731146
 30
0.0
 10
6.655849297841288
 20
6.865018473731146
 30
0.0
 10
6.529182698991462
 20
6.865018473731146
 30
0.0
 10
6.529182698991462
 20
6.865018473731146
 30
0.0
 10
6.529182698991462
 20
6.865018473731146
 30
0.0
 10
6.529182698991462
 20
6.974184936947292
 30
0.0
 10
6.529182698991462
 20
6.974184936947292
 30
0.0
 10
6.529182698991462
 20
6.974184936947292
 30
0.0
 10
6.655849297841288
 20
6.974184936947292
 30
0.0
 10
6.655849297841288
 20
6.974184936947292
 30
0.0
 10
6.655849297841288
 20
6.974184936947292
 30
0.0
 10
6.804183377159865
 20
6.949185106489393
 30
0.0
 10
6.804183377159865
 20
6.949185106489393
 30
0.0
 10
6.804183377159865
 20
6.949185106489393
 30
0.0
 10
6.804183377159865
 20
6.891684903038871
 30
0.0
 10
6.804183377159865
 20
6.891684903038871
 30
0.0
  0
HATCH
  5
AD
330
70
100
AcDbEntity
  8
Layer 1
 62
    18
420
        0
440
 33554687
100
AcDbHatch
 10
0.0
 20
0.0
 30
0.0
210
0.0
220
0.0
230
1.0
  2
SOLID
 70
     1
 71
     1
 91
        2
 92
        1
 93
        1
 72
     4
 94
        3
 73
     0
 74
     0
 95
       23
 96
       19
 40
0.0
 40
0.0
 40
0.0
 40
0.0
 40
1.0
 40
1.0
 40
1.0
 40
2.0
 40
2.0
 40
2.0
 40
3.0
 40
3.0
 40
3.0
 40
4.0
 40
4.0
 40
4.0
 40
5.0
 40
5.0
 40
5.0
 40
6.0
 40
6.0
 40
6.0
 40
6.0
 10
6.804183377159865
 20
6.715851094987656
 10
6.804183377159865
 20
6.715851094987656
 10
6.655849297841288
 20
6.689184665679931
 10
6.655849297841288
 20
6.689184665679931
 10
6.655849297841288
 20
6.689184665679931
 10
6.529182698991462
 20
6.689184665679931
 10
6.529182698991462
 20
6.689184665679931
 10
6.529182698991462
 20
6.689184665679931
 10
6.529182698991462
 20
6.798351128896077
 10
6.529182698991462
 20
6.798351128896077
 10
6.529182698991462
 20
6.798351128896077
 10
6.655849297841288
 20
6.798351128896077
 10
6.655849297841288
 20
6.798351128896077
 10
6.655849297841288
 20
6.798351128896077
 10
6.804183377159865
 20
6.775017897288003
 10
6.804183377159865
 20
6.775017897288003
 10
6.804183377159865
 20
6.775017897288003
 10
6.804183377159865
 20
6.715851094987656
 10
6.804183377159865
 20
6.715851094987656
 97
        0
 97
        1
330
AB
 92
        1
 93
        2
 72
     4
 94
        3
 73
     0
 74
     0
 95
       23
 96
       19
 40
0.0
 40
0.0
 40
0.0
 40
0.0
 40
1.0
 40
1.0
 40
1.0
 40
2.0
 40
2.0
 40
2.0
 40
3.0
 40
3.0
 40
3.0
 40
4.0
 40
4.0
 40
4.0
 40
5.0
 40
5.0
 40
5.0
 40
6.0
 40
6.0
 40
6.0
 40
6.0
 10
6.804183377159865
 20
6.891684903038871
 10
6.804183377159865
 20
6.891684903038871
 10
6.655849297841288
 20
6.865018473731146
 10
6.655849297841288
 20
6.865018473731146
 10
6.655849297841288
 20
6.865018473731146
 10
6.529182698991462
 20
6.865018473731146
 10
6.529182698991462
 20
6.865018473731146
 10
6.529182698991462
 20
6.865018473731146
 10
6.529182698991462
 20
6.974184936947292
 10
6.529182698991462
 20
6.974184936947292
 10
6.529182698991462
 20
6.974184936947292
 10
6.655849297841288
 20
6.974184936947292
 10
6.655849297841288
 20
6.974184936947292
 10
6.655849297841288
 20
6.974184936947292
 10
6.804183377159865
 20
6.949185106489393
 10
6.804183377159865
 20
6.949185106489393
 10
6.804183377159865
 20
6.949185106489393
 10
6.804183377159865
 20
6.891684903038871
 10
6.804183377159865
 20
6.891684903038871
 97
        0
 72
     1
 10
6.804183377159865
 20
6.891684903038871
 11
6.804183377159865
 21
6.891684903038871
 97
        0
 75
     2
 76
     1
 98
        1
 10
0.0
 20
0.0
450
        0
451
        0
460
0.0
461
0.0
452
        0
462
0.0
453
        0
470

  0
MTEXT
  5
AE
330
70
100
AcDbEntity
  8
Layer 1
100
AcDbMText
 10
1.848342047797308
 20
7.844190173678927
 30
0.0
 40
0.2
 41
0.0
 46
0.0
 71
     7
 72
     1
  1
\C18;\c0;\FArial|b0|i0|c1;\H0.769456;\W1.000000;16-7/8"
 73
     1
 44
1.0
  0
MTEXT
  5
AF
330
70
100
AcDbEntity
  8
Layer 1
100
AcDbMText
 10
6.522468937767875
 20
14.83504019843207
 30
0.0
 40
0.2
 41
0.0
 46
0.0
 71
     7
 72
     1
  1
\C18;\c0;\FArial|b0|i0|c1;\H0.769456;\W1.000000;4-1/2" min
 73
     1
 44
1.0
  0
MTEXT
  5
B0
330
70
100
AcDbEntity
  8
Layer 1
100
AcDbMText
 10
10.20501793755425
 20
16.11918576558431
 30
0.0
 40
0.2
 41
0.0
 46
0.0
 71
     7
 72
     1
  1
\C18;\c0;\FArial|b0|i0|c1;\H0.769456;\W1.000000; min
 73
     1
 44
1.0
  0
SPLINE
  5
B1
330
70
100
AcDbEntity
  8
Layer 1
100
AcDbSpline
210
0.0
220
0.0
230
1.0
 70
    11
 71
     3
 72
    71
 73
    67
 74
     0
 42
0.0000000001
 43
0.0000000001
 40
0.0
 40
0.0
 40
0.0
 40
0.0
 40
1.0
 40
1.0
 40
1.0
 40
2.0
 40
2.0
 40
2.0
 40
3.0
 40
3.0
 40
3.0
 40
4.0
 40
4.0
 40
4.0
 40
5.0
 40
5.0
 40
5.0
 40
6.0
 40
6.0
 40
6.0
 40
7.0
 40
7.0
 40
7.0
 40
8.0
 40
8.0
 40
8.0
 40
9.0
 40
9.0
 40
9.0
 40
10.0
 40
10.0
 40
10.0
 40
11.0
 40
11.0
 40
11.0
 40
12.0
 40
12.0
 40
12.0
 40
13.0
 40
13.0
 40
13.0
 40
14.0
 40
14.0
 40
14.0
 40
15.0
 40
15.0
 40
15.0
 40
16.0
 40
16.0
 40
16.0
 40
17.0
 40
17.0
 40
17.0
 40
18.0
 40
18.0
 40
18.0
 40
19.0
 40
19.0
 40
19.0
 40
20.0
 40
20.0
 40
20.0
 40
21.0
 40
21.0
 40
21.0
 40
22.0
 40
22.0
 40
22.0
 40
22.0
 10
6.329183207617764
 20
5.277517795562744
 30
0.0
 10
6.329183207617764
 20
5.277517795562744
 30
0.0
 10
6.420849535200229
 20
5.277517795562744
 30
0.0
 10
6.420849535200229
 20
5.277517795562744
 30
0.0
 10
6.420849535200229
 20
5.277517795562744
 30
0.0
 10
6.420849535200229
 20
4.762518405914306
 30
0.0
 10
6.420849535200229
 20
4.762518405914306
 30
0.0
 10
6.397516303592156
 20
4.762518405914306
 30
0.0
 10
6.375016371408996
 20
4.765851603613959
 30
0.0
 10
6.354183038075663
 20
4.774184597863091
 30
0.0
 10
6.319182766808302
 20
4.787519084082709
 30
0.0
 10
6.284182495540941
 20
4.808352417416042
 30
0.0
 10
6.250849670833909
 20
4.837518744998507
 30
0.0
 10
6.216682698991462
 20
4.866685072580972
 30
0.0
 10
6.177515930599534
 20
4.908351739247639
 30
0.0
 10
6.132516066233216
 20
4.962518744998507
 30
0.0
 10
6.063349670833909
 20
5.04668453004625
 30
0.0
 10
6.008349365658128
 20
5.104184733496771
 30
0.0
 10
5.967515998416375
 20
5.134185208214653
 30
0.0
 10
5.927515930599534
 20
5.163351535797119
 30
0.0
 10
5.889182461632521
 20
5.178352620866562
 30
0.0
 10
5.852516439225837
 20
5.178352620866562
 30
0.0
 10
5.815016269683736
 20
5.178352620866562
 30
0.0
 10
5.783349196116028
 20
5.165018134646945
 30
0.0
 10
5.756682766808302
 20
5.138352553049722
 30
0.0
 10
5.73084963692549
 20
5.110851128896077
 30
0.0
 10
5.718349297841288
 20
5.075852553049722
 30
0.0
 10
5.718349297841288
 20
5.031685140397812
 30
0.0
 10
5.718349297841288
 20
4.985851128896077
 30
0.0
 10
5.731682936350403
 20
4.949185954199896
 30
0.0
 10
5.759182665083041
 20
4.92168453004625
 30
0.0
 10
5.786682393815681
 20
4.894184801313611
 30
0.0
 10
5.825015862782694
 20
4.880017863379584
 30
0.0
 10
5.874183071984083
 20
4.879185411665174
 30
0.0
 10
5.874183071984083
 20
4.879185411665174
 30
0.0
 10
5.864182631174622
 20
4.780852688683403
 30
0.0
 10
5.864182631174622
 20
4.780852688683403
 30
0.0
 10
5.79084973865075
 20
4.787519084082709
 30
0.0
 10
5.735016134050056
 20
4.813352213965521
 30
0.0
 10
5.696682665083041
 20
4.857517931196424
 30
0.0
 10
5.658349196116028
 20
4.900851196712917
 30
0.0
 10
5.639182461632521
 20
4.960017999013264
 30
0.0
 10
5.639182461632521
 20
5.034185886383056
 30
0.0
 10
5.639182461632521
 20
5.10918453004625
 30
0.0
 10
5.659182495540941
 20
5.168351332346597
 30
0.0
 10
5.700849162207608
 20
5.211684597863091
 30
0.0
 10
5.742515828874275
 20
5.255017863379584
 30
0.0
 10
5.79334963692549
 20
5.276685343848334
 30
0.0
 10
5.855016337500576
 20
5.276685343848334
 30
0.0
 10
5.885849263932868
 20
5.276685343848334
 30
0.0
 10
5.916683038075663
 20
5.270851400163437
 30
0.0
 10
5.946682665083041
 20
5.257518609364827
 30
0.0
 10
5.976683139800924
 20
5.245018270280625
 30
0.0
 10
6.008349365658128
 20
5.224184936947292
 30
0.0
 10
6.041683038075663
 20
5.19418446222941
 30
0.0
 10
6.075015862782694
 20
5.164185682932535
 30
0.0
 10
6.120849874284431
 20
5.115852620866562
 30
0.0
 10
6.179182529449361
 20
5.04668453004625
 30
0.0
 10
6.227516439225837
 20
4.989186022016736
 30
0.0
 10
6.260015964507955
 20
4.952519151899549
 30
0.0
 10
6.276682800716722
 20
4.936685615115695
 30
0.0
 10
6.294182936350402
 20
4.920017931196424
 30
0.0
 10
6.311683071984083
 20
4.906685140397812
 30
0.0
 10
6.329183207617764
 20
4.895851400163437
 30
0.0
 10
6.329183207617764
 20
4.895851400163437
 30
0.0
 10
6.329183207617764
 20
5.277517795562744
 30
0.0
 10
6.329183207617764
 20
5.277517795562744
 30
0.0
  0
HATCH
  5
B2
330
70
100
AcDbEntity
  8
Layer 1
 62
    18
420
        0
440
 33554687
100
AcDbHatch
 10
0.0
 20
0.0
 30
0.0
210
0.0
220
0.0
230
1.0
  2
SOLID
 70
     1
 71
     1
 91
        1
 92
        1
 93
        2
 72
     4
 94
        3
 73
     0
 74
     0
 95
       71
 96
       67
 40
0.0
 40
0.0
 40
0.0
 40
0.0
 40
1.0
 40
1.0
 40
1.0
 40
2.0
 40
2.0
 40
2.0
 40
3.0
 40
3.0
 40
3.0
 40
4.0
 40
4.0
 40
4.0
 40
5.0
 40
5.0
 40
5.0
 40
6.0
 40
6.0
 40
6.0
 40
7.0
 40
7.0
 40
7.0
 40
8.0
 40
8.0
 40
8.0
 40
9.0
 40
9.0
 40
9.0
 40
10.0
 40
10.0
 40
10.0
 40
11.0
 40
11.0
 40
11.0
 40
12.0
 40
12.0
 40
12.0
 40
13.0
 40
13.0
 40
13.0
 40
14.0
 40
14.0
 40
14.0
 40
15.0
 40
15.0
 40
15.0
 40
16.0
 40
16.0
 40
16.0
 40
17.0
 40
17.0
 40
17.0
 40
18.0
 40
18.0
 40
18.0
 40
19.0
 40
19.0
 40
19.0
 40
20.0
 40
20.0
 40
20.0
 40
21.0
 40
21.0
 40
21.0
 40
22.0
 40
22.0
 40
22.0
 40
22.0
 10
6.329183207617764
 20
5.277517795562744
 10
6.329183207617764
 20
5.277517795562744
 10
6.420849535200229
 20
5.277517795562744
 10
6.420849535200229
 20
5.277517795562744
 10
6.420849535200229
 20
5.277517795562744
 10
6.420849535200229
 20
4.762518405914306
 10
6.420849535200229
 20
4.762518405914306
 10
6.397516303592156
 20
4.762518405914306
 10
6.375016371408996
 20
4.765851603613959
 10
6.354183038075663
 20
4.774184597863091
 10
6.319182766808302
 20
4.787519084082709
 10
6.284182495540941
 20
4.808352417416042
 10
6.250849670833909
 20
4.837518744998507
 10
6.216682698991462
 20
4.866685072580972
 10
6.177515930599534
 20
4.908351739247639
 10
6.132516066233216
 20
4.962518744998507
 10
6.063349670833909
 20
5.04668453004625
 10
6.008349365658128
 20
5.104184733496771
 10
5.967515998416375
 20
5.134185208214653
 10
5.927515930599534
 20
5.163351535797119
 10
5.889182461632521
 20
5.178352620866562
 10
5.852516439225837
 20
5.178352620866562
 10
5.815016269683736
 20
5.178352620866562
 10
5.783349196116028
 20
5.165018134646945
 10
5.756682766808302
 20
5.138352553049722
 10
5.73084963692549
 20
5.110851128896077
 10
5.718349297841288
 20
5.075852553049722
 10
5.718349297841288
 20
5.031685140397812
 10
5.718349297841288
 20
4.985851128896077
 10
5.731682936350403
 20
4.949185954199896
 10
5.759182665083041
 20
4.92168453004625
 10
5.786682393815681
 20
4.894184801313611
 10
5.825015862782694
 20
4.880017863379584
 10
5.874183071984083
 20
4.879185411665174
 10
5.874183071984083
 20
4.879185411665174
 10
5.864182631174622
 20
4.780852688683403
 10
5.864182631174622
 20
4.780852688683403
 10
5.79084973865075
 20
4.787519084082709
 10
5.735016134050056
 20
4.813352213965521
 10
5.696682665083041
 20
4.857517931196424
 10
5.658349196116028
 20
4.900851196712917
 10
5.639182461632521
 20
4.960017999013264
 10
5.639182461632521
 20
5.034185886383056
 10
5.639182461632521
 20
5.10918453004625
 10
5.659182495540941
 20
5.168351332346597
 10
5.700849162207608
 20
5.211684597863091
 10
5.742515828874275
 20
5.255017863379584
 10
5.79334963692549
 20
5.276685343848334
 10
5.855016337500576
 20
5.276685343848334
 10
5.885849263932868
 20
5.276685343848334
 10
5.916683038075663
 20
5.270851400163437
 10
5.946682665083041
 20
5.257518609364827
 10
5.976683139800924
 20
5.245018270280625
 10
6.008349365658128
 20
5.224184936947292
 10
6.041683038075663
 20
5.19418446222941
 10
6.075015862782694
 20
5.164185682932535
 10
6.120849874284431
 20
5.115852620866562
 10
6.179182529449361
 20
5.04668453004625
 10
6.227516439225837
 20
4.989186022016736
 10
6.260015964507955
 20
4.952519151899549
 10
6.276682800716722
 20
4.936685615115695
 10
6.294182936350402
 20
4.920017931196424
 10
6.311683071984083
 20
4.906685140397812
 10
6.329183207617764
 20
4.895851400163437
 10
6.329183207617764
 20
4.895851400163437
 10
6.329183207617764
 20
5.277517795562744
 10
6.329183207617764
 20
5.277517795562744
 97
        0
 72
     1
 10
6.329183207617764
 20
5.277517795562744
 11
6.329183207617764
 21
5.277517795562744
 97
        0
 75
     2
 76
     1
 98
        1
 10
0.0
 20
0.0
450
        0
451
        0
460
0.0
461
0.0
452
        0
462
0.0
453
        0
470

  0
SPLINE
  5
B3
330
70
100
AcDbEntity
  8
Layer 1
100
AcDbSpline
210
0.0
220
0.0
230
1.0
 70
     9
 71
     3
 72
    53
 73
    49
 74
     0
 42
0.0000000001
 43
0.0000000001
 40
0.0
 40
0.0
 40
0.0
 40
0.0
 40
1.0
 40
1.0
 40
1.0
 40
2.0
 40
2.0
 40
2.0
 40
3.0
 40
3.0
 40
3.0
 40
4.0
 40
4.0
 40
4.0
 40
5.0
 40
5.0
 40
5.0
 40
6.0
 40
6.0
 40
6.0
 40
7.0
 40
7.0
 40
7.0
 40
8.0
 40
8.0
 40
8.0
 40
9.0
 40
9.0
 40
9.0
 40
10.0
 40
10.0
 40
10.0
 40
11.0
 40
11.0
 40
11.0
 40
12.0
 40
12.0
 40
12.0
 40
13.0
 40
13.0
 40
13.0
 40
14.0
 40
14.0
 40
14.0
 40
15.0
 40
15.0
 40
15.0
 40
16.0
 40
16.0
 40
16.0
 40
16.0
 10
5.99834977255917
 20
5.531683444976806
 30
0.0
 10
5.983349535200229
 20
5.491685072580972
 30
0.0
 10
5.962516201866896
 20
5.4625170495775
 30
0.0
 10
5.93584977255917
 20
5.443350315093994
 30
0.0
 10
5.909182495540941
 20
5.424183580610486
 30
0.0
 10
5.876682970258823
 20
5.414183987511528
 30
0.0
 10
5.839182800716722
 20
5.414183987511528
 30
0.0
 10
5.782515896691115
 20
5.414183987511528
 30
0.0
 10
5.735016134050056
 20
5.435017320844861
 30
0.0
 10
5.696682665083041
 20
5.475851535797119
 30
0.0
 10
5.658349196116028
 20
5.515851603613959
 30
0.0
 10
5.639182461632521
 20
5.57001691394382
 30
0.0
 10
5.639182461632521
 20
5.637518405914306
 30
0.0
 10
5.639182461632521
 20
5.705850654178195
 30
0.0
 10
5.658349196116028
 20
5.760017659929062
 30
0.0
 10
5.698349263932868
 20
5.801684326595729
 30
0.0
 10
5.737516032324795
 20
5.843350993262396
 30
0.0
 10
5.785849094390767
 20
5.863350179460312
 30
0.0
 10
5.841682698991462
 20
5.863350179460312
 30
0.0
 10
5.87834956910865
 20
5.863350179460312
 30
0.0
 10
5.909182495540941
 20
5.854184733496771
 30
0.0
 10
5.93584977255917
 20
5.835017999013264
 30
0.0
 10
5.963349501291809
 20
5.816683716244167
 30
0.0
 10
5.983349535200229
 20
5.787517388661702
 30
0.0
 10
5.99834977255917
 20
5.749183919694687
 30
0.0
 10
6.013349162207608
 20
5.79668453004625
 30
0.0
 10
6.03918229209042
 20
5.833351400163437
 30
0.0
 10
6.073349263932868
 20
5.858350382910834
 30
0.0
 10
6.108349535200229
 20
5.88251691394382
 30
0.0
 10
6.150016201866896
 20
5.895017253028021
 30
0.0
 10
6.197515964507955
 20
5.895017253028021
 30
0.0
 10
6.264182461632521
 20
5.895017253028021
 30
0.0
 10
6.320849365658128
 20
5.871684869130452
 30
0.0
 10
6.365849230024448
 20
5.825018405914306
 30
0.0
 10
6.410849094390767
 20
5.777517795562744
 30
0.0
 10
6.43418232599884
 20
5.715850247277153
 30
0.0
 10
6.43418232599884
 20
5.639185004764132
 30
0.0
 10
6.43418232599884
 20
5.562518066830104
 30
0.0
 10
6.410849094390767
 20
5.500018066830104
 30
0.0
 10
6.365849230024448
 20
5.453351603613959
 30
0.0
 10
6.320016066233215
 20
5.406683444976806
 30
0.0
 10
6.263349162207608
 20
5.38251691394382
 30
0.0
 10
6.195016066233216
 20
5.38251691394382
 30
0.0
 10
6.144183105892503
 20
5.38251691394382
 30
0.0
 10
6.102516439225837
 20
5.395851400163437
 30
0.0
 10
6.068349467383389
 20
5.42168453004625
 30
0.0
 10
6.034182495540941
 20
5.447517659929062
 30
0.0
 10
6.010849263932868
 20
5.48418453004625
 30
0.0
 10
5.99834977255917
 20
5.531683444976806
 30
0.0
  0
SPLINE
  5
B4
330
70
100
AcDbEntity
  8
Layer 1
100
AcDbSpline
210
0.0
220
0.0
230
1.0
 70
     9
 71
     3
 72
    29
 73
    25
 74
     0
 42
0.0000000001
 43
0.0000000001
 40
0.0
 40
0.0
 40
0.0
 40
0.0
 40
1.0
 40
1.0
 40
1.0
 40
2.0
 40
2.0
 40
2.0
 40
3.0
 40
3.0
 40
3.0
 40
4.0
 40
4.0
 40
4.0
 40
5.0
 40
5.0
 40
5.0
 40
6.0
 40
6.0
 40
6.0
 40
7.0
 40
7.0
 40
7.0
 40
8.0
 40
8.0
 40
8.0
 40
8.0
 10
5.835849603017069
 20
5.512518405914306
 30
0.0
 10
5.872515625423753
 20
5.512518405914306
 30
0.0
 10
5.903349399566549
 20
5.524184597863091
 30
0.0
 10
5.926682631174622
 20
5.548351128896077
 30
0.0
 10
5.950015862782694
 20
5.571683512793646
 30
0.0
 10
5.961682902441983
 20
5.602518134646945
 30
0.0
 10
5.961682902441983
 20
5.640017456478542
 30
0.0
 10
5.961682902441983
 20
5.676684326595729
 30
0.0
 10
5.950015862782694
 20
5.707517253028021
 30
0.0
 10
5.926682631174622
 20
5.730851332346597
 30
0.0
 10
5.903349399566549
 20
5.753351264529757
 30
0.0
 10
5.875016371408997
 20
5.765017456478542
 30
0.0
 10
5.841682698991462
 20
5.765017456478542
 30
0.0
 10
5.8066824277241
 20
5.765017456478542
 30
0.0
 10
5.776682800716722
 20
5.753351264529757
 30
0.0
 10
5.75334956910865
 20
5.729184733496771
 30
0.0
 10
5.729183038075663
 20
5.705018202463785
 30
0.0
 10
5.717515998416375
 20
5.675017727745903
 30
0.0
 10
5.717515998416375
 20
5.639185004764132
 30
0.0
 10
5.717515998416375
 20
5.602518134646945
 30
0.0
 10
5.729183038075663
 20
5.572517659929062
 30
0.0
 10
5.752516269683736
 20
5.548351128896077
 30
0.0
 10
5.775849501291809
 20
5.5250170495775
 30
0.0
 10
5.803349230024448
 20
5.512518405914306
 30
0.0
 10
5.835849603017069
 20
5.512518405914306
 30
0.0
  0
SPLINE
  5
B5
330
70
100
AcDbEntity
  8
Layer 1
100
AcDbSpline
210
0.0
220
0.0
230
1.0
 70
     9
 71
     3
 72
    32
 73
    28
 74
     0
 42
0.0000000001
 43
0.0000000001
 40
0.0
 40
0.0
 40
0.0
 40
0.0
 40
1.0
 40
1.0
 40
1.0
 40
2.0
 40
2.0
 40
2.0
 40
3.0
 40
3.0
 40
3.0
 40
4.0
 40
4.0
 40
4.0
 40
5.0
 40
5.0
 40
5.0
 40
6.0
 40
6.0
 40
6.0
 40
7.0
 40
7.0
 40
7.0
 40
8.0
 40
8.0
 40
8.0
 40
9.0
 40
9.0
 40
9.0
 40
9.0
 10
6.195849365658128
 20
5.480851332346597
 30
0.0
 10
6.223349094390767
 20
5.480851332346597
 30
0.0
 10
6.250016371408996
 20
5.487517727745903
 30
0.0
 10
6.275016201866896
 20
5.500018066830104
 30
0.0
 10
6.300849331749708
 20
5.513350857628716
 30
0.0
 10
6.320849365658128
 20
5.532517592112222
 30
0.0
 10
6.334183004167243
 20
5.557518270280625
 30
0.0
 10
6.348349094390767
 20
5.583351400163437
 30
0.0
 10
6.35584963692549
 20
5.610851128896077
 30
0.0
 10
6.35584963692549
 20
5.640017456478542
 30
0.0
 10
6.35584963692549
 20
5.685851467980278
 30
0.0
 10
6.340849399566549
 20
5.723350789811875
 30
0.0
 10
6.311683071984083
 20
5.752517117394341
 30
0.0
 10
6.281682597266201
 20
5.782517592112222
 30
0.0
 10
6.2441824277241
 20
5.79668453004625
 30
0.0
 10
6.199182563357781
 20
5.79668453004625
 30
0.0
 10
6.153349399566549
 20
5.79668453004625
 30
0.0
 10
6.115015930599534
 20
5.781683444976806
 30
0.0
 10
6.085016303592156
 20
5.751684665679931
 30
0.0
 10
6.055015828874275
 20
5.720851739247639
 30
0.0
 10
6.040016439225837
 20
5.682518270280625
 30
0.0
 10
6.040016439225837
 20
5.636684258778889
 30
0.0
 10
6.040016439225837
 20
5.59168439441257
 30
0.0
 10
6.054182529449361
 20
5.554185072580972
 30
0.0
 10
6.084183004167243
 20
5.5250170495775
 30
0.0
 10
6.114182631174622
 20
5.495850721995035
 30
0.0
 10
6.151682800716722
 20
5.480851332346597
 30
0.0
 10
6.195849365658128
 20
5.480851332346597
 30
0.0
  0
HATCH
  5
B6
330
70
100
AcDbEntity
  8
Layer 1
 62
    18
420
        0
440
 33554687
100
AcDbHatch
 10
0.0
 20
0.0
 30
0.0
210
0.0
220
0.0
230
1.0
  2
SOLID
 70
     1
 71
     1
 91
        3
 92
        1
 93
        1
 72
     4
 94
        3
 73
     0
 74
     0
 95
       53
 96
       49
 40
0.0
 40
0.0
 40
0.0
 40
0.0
 40
1.0
 40
1.0
 40
1.0
 40
2.0
 40
2.0
 40
2.0
 40
3.0
 40
3.0
 40
3.0
 40
4.0
 40
4.0
 40
4.0
 40
5.0
 40
5.0
 40
5.0
 40
6.0
 40
6.0
 40
6.0
 40
7.0
 40
7.0
 40
7.0
 40
8.0
 40
8.0
 40
8.0
 40
9.0
 40
9.0
 40
9.0
 40
10.0
 40
10.0
 40
10.0
 40
11.0
 40
11.0
 40
11.0
 40
12.0
 40
12.0
 40
12.0
 40
13.0
 40
13.0
 40
13.0
 40
14.0
 40
14.0
 40
14.0
 40
15.0
 40
15.0
 40
15.0
 40
16.0
 40
16.0
 40
16.0
 40
16.0
 10
5.99834977255917
 20
5.531683444976806
 10
5.983349535200229
 20
5.491685072580972
 10
5.962516201866896
 20
5.4625170495775
 10
5.93584977255917
 20
5.443350315093994
 10
5.909182495540941
 20
5.424183580610486
 10
5.876682970258823
 20
5.414183987511528
 10
5.839182800716722
 20
5.414183987511528
 10
5.782515896691115
 20
5.414183987511528
 10
5.735016134050056
 20
5.435017320844861
 10
5.696682665083041
 20
5.475851535797119
 10
5.658349196116028
 20
5.515851603613959
 10
5.639182461632521
 20
5.57001691394382
 10
5.639182461632521
 20
5.637518405914306
 10
5.639182461632521
 20
5.705850654178195
 10
5.658349196116028
 20
5.760017659929062
 10
5.698349263932868
 20
5.801684326595729
 10
5.737516032324795
 20
5.843350993262396
 10
5.785849094390767
 20
5.863350179460312
 10
5.841682698991462
 20
5.863350179460312
 10
5.87834956910865
 20
5.863350179460312
 10
5.909182495540941
 20
5.854184733496771
 10
5.93584977255917
 20
5.835017999013264
 10
5.963349501291809
 20
5.816683716244167
 10
5.983349535200229
 20
5.787517388661702
 10
5.99834977255917
 20
5.749183919694687
 10
6.013349162207608
 20
5.79668453004625
 10
6.03918229209042
 20
5.833351400163437
 10
6.073349263932868
 20
5.858350382910834
 10
6.108349535200229
 20
5.88251691394382
 10
6.150016201866896
 20
5.895017253028021
 10
6.197515964507955
 20
5.895017253028021
 10
6.264182461632521
 20
5.895017253028021
 10
6.320849365658128
 20
5.871684869130452
 10
6.365849230024448
 20
5.825018405914306
 10
6.410849094390767
 20
5.777517795562744
 10
6.43418232599884
 20
5.715850247277153
 10
6.43418232599884
 20
5.639185004764132
 10
6.43418232599884
 20
5.562518066830104
 10
6.410849094390767
 20
5.500018066830104
 10
6.365849230024448
 20
5.453351603613959
 10
6.320016066233215
 20
5.406683444976806
 10
6.263349162207608
 20
5.38251691394382
 10
6.195016066233216
 20
5.38251691394382
 10
6.144183105892503
 20
5.38251691394382
 10
6.102516439225837
 20
5.395851400163437
 10
6.068349467383389
 20
5.42168453004625
 10
6.034182495540941
 20
5.447517659929062
 10
6.010849263932868
 20
5.48418453004625
 10
5.99834977255917
 20
5.531683444976806
 97
        0
 97
        1
330
B3
 92
        1
 93
        1
 72
     4
 94
        3
 73
     0
 74
     0
 95
       29
 96
       25
 40
0.0
 40
0.0
 40
0.0
 40
0.0
 40
1.0
 40
1.0
 40
1.0
 40
2.0
 40
2.0
 40
2.0
 40
3.0
 40
3.0
 40
3.0
 40
4.0
 40
4.0
 40
4.0
 40
5.0
 40
5.0
 40
5.0
 40
6.0
 40
6.0
 40
6.0
 40
7.0
 40
7.0
 40
7.0
 40
8.0
 40
8.0
 40
8.0
 40
8.0
 10
5.835849603017069
 20
5.512518405914306
 10
5.872515625423753
 20
5.512518405914306
 10
5.903349399566549
 20
5.524184597863091
 10
5.926682631174622
 20
5.548351128896077
 10
5.950015862782694
 20
5.571683512793646
 10
5.961682902441983
 20
5.602518134646945
 10
5.961682902441983
 20
5.640017456478542
 10
5.961682902441983
 20
5.676684326595729
 10
5.950015862782694
 20
5.707517253028021
 10
5.926682631174622
 20
5.730851332346597
 10
5.903349399566549
 20
5.753351264529757
 10
5.875016371408997
 20
5.765017456478542
 10
5.841682698991462
 20
5.765017456478542
 10
5.8066824277241
 20
5.765017456478542
 10
5.776682800716722
 20
5.753351264529757
 10
5.75334956910865
 20
5.729184733496771
 10
5.729183038075663
 20
5.705018202463785
 10
5.717515998416375
 20
5.675017727745903
 10
5.717515998416375
 20
5.639185004764132
 10
5.717515998416375
 20
5.602518134646945
 10
5.729183038075663
 20
5.572517659929062
 10
5.752516269683736
 20
5.548351128896077
 10
5.775849501291809
 20
5.5250170495775
 10
5.803349230024448
 20
5.512518405914306
 10
5.835849603017069
 20
5.512518405914306
 97
        0
 97
        1
330
B4
 92
        1
 93
        2
 72
     4
 94
        3
 73
     0
 74
     0
 95
       32
 96
       28
 40
0.0
 40
0.0
 40
0.0
 40
0.0
 40
1.0
 40
1.0
 40
1.0
 40
2.0
 40
2.0
 40
2.0
 40
3.0
 40
3.0
 40
3.0
 40
4.0
 40
4.0
 40
4.0
 40
5.0
 40
5.0
 40
5.0
 40
6.0
 40
6.0
 40
6.0
 40
7.0
 40
7.0
 40
7.0
 40
8.0
 40
8.0
 40
8.0
 40
9.0
 40
9.0
 40
9.0
 40
9.0
 10
6.195849365658128
 20
5.480851332346597
 10
6.223349094390767
 20
5.480851332346597
 10
6.250016371408996
 20
5.487517727745903
 10
6.275016201866896
 20
5.500018066830104
 10
6.300849331749708
 20
5.513350857628716
 10
6.320849365658128
 20
5.532517592112222
 10
6.334183004167243
 20
5.557518270280625
 10
6.348349094390767
 20
5.583351400163437
 10
6.35584963692549
 20
5.610851128896077
 10
6.35584963692549
 20
5.640017456478542
 10
6.35584963692549
 20
5.685851467980278
 10
6.340849399566549
 20
5.723350789811875
 10
6.311683071984083
 20
5.752517117394341
 10
6.281682597266201
 20
5.782517592112222
 10
6.2441824277241
 20
5.79668453004625
 10
6.199182563357781
 20
5.79668453004625
 10
6.153349399566549
 20
5.79668453004625
 10
6.115015930599534
 20
5.781683444976806
 10
6.085016303592156
 20
5.751684665679931
 10
6.055015828874275
 20
5.720851739247639
 10
6.040016439225837
 20
5.682518270280625
 10
6.040016439225837
 20
5.636684258778889
 10
6.040016439225837
 20
5.59168439441257
 10
6.054182529449361
 20
5.554185072580972
 10
6.084183004167243
 20
5.5250170495775
 10
6.114182631174622
 20
5.495850721995035
 10
6.151682800716722
 20
5.480851332346597
 10
6.195849365658128
 20
5.480851332346597
 97
        0
 72
     1
 10
6.195849365658128
 20
5.480851332346598
 11
6.195849365658128
 21
5.480851332346597
 97
        0
 75
     2
 76
     1
 98
        1
 10
0.0
 20
0.0
450
        0
451
        0
460
0.0
461
0.0
452
        0
462
0.0
453
        0
470

  0
SPLINE
  5
B7
330
70
100
AcDbEntity
  8
Layer 1
100
AcDbSpline
210
0.0
220
0.0
230
1.0
 70
     9
 71
     3
 72
    41
 73
    37
 74
     0
 42
0.0000000001
 43
0.0000000001
 40
0.0
 40
0.0
 40
0.0
 40
0.0
 40
1.0
 40
1.0
 40
1.0
 40
2.0
 40
2.0
 40
2.0
 40
3.0
 40
3.0
 40
3.0
 40
4.0
 40
4.0
 40
4.0
 40
5.0
 40
5.0
 40
5.0
 40
6.0
 40
6.0
 40
6.0
 40
7.0
 40
7.0
 40
7.0
 40
8.0
 40
8.0
 40
8.0
 40
9.0
 40
9.0
 40
9.0
 40
10.0
 40
10.0
 40
10.0
 40
11.0
 40
11.0
 40
11.0
 40
12.0
 40
12.0
 40
12.0
 40
12.0
 10
6.036683241526184
 20
5.990850925445556
 30
0.0
 10
5.944182766808302
 20
5.990850925445556
 30
0.0
 10
5.870016574859517
 20
6.000852213965521
 30
0.0
 10
5.814182970258823
 20
6.019184801313611
 30
0.0
 10
5.757516066233216
 20
6.038351535797119
 30
0.0
 10
5.714182800716722
 20
6.066685411665174
 30
0.0
 10
5.684183173709343
 20
6.104184733496771
 30
0.0
 10
5.654182698991462
 20
6.141685750749375
 30
0.0
 10
5.639182461632521
 20
6.188352213965521
 30
0.0
 10
5.639182461632521
 20
6.245018270280625
 30
0.0
 10
5.639182461632521
 20
6.286684936947292
 30
0.0
 10
5.647516303592156
 20
6.323351807064479
 30
0.0
 10
5.664183139800924
 20
6.355018880632187
 30
0.0
 10
5.680849128299187
 20
6.386684258778889
 30
0.0
 10
5.705016507042677
 20
6.412519084082709
 30
0.0
 10
5.736682732899882
 20
6.433352417416042
 30
0.0
 10
5.768349806467591
 20
6.453351603613959
 30
0.0
 10
5.8066824277241
 20
6.469185140397812
 30
0.0
 10
5.852516439225837
 20
6.480851332346597
 30
0.0
 10
5.898349603017069
 20
6.492519219716389
 30
0.0
 10
5.959183004167243
 20
6.498351467980278
 30
0.0
 10
6.036683241526184
 20
6.498351467980278
 30
0.0
 10
6.127516269683736
 20
6.498351467980278
 30
0.0
 10
6.201682461632521
 20
6.489184326595729
 30
0.0
 10
6.258349365658128
 20
6.470851739247639
 30
0.0
 10
6.314182970258823
 20
6.451685004764132
 30
0.0
 10
6.357516235775316
 20
6.423351128896077
 30
0.0
 10
6.388349162207608
 20
6.386684258778889
 30
0.0
 10
6.41834963692549
 20
6.349184936947292
 30
0.0
 10
6.434183173709343
 20
6.301684326595729
 30
0.0
 10
6.434183173709343
 20
6.245018270280625
 30
0.0
 10
6.434183173709343
 20
6.170017931196424
 30
0.0
 10
6.406682597266201
 20
6.110851128896077
 30
0.0
 10
6.35334973865075
 20
6.068352010515
 30
0.0
 10
6.28834984037601
 20
6.016685750749375
 30
0.0
 10
6.182516574859517
 20
5.990850925445556
 30
0.0
 10
6.036683241526184
 20
5.990850925445556
 30
0.0
  0
SPLINE
  5
B8
330
70
100
AcDbEntity
  8
Layer 1
100
AcDbSpline
210
0.0
220
0.0
230
1.0
 70
     9
 71
     3
 72
    29
 73
    25
 74
     0
 42
0.0000000001
 43
0.0000000001
 40
0.0
 40
0.0
 40
0.0
 40
0.0
 40
1.0
 40
1.0
 40
1.0
 40
2.0
 40
2.0
 40
2.0
 40
3.0
 40
3.0
 40
3.0
 40
4.0
 40
4.0
 40
4.0
 40
5.0
 40
5.0
 40
5.0
 40
6.0
 40
6.0
 40
6.0
 40
7.0
 40
7.0
 40
7.0
 40
8.0
 40
8.0
 40
8.0
 40
8.0
 10
6.036683241526184
 20
6.089185343848334
 30
0.0
 10
6.165016439225837
 20
6.089185343848334
 30
0.0
 10
6.250016371408996
 20
6.104184733496771
 30
0.0
 10
6.292516337500576
 20
6.134185208214653
 30
0.0
 10
6.334183004167243
 20
6.164185682932535
 30
0.0
 10
6.35584963692549
 20
6.200852553049722
 30
0.0
 10
6.35584963692549
 20
6.245018270280625
 30
0.0
 10
6.35584963692549
 20
6.288351535797119
 30
0.0
 10
6.334183004167243
 20
6.325852553049722
 30
0.0
 10
6.291683038075663
 20
6.355851332346597
 30
0.0
 10
6.250016371408996
 20
6.385017659929062
 30
0.0
 10
6.164183139800924
 20
6.400018744998507
 30
0.0
 10
6.036683241526184
 20
6.400018744998507
 30
0.0
 10
5.908349196116028
 20
6.400018744998507
 30
0.0
 10
5.823349263932868
 20
6.385017659929062
 30
0.0
 10
5.780849297841288
 20
6.355851332346597
 30
0.0
 10
5.739182631174622
 20
6.325852553049722
 30
0.0
 10
5.718349297841288
 20
6.288351535797119
 30
0.0
 10
5.718349297841288
 20
6.244185818566215
 30
0.0
 10
5.718349297841288
 20
6.200018405914306
 30
0.0
 10
5.736682732899882
 20
6.165018134646945
 30
0.0
 10
5.773349603017069
 20
6.138352553049722
 30
0.0
 10
5.820849365658128
 20
6.105851332346597
 30
0.0
 10
5.909182495540941
 20
6.089185343848334
 30
0.0
 10
6.036683241526184
 20
6.089185343848334
 30
0.0
  0
HATCH
  5
B9
330
70
100
AcDbEntity
  8
Layer 1
 62
    18
420
        0
440
 33554687
100
AcDbHatch
 10
0.0
 20
0.0
 30
0.0
210
0.0
220
0.0
230
1.0
  2
SOLID
 70
     1
 71
     1
 91
        2
 92
        1
 93
        1
 72
     4
 94
        3
 73
     0
 74
     0
 95
       41
 96
       37
 40
0.0
 40
0.0
 40
0.0
 40
0.0
 40
1.0
 40
1.0
 40
1.0
 40
2.0
 40
2.0
 40
2.0
 40
3.0
 40
3.0
 40
3.0
 40
4.0
 40
4.0
 40
4.0
 40
5.0
 40
5.0
 40
5.0
 40
6.0
 40
6.0
 40
6.0
 40
7.0
 40
7.0
 40
7.0
 40
8.0
 40
8.0
 40
8.0
 40
9.0
 40
9.0
 40
9.0
 40
10.0
 40
10.0
 40
10.0
 40
11.0
 40
11.0
 40
11.0
 40
12.0
 40
12.0
 40
12.0
 40
12.0
 10
6.036683241526184
 20
5.990850925445556
 10
5.944182766808302
 20
5.990850925445556
 10
5.870016574859517
 20
6.000852213965521
 10
5.814182970258823
 20
6.019184801313611
 10
5.757516066233216
 20
6.038351535797119
 10
5.714182800716722
 20
6.066685411665174
 10
5.684183173709343
 20
6.104184733496771
 10
5.654182698991462
 20
6.141685750749375
 10
5.639182461632521
 20
6.188352213965521
 10
5.639182461632521
 20
6.245018270280625
 10
5.639182461632521
 20
6.286684936947292
 10
5.647516303592156
 20
6.323351807064479
 10
5.664183139800924
 20
6.355018880632187
 10
5.680849128299187
 20
6.386684258778889
 10
5.705016507042677
 20
6.412519084082709
 10
5.736682732899882
 20
6.433352417416042
 10
5.768349806467591
 20
6.453351603613959
 10
5.8066824277241
 20
6.469185140397812
 10
5.852516439225837
 20
6.480851332346597
 10
5.898349603017069
 20
6.492519219716389
 10
5.959183004167243
 20
6.498351467980278
 10
6.036683241526184
 20
6.498351467980278
 10
6.127516269683736
 20
6.498351467980278
 10
6.201682461632521
 20
6.489184326595729
 10
6.258349365658128
 20
6.470851739247639
 10
6.314182970258823
 20
6.451685004764132
 10
6.357516235775316
 20
6.423351128896077
 10
6.388349162207608
 20
6.386684258778889
 10
6.41834963692549
 20
6.349184936947292
 10
6.434183173709343
 20
6.301684326595729
 10
6.434183173709343
 20
6.245018270280625
 10
6.434183173709343
 20
6.170017931196424
 10
6.406682597266201
 20
6.110851128896077
 10
6.35334973865075
 20
6.068352010515
 10
6.28834984037601
 20
6.016685750749375
 10
6.182516574859517
 20
5.990850925445556
 10
6.036683241526184
 20
5.990850925445556
 97
        0
 97
        1
330
B7
 92
        1
 93
        2
 72
     4
 94
        3
 73
     0
 74
     0
 95
       29
 96
       25
 40
0.0
 40
0.0
 40
0.0
 40
0.0
 40
1.0
 40
1.0
 40
1.0
 40
2.0
 40
2.0
 40
2.0
 40
3.0
 40
3.0
 40
3.0
 40
4.0
 40
4.0
 40
4.0
 40
5.0
 40
5.0
 40
5.0
 40
6.0
 40
6.0
 40
6.0
 40
7.0
 40
7.0
 40
7.0
 40
8.0
 40
8.0
 40
8.0
 40
8.0
 10
6.036683241526184
 20
6.089185343848334
 10
6.165016439225837
 20
6.089185343848334
 10
6.250016371408996
 20
6.104184733496771
 10
6.292516337500576
 20
6.134185208214653
 10
6.334183004167243
 20
6.164185682932535
 10
6.35584963692549
 20
6.200852553049722
 10
6.35584963692549
 20
6.245018270280625
 10
6.35584963692549
 20
6.288351535797119
 10
6.334183004167243
 20
6.325852553049722
 10
6.291683038075663
 20
6.355851332346597
 10
6.250016371408996
 20
6.385017659929062
 10
6.164183139800924
 20
6.400018744998507
 10
6.036683241526184
 20
6.400018744998507
 10
5.908349196116028
 20
6.400018744998507
 10
5.823349263932868
 20
6.385017659929062
 10
5.780849297841288
 20
6.355851332346597
 10
5.739182631174622
 20
6.325852553049722
 10
5.718349297841288
 20
6.288351535797119
 10
5.718349297841288
 20
6.244185818566215
 10
5.718349297841288
 20
6.200018405914306
 10
5.736682732899882
 20
6.165018134646945
 10
5.773349603017069
 20
6.138352553049722
 10
5.820849365658128
 20
6.105851332346597
 10
5.909182495540941
 20
6.089185343848334
 10
6.036683241526184
 20
6.089185343848334
 97
        0
 72
     1
 10
6.036683241526184
 20
6.089185343848333
 11
6.036683241526184
 21
6.089185343848334
 97
        0
 75
     2
 76
     1
 98
        1
 10
0.0
 20
0.0
450
        0
451
        0
460
0.0
461
0.0
452
        0
462
0.0
453
        0
470

  0
SPLINE
  5
BA
330
70
100
AcDbEntity
  8
Layer 1
100
AcDbSpline
210
0.0
220
0.0
230
1.0
 70
    11
 71
     3
 72
    89
 73
    85
 74
     0
 42
0.0000000001
 43
0.0000000001
 40
0.0
 40
0.0
 40
0.0
 40
0.0
 40
1.0
 40
1.0
 40
1.0
 40
2.0
 40
2.0
 40
2.0
 40
3.0
 40
3.0
 40
3.0
 40
4.0
 40
4.0
 40
4.0
 40
5.0
 40
5.0
 40
5.0
 40
6.0
 40
6.0
 40
6.0
 40
7.0
 40
7.0
 40
7.0
 40
8.0
 40
8.0
 40
8.0
 40
9.0
 40
9.0
 40
9.0
 40
10.0
 40
10.0
 40
10.0
 40
11.0
 40
11.0
 40
11.0
 40
12.0
 40
12.0
 40
12.0
 40
13.0
 40
13.0
 40
13.0
 40
14.0
 40
14.0
 40
14.0
 40
15.0
 40
15.0
 40
15.0
 40
16.0
 40
16.0
 40
16.0
 40
17.0
 40
17.0
 40
17.0
 40
18.0
 40
18.0
 40
18.0
 40
19.0
 40
19.0
 40
19.0
 40
20.0
 40
20.0
 40
20.0
 40
21.0
 40
21.0
 40
21.0
 40
22.0
 40
22.0
 40
22.0
 40
23.0
 40
23.0
 40
23.0
 40
24.0
 40
24.0
 40
24.0
 40
25.0
 40
25.0
 40
25.0
 40
26.0
 40
26.0
 40
26.0
 40
27.0
 40
27.0
 40
27.0
 40
28.0
 40
28.0
 40
28.0
 40
28.0
 10
6.420849535200229
 20
6.624183919694687
 30
0.0
 10
6.420849535200229
 20
6.624183919694687
 30
0.0
 10
5.8566820886399
 20
6.624183919694687
 30
0.0
 10
5.8566820886399
 20
6.624183919694687
 30
0.0
 10
5.8566820886399
 20
6.624183919694687
 30
0.0
 10
5.8566820886399
 20
6.710017999013264
 30
0.0
 10
5.8566820886399
 20
6.710017999013264
 30
0.0
 10
5.8566820886399
 20
6.710017999013264
 30
0.0
 10
5.935015625423753
 20
6.710017999013264
 30
0.0
 10
5.935015625423753
 20
6.710017999013264
 30
0.0
 10
5.907515896691115
 20
6.728350586361354
 30
0.0
 10
5.885849263932868
 20
6.751684665679931
 30
0.0
 10
5.8691824277241
 20
6.780850993262396
 30
0.0
 10
5.852515591515333
 20
6.810017320844861
 30
0.0
 10
5.844182597266201
 20
6.843350993262396
 30
0.0
 10
5.844182597266201
 20
6.880851162804496
 30
0.0
 10
5.844182597266201
 20
6.922517829471163
 30
0.0
 10
5.852515591515333
 20
6.957517253028021
 30
0.0
 10
5.870015727149014
 20
6.98418453004625
 30
0.0
 10
5.886682563357781
 20
7.010850959353976
 30
0.0
 10
5.910849094390767
 20
7.02918439441257
 30
0.0
 10
5.942516167958475
 20
7.040850586361354
 30
0.0
 10
5.876682122548319
 20
7.085017999013264
 30
0.0
 10
5.844182597266201
 20
7.143350654178195
 30
0.0
 10
5.844182597266201
 20
7.215017795562744
 30
0.0
 10
5.844182597266201
 20
7.271684699588351
 30
0.0
 10
5.859182834625142
 20
7.315017965104844
 30
0.0
 10
5.890015761057434
 20
7.345017592112222
 30
0.0
 10
5.921682834625142
 20
7.375018066830104
 30
0.0
 10
5.969182597266201
 20
7.390017456478542
 30
0.0
 10
6.033349196116028
 20
7.390017456478542
 30
0.0
 10
6.033349196116028
 20
7.390017456478542
 30
0.0
 10
6.420849535200229
 20
7.390017456478542
 30
0.0
 10
6.420849535200229
 20
7.390017456478542
 30
0.0
 10
6.420849535200229
 20
7.390017456478542
 30
0.0
 10
6.420849535200229
 20
7.294184631771511
 30
0.0
 10
6.420849535200229
 20
7.294184631771511
 30
0.0
 10
6.420849535200229
 20
7.294184631771511
 30
0.0
 10
6.065015421973233
 20
7.294184631771511
 30
0.0
 10
6.065015421973233
 20
7.294184631771511
 30
0.0
 10
6.026682800716722
 20
7.294184631771511
 30
0.0
 10
5.99918222427358
 20
7.291684733496771
 30
0.0
 10
5.982515388064812
 20
7.285017490386962
 30
0.0
 10
5.965849399566549
 20
7.27918439441257
 30
0.0
 10
5.951682461632521
 20
7.267517354753281
 30
0.0
 10
5.941682868533562
 20
7.251684665679931
 30
0.0
 10
5.9316824277241
 20
7.235017829471163
 30
0.0
 10
5.926682631174622
 20
7.215851094987656
 30
0.0
 10
5.926682631174622
 20
7.19418446222941
 30
0.0
 10
5.926682631174622
 20
7.15418439441257
 30
0.0
 10
5.939182122548319
 20
7.120850721995035
 30
0.0
 10
5.965849399566549
 20
7.095017592112222
 30
0.0
 10
5.992515828874275
 20
7.068351162804496
 30
0.0
 10
6.034182495540941
 20
7.055017524295382
 30
0.0
 10
6.092515998416375
 20
7.055017524295382
 30
0.0
 10
6.092515998416375
 20
7.055017524295382
 30
0.0
 10
6.420849535200229
 20
7.055017524295382
 30
0.0
 10
6.420849535200229
 20
7.055017524295382
 30
0.0
 10
6.420849535200229
 20
7.055017524295382
 30
0.0
 10
6.420849535200229
 20
6.959184699588351
 30
0.0
 10
6.420849535200229
 20
6.959184699588351
 30
0.0
 10
6.420849535200229
 20
6.959184699588351
 30
0.0
 10
6.054182529449361
 20
6.959184699588351
 30
0.0
 10
6.054182529449361
 20
6.959184699588351
 30
0.0
 10
6.011682563357781
 20
6.959184699588351
 30
0.0
 10
5.979182190365159
 20
6.951684157053628
 30
0.0
 10
5.958348857031826
 20
6.935850620269775
 30
0.0
 10
5.93668222427358
 20
6.920851230621337
 30
0.0
 10
5.926682631174622
 20
6.895017253028021
 30
0.0
 10
5.926682631174622
 20
6.860017829471163
 30
0.0
 10
5.926682631174622
 20
6.832517253028021
 30
0.0
 10
5.933349026573927
 20
6.808350721995035
 30
0.0
 10
5.947515964507955
 20
6.785017490386962
 30
0.0
 10
5.961682054731479
 20
6.762517558203803
 30
0.0
 10
5.982515388064812
 20
6.745850721995035
 30
0.0
 10
6.010015964507955
 20
6.735851128896077
 30
0.0
 10
6.036682393815681
 20
6.725017388661702
 30
0.0
 10
6.076682461632521
 20
6.720017592112222
 30
0.0
 10
6.127515421973233
 20
6.720017592112222
 30
0.0
 10
6.127515421973233
 20
6.720017592112222
 30
0.0
 10
6.420849535200229
 20
6.720017592112222
 30
0.0
 10
6.420849535200229
 20
6.720017592112222
 30
0.0
 10
6.420849535200229
 20
6.720017592112222
 30
0.0
 10
6.420849535200229
 20
6.624183919694687
 30
0.0
 10
6.420849535200229
 20
6.624183919694687
 30
0.0
  0
HATCH
  5
BB
330
70
100
AcDbEntity
  8
Layer 1
 62
    18
420
        0
440
 33554687
100
AcDbHatch
 10
0.0
 20
0.0
 30
0.0
210
0.0
220
0.0
230
1.0
  2
SOLID
 70
     1
 71
     1
 91
        1
 92
        1
 93
        2
 72
     4
 94
        3
 73
     0
 74
     0
 95
       89
 96
       85
 40
0.0
 40
0.0
 40
0.0
 40
0.0
 40
1.0
 40
1.0
 40
1.0
 40
2.0
 40
2.0
 40
2.0
 40
3.0
 40
3.0
 40
3.0
 40
4.0
 40
4.0
 40
4.0
 40
5.0
 40
5.0
 40
5.0
 40
6.0
 40
6.0
 40
6.0
 40
7.0
 40
7.0
 40
7.0
 40
8.0
 40
8.0
 40
8.0
 40
9.0
 40
9.0
 40
9.0
 40
10.0
 40
10.0
 40
10.0
 40
11.0
 40
11.0
 40
11.0
 40
12.0
 40
12.0
 40
12.0
 40
13.0
 40
13.0
 40
13.0
 40
14.0
 40
14.0
 40
14.0
 40
15.0
 40
15.0
 40
15.0
 40
16.0
 40
16.0
 40
16.0
 40
17.0
 40
17.0
 40
17.0
 40
18.0
 40
18.0
 40
18.0
 40
19.0
 40
19.0
 40
19.0
 40
20.0
 40
20.0
 40
20.0
 40
21.0
 40
21.0
 40
21.0
 40
22.0
 40
22.0
 40
22.0
 40
23.0
 40
23.0
 40
23.0
 40
24.0
 40
24.0
 40
24.0
 40
25.0
 40
25.0
 40
25.0
 40
26.0
 40
26.0
 40
26.0
 40
27.0
 40
27.0
 40
27.0
 40
28.0
 40
28.0
 40
28.0
 40
28.0
 10
6.420849535200229
 20
6.624183919694687
 10
6.420849535200229
 20
6.624183919694687
 10
5.8566820886399
 20
6.624183919694687
 10
5.8566820886399
 20
6.624183919694687
 10
5.8566820886399
 20
6.624183919694687
 10
5.8566820886399
 20
6.710017999013264
 10
5.8566820886399
 20
6.710017999013264
 10
5.8566820886399
 20
6.710017999013264
 10
5.935015625423753
 20
6.710017999013264
 10
5.935015625423753
 20
6.710017999013264
 10
5.907515896691115
 20
6.728350586361354
 10
5.885849263932868
 20
6.751684665679931
 10
5.8691824277241
 20
6.780850993262396
 10
5.852515591515333
 20
6.810017320844861
 10
5.844182597266201
 20
6.843350993262396
 10
5.844182597266201
 20
6.880851162804496
 10
5.844182597266201
 20
6.922517829471163
 10
5.852515591515333
 20
6.957517253028021
 10
5.870015727149014
 20
6.98418453004625
 10
5.886682563357781
 20
7.010850959353976
 10
5.910849094390767
 20
7.02918439441257
 10
5.942516167958475
 20
7.040850586361354
 10
5.876682122548319
 20
7.085017999013264
 10
5.844182597266201
 20
7.143350654178195
 10
5.844182597266201
 20
7.215017795562744
 10
5.844182597266201
 20
7.271684699588351
 10
5.859182834625142
 20
7.315017965104844
 10
5.890015761057434
 20
7.345017592112222
 10
5.921682834625142
 20
7.375018066830104
 10
5.969182597266201
 20
7.390017456478542
 10
6.033349196116028
 20
7.390017456478542
 10
6.033349196116028
 20
7.390017456478542
 10
6.420849535200229
 20
7.390017456478542
 10
6.420849535200229
 20
7.390017456478542
 10
6.420849535200229
 20
7.390017456478542
 10
6.420849535200229
 20
7.294184631771511
 10
6.420849535200229
 20
7.294184631771511
 10
6.420849535200229
 20
7.294184631771511
 10
6.065015421973233
 20
7.294184631771511
 10
6.065015421973233
 20
7.294184631771511
 10
6.026682800716722
 20
7.294184631771511
 10
5.99918222427358
 20
7.291684733496771
 10
5.982515388064812
 20
7.285017490386962
 10
5.965849399566549
 20
7.27918439441257
 10
5.951682461632521
 20
7.267517354753281
 10
5.941682868533562
 20
7.251684665679931
 10
5.9316824277241
 20
7.235017829471163
 10
5.926682631174622
 20
7.215851094987656
 10
5.926682631174622
 20
7.19418446222941
 10
5.926682631174622
 20
7.15418439441257
 10
5.939182122548319
 20
7.120850721995035
 10
5.965849399566549
 20
7.095017592112222
 10
5.992515828874275
 20
7.068351162804496
 10
6.034182495540941
 20
7.055017524295382
 10
6.092515998416375
 20
7.055017524295382
 10
6.092515998416375
 20
7.055017524295382
 10
6.420849535200229
 20
7.055017524295382
 10
6.420849535200229
 20
7.055017524295382
 10
6.420849535200229
 20
7.055017524295382
 10
6.420849535200229
 20
6.959184699588351
 10
6.420849535200229
 20
6.959184699588351
 10
6.420849535200229
 20
6.959184699588351
 10
6.054182529449361
 20
6.959184699588351
 10
6.054182529449361
 20
6.959184699588351
 10
6.011682563357781
 20
6.959184699588351
 10
5.979182190365159
 20
6.951684157053628
 10
5.958348857031826
 20
6.935850620269775
 10
5.93668222427358
 20
6.920851230621337
 10
5.926682631174622
 20
6.895017253028021
 10
5.926682631174622
 20
6.860017829471163
 10
5.926682631174622
 20
6.832517253028021
 10
5.933349026573927
 20
6.808350721995035
 10
5.947515964507955
 20
6.785017490386962
 10
5.961682054731479
 20
6.762517558203803
 10
5.982515388064812
 20
6.745850721995035
 10
6.010015964507955
 20
6.735851128896077
 10
6.036682393815681
 20
6.725017388661702
 10
6.076682461632521
 20
6.720017592112222
 10
6.127515421973233
 20
6.720017592112222
 10
6.127515421973233
 20
6.720017592112222
 10
6.420849535200229
 20
6.720017592112222
 10
6.420849535200229
 20
6.720017592112222
 10
6.420849535200229
 20
6.720017592112222
 10
6.420849535200229
 20
6.624183919694687
 10
6.420849535200229
 20
6.624183919694687
 97
        0
 72
     1
 10
6.420849535200229
 20
6.624183919694687
 11
6.420849535200229
 21
6.624183919694687
 97
        0
 75
     2
 76
     1
 98
        1
 10
0.0
 20
0.0
450
        0
451
        0
460
0.0
461
0.0
452
        0
462
0.0
453
        0
470

  0
SPLINE
  5
BC
330
70
100
AcDbEntity
  8
Layer 1
100
AcDbSpline
210
0.0
220
0.0
230
1.0
 70
    11
 71
     3
 72
    89
 73
    85
 74
     0
 42
0.0000000001
 43
0.0000000001
 40
0.0
 40
0.0
 40
0.0
 40
0.0
 40
1.0
 40
1.0
 40
1.0
 40
2.0
 40
2.0
 40
2.0
 40
3.0
 40
3.0
 40
3.0
 40
4.0
 40
4.0
 40
4.0
 40
5.0
 40
5.0
 40
5.0
 40
6.0
 40
6.0
 40
6.0
 40
7.0
 40
7.0
 40
7.0
 40
8.0
 40
8.0
 40
8.0
 40
9.0
 40
9.0
 40
9.0
 40
10.0
 40
10.0
 40
10.0
 40
11.0
 40
11.0
 40
11.0
 40
12.0
 40
12.0
 40
12.0
 40
13.0
 40
13.0
 40
13.0
 40
14.0
 40
14.0
 40
14.0
 40
15.0
 40
15.0
 40
15.0
 40
16.0
 40
16.0
 40
16.0
 40
17.0
 40
17.0
 40
17.0
 40
18.0
 40
18.0
 40
18.0
 40
19.0
 40
19.0
 40
19.0
 40
20.0
 40
20.0
 40
20.0
 40
21.0
 40
21.0
 40
21.0
 40
22.0
 40
22.0
 40
22.0
 40
23.0
 40
23.0
 40
23.0
 40
24.0
 40
24.0
 40
24.0
 40
25.0
 40
25.0
 40
25.0
 40
26.0
 40
26.0
 40
26.0
 40
27.0
 40
27.0
 40
27.0
 40
28.0
 40
28.0
 40
28.0
 40
28.0
 10
6.420849535200229
 20
7.535017490386962
 30
0.0
 10
6.420849535200229
 20
7.535017490386962
 30
0.0
 10
5.8566820886399
 20
7.535017490386962
 30
0.0
 10
5.8566820886399
 20
7.535017490386962
 30
0.0
 10
5.8566820886399
 20
7.535017490386962
 30
0.0
 10
5.8566820886399
 20
7.620851569705538
 30
0.0
 10
5.8566820886399
 20
7.620851569705538
 30
0.0
 10
5.8566820886399
 20
7.620851569705538
 30
0.0
 10
5.935015625423753
 20
7.620851569705538
 30
0.0
 10
5.935015625423753
 20
7.620851569705538
 30
0.0
 10
5.907515896691115
 20
7.639184157053628
 30
0.0
 10
5.885849263932868
 20
7.662518236372205
 30
0.0
 10
5.8691824277241
 20
7.69168456395467
 30
0.0
 10
5.852515591515333
 20
7.720850891537136
 30
0.0
 10
5.844182597266201
 20
7.75418456395467
 30
0.0
 10
5.844182597266201
 20
7.791684733496771
 30
0.0
 10
5.844182597266201
 20
7.833351400163437
 30
0.0
 10
5.852515591515333
 20
7.868350823720295
 30
0.0
 10
5.870015727149014
 20
7.895018100738525
 30
0.0
 10
5.886682563357781
 20
7.92168453004625
 30
0.0
 10
5.910849094390767
 20
7.940017965104844
 30
0.0
 10
5.942516167958475
 20
7.951684157053628
 30
0.0
 10
5.876682122548319
 20
7.995851569705538
 30
0.0
 10
5.844182597266201
 20
8.05418422487047
 30
0.0
 10
5.844182597266201
 20
8.125851366255018
 30
0.0
 10
5.844182597266201
 20
8.182518270280626
 30
0.0
 10
5.859182834625142
 20
8.225851535797119
 30
0.0
 10
5.890015761057434
 20
8.255851162804496
 30
0.0
 10
5.921682834625142
 20
8.285851637522378
 30
0.0
 10
5.969182597266201
 20
8.300851027170816
 30
0.0
 10
6.033349196116028
 20
8.300851027170816
 30
0.0
 10
6.033349196116028
 20
8.300851027170816
 30
0.0
 10
6.420849535200229
 20
8.300851027170816
 30
0.0
 10
6.420849535200229
 20
8.300851027170816
 30
0.0
 10
6.420849535200229
 20
8.300851027170816
 30
0.0
 10
6.420849535200229
 20
8.205018202463785
 30
0.0
 10
6.420849535200229
 20
8.205018202463785
 30
0.0
 10
6.420849535200229
 20
8.205018202463785
 30
0.0
 10
6.065015421973233
 20
8.205018202463785
 30
0.0
 10
6.065015421973233
 20
8.205018202463785
 30
0.0
 10
6.026682800716722
 20
8.205018202463785
 30
0.0
 10
5.99918222427358
 20
8.202518304189045
 30
0.0
 10
5.982515388064812
 20
8.195851061079236
 30
0.0
 10
5.965849399566549
 20
8.190017965104845
 30
0.0
 10
5.951682461632521
 20
8.178350925445556
 30
0.0
 10
5.941682868533562
 20
8.162518236372205
 30
0.0
 10
5.9316824277241
 20
8.145851400163438
 30
0.0
 10
5.926682631174622
 20
8.126684665679931
 30
0.0
 10
5.926682631174622
 20
8.105018032921684
 30
0.0
 10
5.926682631174622
 20
8.065017965104845
 30
0.0
 10
5.939182122548319
 20
8.031684292687309
 30
0.0
 10
5.965849399566549
 20
8.005851162804496
 30
0.0
 10
5.992515828874275
 20
7.979184733496771
 30
0.0
 10
6.034182495540941
 20
7.965851094987656
 30
0.0
 10
6.092515998416375
 20
7.965851094987656
 30
0.0
 10
6.092515998416375
 20
7.965851094987656
 30
0.0
 10
6.420849535200229
 20
7.965851094987656
 30
0.0
 10
6.420849535200229
 20
7.965851094987656
 30
0.0
 10
6.420849535200229
 20
7.965851094987656
 30
0.0
 10
6.420849535200229
 20
7.870018270280625
 30
0.0
 10
6.420849535200229
 20
7.870018270280625
 30
0.0
 10
6.420849535200229
 20
7.870018270280625
 30
0.0
 10
6.054182529449361
 20
7.870018270280625
 30
0.0
 10
6.054182529449361
 20
7.870018270280625
 30
0.0
 10
6.011682563357781
 20
7.870018270280625
 30
0.0
 10
5.979182190365159
 20
7.862517727745903
 30
0.0
 10
5.958348857031826
 20
7.846684190962049
 30
0.0
 10
5.93668222427358
 20
7.831684801313611
 30
0.0
 10
5.926682631174622
 20
7.805850823720295
 30
0.0
 10
5.926682631174622
 20
7.770851400163437
 30
0.0
 10
5.926682631174622
 20
7.743350823720295
 30
0.0
 10
5.933349026573927
 20
7.719184292687309
 30
0.0
 10
5.947515964507955
 20
7.695851061079236
 30
0.0
 10
5.961682054731479
 20
7.673351128896077
 30
0.0
 10
5.982515388064812
 20
7.656684292687309
 30
0.0
 10
6.010015964507955
 20
7.646684699588351
 30
0.0
 10
6.036682393815681
 20
7.635850959353976
 30
0.0
 10
6.076682461632521
 20
7.630851162804496
 30
0.0
 10
6.127515421973233
 20
7.630851162804496
 30
0.0
 10
6.127515421973233
 20
7.630851162804496
 30
0.0
 10
6.420849535200229
 20
7.630851162804496
 30
0.0
 10
6.420849535200229
 20
7.630851162804496
 30
0.0
 10
6.420849535200229
 20
7.630851162804496
 30
0.0
 10
6.420849535200229
 20
7.535017490386962
 30
0.0
 10
6.420849535200229
 20
7.535017490386962
 30
0.0
  0
HATCH
  5
BD
330
70
100
AcDbEntity
  8
Layer 1
 62
    18
420
        0
440
 33554687
100
AcDbHatch
 10
0.0
 20
0.0
 30
0.0
210
0.0
220
0.0
230
1.0
  2
SOLID
 70
     1
 71
     1
 91
        1
 92
        1
 93
        2
 72
     4
 94
        3
 73
     0
 74
     0
 95
       89
 96
       85
 40
0.0
 40
0.0
 40
0.0
 40
0.0
 40
1.0
 40
1.0
 40
1.0
 40
2.0
 40
2.0
 40
2.0
 40
3.0
 40
3.0
 40
3.0
 40
4.0
 40
4.0
 40
4.0
 40
5.0
 40
5.0
 40
5.0
 40
6.0
 40
6.0
 40
6.0
 40
7.0
 40
7.0
 40
7.0
 40
8.0
 40
8.0
 40
8.0
 40
9.0
 40
9.0
 40
9.0
 40
10.0
 40
10.0
 40
10.0
 40
11.0
 40
11.0
 40
11.0
 40
12.0
 40
12.0
 40
12.0
 40
13.0
 40
13.0
 40
13.0
 40
14.0
 40
14.0
 40
14.0
 40
15.0
 40
15.0
 40
15.0
 40
16.0
 40
16.0
 40
16.0
 40
17.0
 40
17.0
 40
17.0
 40
18.0
 40
18.0
 40
18.0
 40
19.0
 40
19.0
 40
19.0
 40
20.0
 40
20.0
 40
20.0
 40
21.0
 40
21.0
 40
21.0
 40
22.0
 40
22.0
 40
22.0
 40
23.0
 40
23.0
 40
23.0
 40
24.0
 40
24.0
 40
24.0
 40
25.0
 40
25.0
 40
25.0
 40
26.0
 40
26.0
 40
26.0
 40
27.0
 40
27.0
 40
27.0
 40
28.0
 40
28.0
 40
28.0
 40
28.0
 10
6.420849535200229
 20
7.535017490386962
 10
6.420849535200229
 20
7.535017490386962
 10
5.8566820886399
 20
7.535017490386962
 10
5.8566820886399
 20
7.535017490386962
 10
5.8566820886399
 20
7.535017490386962
 10
5.8566820886399
 20
7.620851569705538
 10
5.8566820886399
 20
7.620851569705538
 10
5.8566820886399
 20
7.620851569705538
 10
5.935015625423753
 20
7.620851569705538
 10
5.935015625423753
 20
7.620851569705538
 10
5.907515896691115
 20
7.639184157053628
 10
5.885849263932868
 20
7.662518236372205
 10
5.8691824277241
 20
7.69168456395467
 10
5.852515591515333
 20
7.720850891537136
 10
5.844182597266201
 20
7.75418456395467
 10
5.844182597266201
 20
7.791684733496771
 10
5.844182597266201
 20
7.833351400163437
 10
5.852515591515333
 20
7.868350823720295
 10
5.870015727149014
 20
7.895018100738525
 10
5.886682563357781
 20
7.92168453004625
 10
5.910849094390767
 20
7.940017965104844
 10
5.942516167958475
 20
7.951684157053628
 10
5.876682122548319
 20
7.995851569705538
 10
5.844182597266201
 20
8.05418422487047
 10
5.844182597266201
 20
8.125851366255018
 10
5.844182597266201
 20
8.182518270280626
 10
5.859182834625142
 20
8.225851535797119
 10
5.890015761057434
 20
8.255851162804496
 10
5.921682834625142
 20
8.285851637522378
 10
5.969182597266201
 20
8.300851027170816
 10
6.033349196116028
 20
8.300851027170816
 10
6.033349196116028
 20
8.300851027170816
 10
6.420849535200229
 20
8.300851027170816
 10
6.420849535200229
 20
8.300851027170816
 10
6.420849535200229
 20
8.300851027170816
 10
6.420849535200229
 20
8.205018202463785
 10
6.420849535200229
 20
8.205018202463785
 10
6.420849535200229
 20
8.205018202463785
 10
6.065015421973233
 20
8.205018202463785
 10
6.065015421973233
 20
8.205018202463785
 10
6.026682800716722
 20
8.205018202463785
 10
5.99918222427358
 20
8.202518304189045
 10
5.982515388064812
 20
8.195851061079236
 10
5.965849399566549
 20
8.190017965104845
 10
5.951682461632521
 20
8.178350925445556
 10
5.941682868533562
 20
8.162518236372205
 10
5.9316824277241
 20
8.145851400163438
 10
5.926682631174622
 20
8.126684665679931
 10
5.926682631174622
 20
8.105018032921684
 10
5.926682631174622
 20
8.065017965104845
 10
5.939182122548319
 20
8.031684292687309
 10
5.965849399566549
 20
8.005851162804496
 10
5.992515828874275
 20
7.979184733496771
 10
6.034182495540941
 20
7.965851094987656
 10
6.092515998416375
 20
7.965851094987656
 10
6.092515998416375
 20
7.965851094987656
 10
6.420849535200229
 20
7.965851094987656
 10
6.420849535200229
 20
7.965851094987656
 10
6.420849535200229
 20
7.965851094987656
 10
6.420849535200229
 20
7.870018270280625
 10
6.420849535200229
 20
7.870018270280625
 10
6.420849535200229
 20
7.870018270280625
 10
6.054182529449361
 20
7.870018270280625
 10
6.054182529449361
 20
7.870018270280625
 10
6.011682563357781
 20
7.870018270280625
 10
5.979182190365159
 20
7.862517727745903
 10
5.958348857031826
 20
7.846684190962049
 10
5.93668222427358
 20
7.831684801313611
 10
5.926682631174622
 20
7.805850823720295
 10
5.926682631174622
 20
7.770851400163437
 10
5.926682631174622
 20
7.743350823720295
 10
5.933349026573927
 20
7.719184292687309
 10
5.947515964507955
 20
7.695851061079236
 10
5.961682054731479
 20
7.673351128896077
 10
5.982515388064812
 20
7.656684292687309
 10
6.010015964507955
 20
7.646684699588351
 10
6.036682393815681
 20
7.635850959353976
 10
6.076682461632521
 20
7.630851162804496
 10
6.127515421973233
 20
7.630851162804496
 10
6.127515421973233
 20
7.630851162804496
 10
6.420849535200229
 20
7.630851162804496
 10
6.420849535200229
 20
7.630851162804496
 10
6.420849535200229
 20
7.630851162804496
 10
6.420849535200229
 20
7.535017490386962
 10
6.420849535200229
 20
7.535017490386962
 97
        0
 72
     1
 10
6.420849535200229
 20
7.535017490386962
 11
6.420849535200229
 21
7.535017490386962
 97
        0
 75
     2
 76
     1
 98
        1
 10
0.0
 20
0.0
450
        0
451
        0
460
0.0
461
0.0
452
        0
462
0.0
453
        0
470

  0
MTEXT
  5
BE
330
70
100
AcDbEntity
  8
Layer 1
100
AcDbMText
 10
1.793342590332031
 20
8.714190589057073
 30
0.0
 40
0.2
 41
0.0
 46
0.0
 71
     7
 72
     1
  1
\C18;\c0;\FArial|b0|i0|c1;\H0.769456;\W1.000000;430mm
 73
     1
 44
1.0
  0
MTEXT
  5
BF
330
70
100
AcDbEntity
  8
Layer 1
100
AcDbMText
 10
6.42085223727756
 20
16.12672721015082
 30
0.0
 40
0.2
 41
0.0
 46
0.0
 71
     7
 72
     1
  1
\C18;\c0;\FArial|b0|i0|c1;\H0.769456;\W1.000000;115mm
 73
     1
 44
1.0
  0
INSERT
  5
C2
330
70
100
AcDbEntity
  8
Layer 2
100
AcDbBlockReference
  2
Block_1
 10
0.0
 20
0.0
 30
0.0
  0
MTEXT
  5
F7
330
70
100
AcDbEntity
  8
Layer 2
100
AcDbMText
 10
15.0346745385064
 20
0.0988451639811198
 30
0.0
 40
0.2
 41
0.0
 46
0.0
 71
     7
 72
     1
  1
\C250;\c1382435;\FHelvetica Neue LT Pro 77 Bold Condensed|b1|i0|c1;\H0.145675;\W1.000000;NOTE\FHelvetica Neue LT Pro 65 Medium|b0|i0|c1;: Due to the slight variations in the manufacture process it is
 73
     1
 44
1.0
  0
MTEXT
  5
F8
330
70
100
AcDbEntity
  8
Layer 2
100
AcDbMText
 10
15.0346745385064
 20
-0.1480623881022135
 30
0.0
 40
0.2
 41
0.0
 46
0.0
 71
     7
 72
     1
  1
\C250;\c1382435;\FHelvetica Neue LT Pro 65 Medium|b0|i0|c1;\H0.145675;\W1.000000;recommended the installer use the template for cutting out the countertop.
 73
     1
 44
1.0
  0
MTEXT
  5
F9
330
70
100
AcDbEntity
  8
Layer 2
100
AcDbMText
 10
0.3281945122612847
 20
0.0399530198838976
 30
0.0
 40
0.2
 41
0.0
 46
0.0
 71
     7
 72
     1
  1
\C18;\c0;\FEffra Italic|b0|i1|c1;\H0.338650;\W1.000000;SHV300WH
 73
     1
 44
1.0
  0
ENDSEC
  0
SECTION
  2
OBJECTS
  0
DICTIONARY
  5
C
330
0
100
AcDbDictionary
281
     1
  3
ACAD_COLOR
350
63
  3
ACAD_DETAILVIEWSTYLE
350
6A
  3
ACAD_GROUP
350
D
  3
ACAD_LAYOUT
350
62
  3
ACAD_MATERIAL
350
10
  3
ACAD_MLEADERSTYLE
350
66
  3
ACAD_MLINESTYLE
350
5F
  3
ACAD_PLOTSETTINGS
350
61
  3
ACAD_PLOTSTYLENAME
350
E
  3
ACAD_SCALELIST
350
42
  3
ACAD_SECTIONVIEWSTYLE
350
68
  3
ACAD_TABLESTYLE
350
64
  3
ACAD_VISUALSTYLE
350
29
  3
ACDB_RECOMPOSE_DATA
350
102
  3
AcDbVariableDictionary
350
FA
  0
DICTIONARY
  5
63
102
{ACAD_REACTORS
330
C
102
}
330
C
100
AcDbDictionary
281
     1
  0
DICTIONARY
  5
6A
102
{ACAD_REACTORS
330
C
102
}
330
C
100
AcDbDictionary
281
     1
  3
Imperial24
350
6B
  0
DICTIONARY
  5
D
102
{ACAD_REACTORS
330
C
102
}
330
C
100
AcDbDictionary
281
     1
  0
DICTIONARY
  5
62
102
{ACAD_REACTORS
330
C
102
}
330
C
100
AcDbDictionary
281
     1
  3
Layout1
350
6F
  3
Layout2
350
77
  3
Model
350
73
  0
DICTIONARY
  5
10
102
{ACAD_REACTORS
330
C
102
}
330
C
100
AcDbDictionary
281
     1
  3
ByBlock
350
19
  3
ByLayer
350
11
  3
Global
350
21
  0
DICTIONARY
  5
66
102
{ACAD_REACTORS
330
C
102
}
330
C
100
AcDbDictionary
281
     1
  3
Standard
350
67
  0
DICTIONARY
  5
5F
102
{ACAD_REACTORS
330
C
102
}
330
C
100
AcDbDictionary
281
     1
  3
Standard
350
60
  0
DICTIONARY
  5
61
102
{ACAD_REACTORS
330
C
102
}
330
C
100
AcDbDictionary
281
     1
  0
ACDBDICTIONARYWDFLT
  5
E
102
{ACAD_REACTORS
330
C
102
}
330
C
100
AcDbDictionary
281
     1
  3
Normal
350
F
100
AcDbDictionaryWithDefault
340
F
  0
DICTIONARY
  5
42
102
{ACAD_REACTORS
330
C
102
}
330
C
100
AcDbDictionary
281
     1
  3
A0
350
43
  3
A1
350
44
  3
A2
350
45
  3
A3
350
46
  3
A4
350
47
  3
A5
350
48
  3
A6
350
49
  3
A7
350
4A
  3
A8
350
4B
  3
A9
350
4C
  3
B0
350
4D
  3
B1
350
4E
  3
B2
350
4F
  3
B3
350
50
  3
B4
350
51
  3
B5
350
52
  3
B6
350
53
  0
DICTIONARY
  5
68
102
{ACAD_REACTORS
330
C
102
}
330
C
100
AcDbDictionary
281
     1
  3
Imperial24
350
69
  0
DICTIONARY
  5
64
102
{ACAD_REACTORS
330
C
102
}
330
C
100
AcDbDictionary
281
     1
  3
Standard
350
65
  0
DICTIONARY
  5
29
102
{ACAD_REACTORS
330
C
102
}
330
C
100
AcDbDictionary
281
     1
  3
2dWireframe
350
2F
  3
Basic
350
2E
  3
Brighten
350
35
  3
ColorChange
350
39
  3
Conceptual
350
32
  3
Dim
350
34
  3
EdgeColorOff
350
41
  3
Facepattern
350
38
  3
Flat
350
2A
  3
FlatWithEdges
350
2B
  3
Gouraud
350
2C
  3
GouraudWithEdges
350
2D
  3
Hidden
350
31
  3
JitterOff
350
3F
  3
Linepattern
350
37
  3
OverhangOff
350
40
  3
Realistic
350
33
  3
Shaded
350
3E
  3
Shaded with edges
350
3D
  3
Shades of Gray
350
3A
  3
Sketchy
350
3B
  3
Thicken
350
36
  3
Wireframe
350
30
  3
X-Ray
350
3C
  0
XRECORD
  5
102
102
{ACAD_REACTORS
330
C
102
}
330
C
100
AcDbXrecord
280
     1
 90
        1
330
65
  0
DICTIONARY
  5
FA
102
{ACAD_REACTORS
330
C
102
}
330
C
100
AcDbDictionary
281
     1
  3
CANNOSCALE
350
FF
  3
CMLEADERSTYLE
350
FC
  3
CTABLESTYLE
350
FB
  3
CVIEWDETAILSTYLE
350
FD
  3
CVIEWSECTIONSTYLE
350
FE
  0
ACDBDETAILVIEWSTYLE
  5
6B
102
{ACAD_REACTORS
330
6A
102
}
330
6A
100
AcDbModelDocViewStyle
 70
     0
  3
Imperial24
290
     1
300
Imperial24
 90
        0
100
AcDbDetailViewStyle
 70
     0
 71
     0
 90
        3
 71
     1
340
55
 62
   256
 40
0.24
340
0
 62
   256
 40
0.24
300

 40
0.36
280
     3
 71
     2
340
5D
 90
       25
 62
   256
 71
     3
340
55
 62
   256
 40
0.24
 90
        1
 40
0.75
 90
        1
300
%<\AcVar ViewType \f "%tc1">% %<\AcVar ViewDetailId>%\PSCALE %<\AcVar ViewScale \f "%sn">%
 71
     4
340
5D
 90
       25
 62
   256
340
5D
 90
       25
 62
   256
280
     0
  0
LAYOUT
  5
6F
102
{ACAD_REACTORS
330
62
102
}
330
62
100
AcDbPlotSettings
  1

  2

  4

  6

 40
0.0
 41
0.0
 42
0.0
 43
0.0
 44
0.0
 45
0.0
 46
0.0
 47
0.0
 48
0.0
 49
0.0
140
0.0
141
0.0
142
1.0
143
1.0
 70
   688
 72
     0
 73
     0
 74
     5
  7

 75
    16
147
1.0
 76
     0
 77
     2
 78
   300
148
0.0
149
0.0
100
AcDbLayout
  1
Layout1
 70
     1
 71
     1
 10
0.0
 20
0.0
 11
12.0
 21
9.0
 12
0.0
 22
0.0
 32
0.0
 14
0.0
 24
0.0
 34
0.0
 15
0.0
 25
0.0
 35
0.0
146
0.0
 13
0.0
 23
0.0
 33
0.0
 16
1.0
 26
0.0
 36
0.0
 17
0.0
 27
1.0
 37
0.0
 76
     0
330
6C
  0
LAYOUT
  5
77
102
{ACAD_REACTORS
330
62
102
}
330
62
100
AcDbPlotSettings
  1

  2

  4

  6

 40
0.0
 41
0.0
 42
0.0
 43
0.0
 44
0.0
 45
0.0
 46
0.0
 47
0.0
 48
0.0
 49
0.0
140
0.0
141
0.0
142
1.0
143
1.0
 70
   688
 72
     0
 73
     0
 74
     5
  7

 75
    16
147
1.0
 76
     0
 77
     2
 78
   300
148
0.0
149
0.0
100
AcDbLayout
  1
Layout2
 70
     1
 71
     2
 10
0.0
 20
0.0
 11
12.0
 21
9.0
 12
0.0
 22
0.0
 32
0.0
 14
0.0
 24
0.0
 34
0.0
 15
0.0
 25
0.0
 35
0.0
146
0.0
 13
0.0
 23
0.0
 33
0.0
 16
1.0
 26
0.0
 36
0.0
 17
0.0
 27
1.0
 37
0.0
 76
     0
330
74
  0
LAYOUT
  5
73
102
{ACAD_REACTORS
330
62
102
}
330
62
100
AcDbPlotSettings
  1

  2

  4

  6

 40
0.0
 41
0.0
 42
0.0
 43
0.0
 44
0.0
 45
0.0
 46
0.0
 47
0.0
 48
0.0
 49
0.0
140
0.0
141
0.0
142
1.0
143
1.0
 70
  1712
 72
     0
 73
     0
 74
     0
  7

 75
     0
147
1.0
 76
     0
 77
     2
 78
   300
148
0.0
149
0.0
100
AcDbLayout
  1
Model
 70
     1
 71
     0
 10
0.0
 20
0.0
 11
12.0
 21
9.0
 12
0.0
 22
0.0
 32
0.0
 14
0.0
 24
0.0
 34
0.0
 15
0.0
 25
0.0
 35
0.0
146
0.0
 13
0.0
 23
0.0
 33
0.0
 16
1.0
 26
0.0
 36
0.0
 17
0.0
 27
1.0
 37
0.0
 76
     0
330
70
  0
MATERIAL
  5
19
102
{ACAD_XDICTIONARY
360
1A
102
}
102
{ACAD_REACTORS
330
10
102
}
330
10
100
AcDbMaterial
  1
ByBlock
 72
     0
 43
0.0208333333333333
 43
0.0
 43
0.0
 43
0.0
 43
0.0
 43
0.0208333333333333
 43
0.0
 43
0.0
 43
0.0
 43
0.0
 43
1.0
 43
0.0
 43
0.0
 43
0.0
 43
0.0
 43
1.0
 77
     0
 47
0.0208333333333333
 47
0.0
 47
0.0
 47
0.0
 47
0.0
 47
0.0208333333333333
 47
0.0
 47
0.0
 47
0.0
 47
0.0
 47
1.0
 47
0.0
 47
0.0
 47
0.0
 47
0.0
 47
1.0
171
     0
 49
0.0208333333333333
 49
0.0
 49
0.0
 49
0.0
 49
0.0
 49
0.0208333333333333
 49
0.0
 49
0.0
 49
0.0
 49
0.0
 49
1.0
 49
0.0
 49
0.0
 49
0.0
 49
0.0
 49
1.0
175
     0
142
0.0208333333333333
142
0.0
142
0.0
142
0.0
142
0.0
142
0.0208333333333333
142
0.0
142
0.0
142
0.0
142
0.0
142
1.0
142
0.0
142
0.0
142
0.0
142
0.0
142
1.0
179
     0
144
0.0208333333333333
144
0.0
144
0.0
144
0.0
144
0.0
144
0.0208333333333333
144
0.0
144
0.0
144
0.0
144
0.0
144
1.0
144
0.0
144
0.0
144
0.0
144
0.0
144
1.0
147
0.0208333333333333
147
0.0
147
0.0
147
0.0
147
0.0
147
0.0208333333333333
147
0.0
147
0.0
147
0.0
147
0.0
147
1.0
147
0.0
147
0.0
147
0.0
147
0.0
147
1.0
  0
MATERIAL
  5
11
102
{ACAD_XDICTIONARY
360
12
102
}
102
{ACAD_REACTORS
330
10
102
}
330
10
100
AcDbMaterial
  1
ByLayer
 72
     0
 43
0.0208333333333333
 43
0.0
 43
0.0
 43
0.0
 43
0.0
 43
0.0208333333333333
 43
0.0
 43
0.0
 43
0.0
 43
0.0
 43
1.0
 43
0.0
 43
0.0
 43
0.0
 43
0.0
 43
1.0
 77
     0
 47
0.0208333333333333
 47
0.0
 47
0.0
 47
0.0
 47
0.0
 47
0.0208333333333333
 47
0.0
 47
0.0
 47
0.0
 47
0.0
 47
1.0
 47
0.0
 47
0.0
 47
0.0
 47
0.0
 47
1.0
171
     0
 49
0.0208333333333333
 49
0.0
 49
0.0
 49
0.0
 49
0.0
 49
0.0208333333333333
 49
0.0
 49
0.0
 49
0.0
 49
0.0
 49
1.0
 49
0.0
 49
0.0
 49
0.0
 49
0.0
 49
1.0
175
     0
142
0.0208333333333333
142
0.0
142
0.0
142
0.0
142
0.0
142
0.0208333333333333
142
0.0
142
0.0
142
0.0
142
0.0
142
1.0
142
0.0
142
0.0
142
0.0
142
0.0
142
1.0
179
     0
144
0.0208333333333333
144
0.0
144
0.0
144
0.0
144
0.0
144
0.0208333333333333
144
0.0
144
0.0
144
0.0
144
0.0
144
1.0
144
0.0
144
0.0
144
0.0
144
0.0
144
1.0
147
0.0208333333333333
147
0.0
147
0.0
147
0.0
147
0.0
147
0.0208333333333333
147
0.0
147
0.0
147
0.0
147
0.0
147
1.0
147
0.0
147
0.0
147
0.0
147
0.0
147
1.0
  0
MATERIAL
  5
21
102
{ACAD_XDICTIONARY
360
22
102
}
102
{ACAD_REACTORS
330
10
102
}
330
10
100
AcDbMaterial
  1
Global
 72
     0
 43
0.0208333333333333
 43
0.0
 43
0.0
 43
0.0
 43
0.0
 43
0.0208333333333333
 43
0.0
 43
0.0
 43
0.0
 43
0.0
 43
1.0
 43
0.0
 43
0.0
 43
0.0
 43
0.0
 43
1.0
 77
     0
 47
0.0208333333333333
 47
0.0
 47
0.0
 47
0.0
 47
0.0
 47
0.0208333333333333
 47
0.0
 47
0.0
 47
0.0
 47
0.0
 47
1.0
 47
0.0
 47
0.0
 47
0.0
 47
0.0
 47
1.0
171
     0
 49
0.0208333333333333
 49
0.0
 49
0.0
 49
0.0
 49
0.0
 49
0.0208333333333333
 49
0.0
 49
0.0
 49
0.0
 49
0.0
 49
1.0
 49
0.0
 49
0.0
 49
0.0
 49
0.0
 49
1.0
175
     0
142
0.0208333333333333
142
0.0
142
0.0
142
0.0
142
0.0
142
0.0208333333333333
142
0.0
142
0.0
142
0.0
142
0.0
142
1.0
142
0.0
142
0.0
142
0.0
142
0.0
142
1.0
179
     0
144
0.0208333333333333
144
0.0
144
0.0
144
0.0
144
0.0
144
0.0208333333333333
144
0.0
144
0.0
144
0.0
144
0.0
144
1.0
144
0.0
144
0.0
144
0.0
144
0.0
144
1.0
147
0.0208333333333333
147
0.0
147
0.0
147
0.0
147
0.0
147
0.0208333333333333
147
0.0
147
0.0
147
0.0
147
0.0
147
1.0
147
0.0
147
0.0
147
0.0
147
0.0
147
1.0
  0
MLEADERSTYLE
  5
67
102
{ACAD_REACTORS
330
66
102
}
330
66
100
AcDbMLeaderStyle
179
     2
170
     2
171
     1
172
     0
 90
        2
 40
0.0
 41
0.0
173
     1
 91
-1056964608
340
5B
 92
       -2
290
     1
 42
0.09
291
     1
 43
0.36
  3
Standard
 44
0.18
300

342
55
174
     1
178
     6
175
     1
176
     0
 93
-1056964608
 45
0.18
292
     0
297
     0
 46
0.18
 94
-1056964608
 47
1.0
 49
1.0
140
1.0
293
     1
141
0.0
294
     1
177
     0
142
1.0
295
     1
296
     0
143
0.125
271
     0
272
     9
273
     9
298
     1
  0
MLINESTYLE
  5
60
102
{ACAD_REACTORS
330
5F
102
}
330
5F
100
AcDbMlineStyle
  2
STANDARD
 70
     0
  3

 62
   256
 51
90.0
 52
90.0
 71
     2
 49
0.5
 62
   256
  6
BYLAYER
 49
-0.5
 62
   256
  6
BYLAYER
  0
ACDBPLACEHOLDER
  5
F
102
{ACAD_REACTORS
330
E
102
}
330
E
  0
SCALE
  5
43
102
{ACAD_REACTORS
330
42
102
}
330
42
100
AcDbScale
 70
     0
300
1:1
140
1.0
141
1.0
290
     1
  0
SCALE
  5
44
102
{ACAD_REACTORS
330
42
102
}
330
42
100
AcDbScale
 70
     0
300
1/128" = 1'-0"
140
0.0078125
141
12.0
290
     0
  0
SCALE
  5
45
102
{ACAD_REACTORS
330
42
102
}
330
42
100
AcDbScale
 70
     0
300
1/64" = 1'-0"
140
0.015625
141
12.0
290
     0
  0
SCALE
  5
46
102
{ACAD_REACTORS
330
42
102
}
330
42
100
AcDbScale
 70
     0
300
1/32" = 1'-0"
140
0.03125
141
12.0
290
     0
  0
SCALE
  5
47
102
{ACAD_REACTORS
330
42
102
}
330
42
100
AcDbScale
 70
     0
300
1/16" = 1'-0"
140
0.0625
141
12.0
290
     0
  0
SCALE
  5
48
102
{ACAD_REACTORS
330
42
102
}
330
42
100
AcDbScale
 70
     0
300
3/32" = 1'-0"
140
0.09375
141
12.0
290
     0
  0
SCALE
  5
49
102
{ACAD_REACTORS
330
42
102
}
330
42
100
AcDbScale
 70
     0
300
1/8" = 1'-0"
140
0.125
141
12.0
290
     0
  0
SCALE
  5
4A
102
{ACAD_REACTORS
330
42
102
}
330
42
100
AcDbScale
 70
     0
300
3/16" = 1'-0"
140
0.1875
141
12.0
290
     0
  0
SCALE
  5
4B
102
{ACAD_REACTORS
330
42
102
}
330
42
100
AcDbScale
 70
     0
300
1/4" = 1'-0"
140
0.25
141
12.0
290
     0
  0
SCALE
  5
4C
102
{ACAD_REACTORS
330
42
102
}
330
42
100
AcDbScale
 70
     0
300
3/8" = 1'-0"
140
0.375
141
12.0
290
     0
  0
SCALE
  5
4D
102
{ACAD_REACTORS
330
42
102
}
330
42
100
AcDbScale
 70
     0
300
1/2" = 1'-0"
140
0.5
141
12.0
290
     0
  0
SCALE
  5
4E
102
{ACAD_REACTORS
330
42
102
}
330
42
100
AcDbScale
 70
     0
300
3/4" = 1'-0"
140
0.75
141
12.0
290
     0
  0
SCALE
  5
4F
102
{ACAD_REACTORS
330
42
102
}
330
42
100
AcDbScale
 70
     0
300
1" = 1'-0"
140
1.0
141
12.0
290
     0
  0
SCALE
  5
50
102
{ACAD_REACTORS
330
42
102
}
330
42
100
AcDbScale
 70
     0
300
1-1/2" = 1'-0"
140
1.5
141
12.0
290
     0
  0
SCALE
  5
51
102
{ACAD_REACTORS
330
42
102
}
330
42
100
AcDbScale
 70
     0
300
3" = 1'-0"
140
3.0
141
12.0
290
     0
  0
SCALE
  5
52
102
{ACAD_REACTORS
330
42
102
}
330
42
100
AcDbScale
 70
     0
300
6" = 1'-0"
140
6.0
141
12.0
290
     0
  0
SCALE
  5
53
102
{ACAD_REACTORS
330
42
102
}
330
42
100
AcDbScale
 70
     0
300
1'-0" = 1'-0"
140
12.0
141
12.0
290
     0
  0
ACDBSECTIONVIEWSTYLE
  5
69
102
{ACAD_REACTORS
330
68
102
}
330
68
100
AcDbModelDocViewStyle
 70
     0
  3
Imperial24
290
     1
300
Imperial24
 90
        0
100
AcDbSectionViewStyle
 70
     0
 71
     0
 90
       78
 71
     1
340
55
 62
   256
 40
0.24
340
0
340
0
 62
   256
 40
0.24
300
I, O, Q, S, X, Z
 40
0.48
 90
        3
 40
0.18
 90
        1
 71
     2
340
5D
 90
       25
 62
   256
340
5D
 90
       50
 62
   256
 40
0.24
 40
0.0
 40
0.24
 71
     3
340
55
 62
   256
 40
0.24
 90
        1
 40
0.75
 90
        1
300
%<\AcVar ViewType \f "%tc1">% %<\AcVar ViewSectionStartId>%-%<\AcVar ViewSectionEndId>%\PSCALE %<\AcVar ViewScale \f "%sn">%
 71
     4
 62
   256
 62
   257
300
ANSI31
 40
1.0
 90
        0
290
     0
290
     0
 90
        6
 40
0.0
 40
1.570796326794896
 40
0.2617993877991494
 40
1.308996938995747
 40
-0.2617993877991494
 40
1.832595714594046
  0
TABLESTYLE
  5
65
102
{ACAD_XDICTIONARY
360
100
102
}
102
{ACAD_REACTORS
330
64
102
}
330
64
100
AcDbTableStyle
280
     0
  3
Standard
 70
     0
 71
     0
 40
0.06
 41
0.06
280
     0
281
     0
  7
Standard
140
0.18
170
     2
 62
     0
 63
     7
283
     0
 90
      512
 91
        0
  1

274
    -2
284
     1
 64
     0
275
    -2
285
     1
 65
     0
276
    -2
286
     1
 66
     0
277
    -2
287
     1
 67
     0
278
    -2
288
     1
 68
     0
279
    -2
289
     1
 69
     0
  7
Standard
140
0.25
170
     5
 62
     0
 63
     7
283
     0
 90
      512
 91
        0
  1

274
    -2
284
     1
 64
     0
275
    -2
285
     1
 65
     0
276
    -2
286
     1
 66
     0
277
    -2
287
     1
 67
     0
278
    -2
288
     1
 68
     0
279
    -2
289
     1
 69
     0
  7
Standard
140
0.18
170
     5
 62
     0
 63
     7
283
     0
 90
      512
 91
        0
  1

274
    -2
284
     1
 64
     0
275
    -2
285
     1
 65
     0
276
    -2
286
     1
 66
     0
277
    -2
287
     1
 67
     0
278
    -2
288
     1
 68
     0
279
    -2
289
     1
 69
     0
  0
VISUALSTYLE
  5
2F
102
{ACAD_REACTORS
330
29
102
}
330
29
100
AcDbVisualStyle
  2
2dWireframe
 70
     4
177
     3
291
     0
 70
    58
 90
        0
176
     1
 90
        2
176
     1
 90
        0
176
     1
 90
        0
176
     1
 40
0.6
176
     1
 40
30.0
176
     1
 62
     7
420
 16777215
176
     1
 90
        1
176
     1
 90
        4
176
     1
 62
     7
176
     1
 62
   257
176
     1
 90
        1
176
     1
 90
        1
176
     1
 40
1.0
176
     1
 90
        0
176
     1
 62
   257
176
     1
 40
1.0
176
     1
 90
        1
176
     1
 90
        6
176
     1
 90
        2
176
     1
 62
     7
176
     1
 90
        5
176
     1
 90
        0
176
     1
 90
        0
176
     1
290
     0
176
     1
 90
        1
176
     1
 40
0.0
176
     1
 90
        0
176
     1
290
     1
176
     1
290
     1
176
     1
290
     0
176
     1
290
     0
176
     1
290
     0
176
     1
290
     0
176
     1
290
     0
176
     1
290
     0
176
     1
290
     0
176
     1
 90
       50
176
     1
 40
0.0
176
     1
 40
1.0
176
     1
 90
        0
176
     1
 62
    18
420
        0
176
     1
 90
       50
176
     1
 90
        3
176
     1
 62
     5
420
      255
176
     1
290
     0
176
     1
 90
       50
176
     1
 90
       50
176
     1
 90
       50
176
     1
290
     0
176
     1
 90
       50
176
     1
 62
   256
176
     0
 40
1.0
176
     0
 90
        2
176
     1
  1
strokes_ogs.tif
176
     1
290
     0
176
     1
 40
1.0
176
     1
 40
1.0
176
     1
  0
VISUALSTYLE
  5
2E
102
{ACAD_REACTORS
330
29
102
}
330
29
100
AcDbVisualStyle
  2
Basic
 70
     7
177
     3
291
     1
 70
    58
 90
        1
176
     1
 90
        0
176
     1
 90
        1
176
     1
 90
        0
176
     1
 40
0.6
176
     1
 40
30.0
176
     1
 62
     7
420
 16777215
176
     1
 90
        0
176
     1
 90
        4
176
     1
 62
     7
176
     1
 62
   257
176
     1
 90
        1
176
     1
 90
        1
176
     1
 40
1.0
176
     1
 90
        8
176
     1
 62
     7
176
     1
 40
1.0
176
     1
 90
        1
176
     1
 90
        6
176
     1
 90
        2
176
     1
 62
     7
176
     1
 90
        5
176
     1
 90
        0
176
     1
 90
        0
176
     1
290
     0
176
     1
 90
        1
176
     1
 40
0.0
176
     1
 90
        0
176
     1
290
     0
176
     1
290
     1
176
     1
290
     1
176
     1
290
     0
176
     1
290
     0
176
     1
290
     0
176
     1
290
     0
176
     1
290
     0
176
     1
290
     0
176
     1
 90
       50
176
     1
 40
0.0
176
     1
 40
1.0
176
     1
 90
        0
176
     1
 62
    18
420
        0
176
     1
 90
       50
176
     1
 90
        3
176
     1
 62
     5
420
      255
176
     1
290
     0
176
     1
 90
       50
176
     1
 90
       50
176
     1
 90
       50
176
     1
290
     0
176
     1
 90
       50
176
     1
 62
   256
176
     0
 40
1.0
176
     0
 90
        2
176
     1
  1
strokes_ogs.tif
176
     1
290
     0
176
     1
 40
1.0
176
     1
 40
1.0
176
     1
  0
VISUALSTYLE
  5
35
102
{ACAD_REACTORS
330
29
102
}
330
29
100
AcDbVisualStyle
  2
Brighten
 70
    12
177
     3
291
     1
 70
    58
 90
        2
176
     1
 90
        2
176
     1
 90
        0
176
     1
 90
        0
176
     1
 40
0.6
176
     1
 40
30.0
176
     1
 62
     7
420
 16777215
176
     1
 90
        1
176
     1
 90
        4
176
     1
 62
     7
176
     1
 62
   257
176
     1
 90
        1
176
     1
 90
        1
176
     1
 40
1.0
176
     1
 90
        8
176
     1
 62
     7
176
     1
 40
1.0
176
     1
 90
        1
176
     1
 90
        6
176
     1
 90
        2
176
     1
 62
     7
176
     1
 90
        5
176
     1
 90
        0
176
     1
 90
        0
176
     1
290
     0
176
     1
 90
        1
176
     1
 40
50.0
176
     1
 90
        0
176
     1
290
     0
176
     1
290
     1
176
     1
290
     1
176
     1
290
     0
176
     1
290
     0
176
     1
290
     0
176
     1
290
     0
176
     1
290
     0
176
     1
290
     0
176
     1
 90
       50
176
     1
 40
0.0
176
     1
 40
1.0
176
     1
 90
        0
176
     1
 62
    18
420
        0
176
     1
 90
       50
176
     1
 90
        3
176
     1
 62
     5
420
      255
176
     1
290
     0
176
     1
 90
       50
176
     1
 90
       50
176
     1
 90
       50
176
     1
290
     0
176
     1
 90
       50
176
     1
 62
   256
176
     0
 40
1.0
176
     0
 90
        2
176
     1
  1
strokes_ogs.tif
176
     1
290
     0
176
     1
 40
1.0
176
     1
 40
1.0
176
     1
  0
VISUALSTYLE
  5
39
102
{ACAD_REACTORS
330
29
102
}
330
29
100
AcDbVisualStyle
  2
ColorChange
 70
    16
177
     3
291
     1
 70
    58
 90
        2
176
     1
 90
        2
176
     1
 90
        3
176
     1
 90
        0
176
     1
 40
0.6
176
     1
 40
30.0
176
     1
 62
     8
420
  8421504
176
     1
 90
        1
176
     1
 90
        4
176
     1
 62
     7
176
     1
 62
   257
176
     1
 90
        1
176
     1
 90
        1
176
     1
 40
1.0
176
     1
 90
        8
176
     1
 62
     8
420
  8421504
176
     1
 40
1.0
176
     1
 90
        1
176
     1
 90
        6
176
     1
 90
        2
176
     1
 62
     7
176
     1
 90
        5
176
     1
 90
        0
176
     1
 90
        0
176
     1
290
     0
176
     1
 90
        1
176
     1
 40
0.0
176
     1
 90
        0
176
     1
290
     0
176
     1
290
     1
176
     1
290
     1
176
     1
290
     0
176
     1
290
     0
176
     1
290
     0
176
     1
290
     0
176
     1
290
     0
176
     1
290
     0
176
     1
 90
       50
176
     1
 40
0.0
176
     1
 40
1.0
176
     1
 90
        0
176
     1
 62
    18
420
        0
176
     1
 90
       50
176
     1
 90
        3
176
     1
 62
     5
420
      255
176
     1
290
     0
176
     1
 90
       50
176
     1
 90
       50
176
     1
 90
       50
176
     1
290
     0
176
     1
 90
       50
176
     1
 62
   256
176
     0
 40
1.0
176
     0
 90
        2
176
     1
  1
strokes_ogs.tif
176
     1
290
     0
176
     1
 40
1.0
176
     1
 40
1.0
176
     1
  0
VISUALSTYLE
  5
32
102
{ACAD_REACTORS
330
29
102
}
330
29
100
AcDbVisualStyle
  2
Conceptual
 70
     9
177
     3
291
     0
 70
    58
 90
        3
176
     1
 90
        2
176
     1
 90
        0
176
     1
 90
        0
176
     1
 40
0.6
176
     1
 40
30.0
176
     1
 62
     7
420
 16777215
176
     1
 90
        2
176
     1
 90
        2
176
     1
 62
     7
176
     1
 62
   257
176
     1
 90
        1
176
     1
 90
        1
176
     1
 40
179.0
176
     1
 90
        8
176
     1
 62
     7
176
     1
 40
1.0
176
     1
 90
        1
176
     1
 90
        6
176
     1
 90
        2
176
     1
 62
     7
176
     1
 90
        3
176
     1
 90
        0
176
     1
 90
        0
176
     1
290
     0
176
     1
 90
        1
176
     1
 40
0.0
176
     1
 90
        0
176
     1
290
     0
176
     1
290
     1
176
     1
290
     1
176
     1
290
     0
176
     1
290
     0
176
     1
290
     0
176
     1
290
     0
176
     1
290
     0
176
     1
290
     0
176
     1
 90
       50
176
     1
 40
0.0
176
     1
 40
1.0
176
     1
 90
        0
176
     1
 62
    18
420
        0
176
     1
 90
       50
176
     1
 90
        3
176
     1
 62
     5
420
      255
176
     1
290
     0
176
     1
 90
       50
176
     1
 90
       50
176
     1
 90
       50
176
     1
290
     0
176
     1
 90
       50
176
     1
 62
   256
176
     0
 40
1.0
176
     0
 90
        2
176
     1
  1
strokes_ogs.tif
176
     1
290
     0
176
     1
 40
1.0
176
     1
 40
1.0
176
     1
  0
VISUALSTYLE
  5
34
102
{ACAD_REACTORS
330
29
102
}
330
29
100
AcDbVisualStyle
  2
Dim
 70
    11
177
     3
291
     1
 70
    58
 90
        2
176
     1
 90
        2
176
     1
 90
        0
176
     1
 90
        0
176
     1
 40
0.6
176
     1
 40
30.0
176
     1
 62
     7
420
 16777215
176
     1
 90
        1
176
     1
 90
        4
176
     1
 62
     7
176
     1
 62
   257
176
     1
 90
        1
176
     1
 90
        1
176
     1
 40
1.0
176
     1
 90
        8
176
     1
 62
     7
176
     1
 40
1.0
176
     1
 90
        1
176
     1
 90
        6
176
     1
 90
        2
176
     1
 62
     7
176
     1
 90
        5
176
     1
 90
        0
176
     1
 90
        0
176
     1
290
     0
176
     1
 90
        1
176
     1
 40
-50.0
176
     1
 90
        0
176
     1
290
     0
176
     1
290
     1
176
     1
290
     1
176
     1
290
     0
176
     1
290
     0
176
     1
290
     0
176
     1
290
     0
176
     1
290
     0
176
     1
290
     0
176
     1
 90
       50
176
     1
 40
0.0
176
     1
 40
1.0
176
     1
 90
        0
176
     1
 62
    18
420
        0
176
     1
 90
       50
176
     1
 90
        3
176
     1
 62
     5
420
      255
176
     1
290
     0
176
     1
 90
       50
176
     1
 90
       50
176
     1
 90
       50
176
     1
290
     0
176
     1
 90
       50
176
     1
 62
   256
176
     0
 40
1.0
176
     0
 90
        2
176
     1
  1
strokes_ogs.tif
176
     1
290
     0
176
     1
 40
1.0
176
     1
 40
1.0
176
     1
  0
VISUALSTYLE
  5
41
102
{ACAD_REACTORS
330
29
102
}
330
29
100
AcDbVisualStyle
  2
EdgeColorOff
 70
    22
177
     3
291
     1
 70
    58
 90
        2
176
     0
 90
        2
176
     0
 90
        0
176
     0
 90
        0
176
     0
 40
0.6
176
     0
 40
30.0
176
     0
 62
     7
420
 16777215
176
     0
 90
        1
176
     0
 90
        4
176
     0
 62
     7
176
     0
 62
   257
176
     0
 90
        1
176
     0
 90
        1
176
     0
 40
1.0
176
     0
 90
        8
176
     2
 62
     7
176
     0
 40
1.0
176
     0
 90
        1
176
     0
 90
        6
176
     0
 90
        2
176
     0
 62
     7
176
     0
 90
        5
176
     0
 90
        0
176
     0
 90
        0
176
     0
290
     0
176
     0
 90
        1
176
     0
 40
0.0
176
     0
 90
        0
176
     0
290
     0
176
     0
290
     1
176
     0
290
     1
176
     0
290
     0
176
     0
290
     0
176
     0
290
     0
176
     0
290
     0
176
     0
290
     0
176
     0
290
     0
176
     0
 90
       50
176
     0
 40
0.0
176
     0
 40
1.0
176
     0
 90
        0
176
     0
 62
    18
420
        0
176
     0
 90
       50
176
     0
 90
        3
176
     0
 62
     5
420
      255
176
     0
290
     0
176
     0
 90
       50
176
     0
 90
       50
176
     0
 90
       50
176
     0
290
     0
176
     0
 90
       50
176
     0
 62
   256
176
     0
 40
1.0
176
     0
 90
        2
176
     0
  1
strokes_ogs.tif
176
     0
290
     0
176
     0
 40
1.0
176
     0
 40
1.0
176
     0
  0
VISUALSTYLE
  5
38
102
{ACAD_REACTORS
330
29
102
}
330
29
100
AcDbVisualStyle
  2
Facepattern
 70
    15
177
     3
291
     1
 70
    58
 90
        2
176
     1
 90
        2
176
     1
 90
        0
176
     1
 90
        0
176
     1
 40
0.6
176
     1
 40
30.0
176
     1
 62
     7
420
 16777215
176
     1
 90
        1
176
     1
 90
        4
176
     1
 62
     7
176
     1
 62
   257
176
     1
 90
        1
176
     1
 90
        1
176
     1
 40
1.0
176
     1
 90
        8
176
     1
 62
     7
176
     1
 40
1.0
176
     1
 90
        1
176
     1
 90
        6
176
     1
 90
        2
176
     1
 62
     7
176
     1
 90
        5
176
     1
 90
        0
176
     1
 90
        0
176
     1
290
     0
176
     1
 90
        1
176
     1
 40
0.0
176
     1
 90
        0
176
     1
290
     0
176
     1
290
     1
176
     1
290
     1
176
     1
290
     0
176
     1
290
     0
176
     1
290
     0
176
     1
290
     0
176
     1
290
     0
176
     1
290
     0
176
     1
 90
       50
176
     1
 40
0.0
176
     1
 40
1.0
176
     1
 90
        0
176
     1
 62
    18
420
        0
176
     1
 90
       50
176
     1
 90
        3
176
     1
 62
     5
420
      255
176
     1
290
     0
176
     1
 90
       50
176
     1
 90
       50
176
     1
 90
       50
176
     1
290
     0
176
     1
 90
       50
176
     1
 62
   256
176
     0
 40
1.0
176
     0
 90
        2
176
     1
  1
strokes_ogs.tif
176
     1
290
     0
176
     1
 40
1.0
176
     1
 40
1.0
176
     1
  0
VISUALSTYLE
  5
2A
102
{ACAD_REACTORS
330
29
102
}
330
29
100
AcDbVisualStyle
  2
Flat
 70
     0
177
     3
291
     1
 70
    58
 90
        2
176
     1
 90
        1
176
     1
 90
        1
176
     1
 90
        2
176
     1
 40
0.6
176
     1
 40
30.0
176
     1
 62
     7
420
 16777215
176
     1
 90
        0
176
     1
 90
        0
176
     1
 62
     7
176
     1
 62
   257
176
     1
 90
        1
176
     1
 90
        1
176
     1
 40
1.0
176
     1
 90
        8
176
     1
 62
     7
176
     1
 40
1.0
176
     1
 90
        1
176
     1
 90
        6
176
     1
 90
        2
176
     1
 62
     7
176
     1
 90
        5
176
     1
 90
        0
176
     1
 90
        0
176
     1
290
     0
176
     1
 90
       13
176
     1
 40
0.0
176
     1
 90
        0
176
     1
290
     0
176
     1
290
     1
176
     1
290
     1
176
     1
290
     0
176
     1
290
     0
176
     1
290
     0
176
     1
290
     0
176
     1
290
     0
176
     1
290
     0
176
     1
 90
       50
176
     1
 40
0.0
176
     1
 40
1.0
176
     1
 90
        0
176
     1
 62
    18
420
        0
176
     1
 90
       50
176
     1
 90
        3
176
     1
 62
     5
420
      255
176
     1
290
     0
176
     1
 90
       50
176
     1
 90
       50
176
     1
 90
       50
176
     1
290
     0
176
     1
 90
       50
176
     1
 62
   256
176
     0
 40
1.0
176
     0
 90
        2
176
     1
  1
strokes_ogs.tif
176
     1
290
     0
176
     1
 40
1.0
176
     1
 40
1.0
176
     1
  0
VISUALSTYLE
  5
2B
102
{ACAD_REACTORS
330
29
102
}
330
29
100
AcDbVisualStyle
  2
FlatWithEdges
 70
     1
177
     3
291
     1
 70
    58
 90
        2
176
     1
 90
        1
176
     1
 90
        1
176
     1
 90
        2
176
     1
 40
0.6
176
     1
 40
30.0
176
     1
 62
     7
420
 16777215
176
     1
 90
        1
176
     1
 90
        0
176
     1
 62
     7
176
     1
 62
   257
176
     1
 90
        1
176
     1
 90
        1
176
     1
 40
1.0
176
     1
 90
        0
176
     1
 62
   257
176
     1
 40
1.0
176
     1
 90
        1
176
     1
 90
        6
176
     1
 90
        2
176
     1
 62
     7
176
     1
 90
        5
176
     1
 90
        0
176
     1
 90
        0
176
     1
290
     0
176
     1
 90
       13
176
     1
 40
0.0
176
     1
 90
        0
176
     1
290
     0
176
     1
290
     1
176
     1
290
     1
176
     1
290
     0
176
     1
290
     0
176
     1
290
     0
176
     1
290
     0
176
     1
290
     0
176
     1
290
     0
176
     1
 90
       50
176
     1
 40
0.0
176
     1
 40
1.0
176
     1
 90
        0
176
     1
 62
    18
420
        0
176
     1
 90
       50
176
     1
 90
        3
176
     1
 62
     5
420
      255
176
     1
290
     0
176
     1
 90
       50
176
     1
 90
       50
176
     1
 90
       50
176
     1
290
     0
176
     1
 90
       50
176
     1
 62
   256
176
     0
 40
1.0
176
     0
 90
        2
176
     1
  1
strokes_ogs.tif
176
     1
290
     0
176
     1
 40
1.0
176
     1
 40
1.0
176
     1
  0
VISUALSTYLE
  5
2C
102
{ACAD_REACTORS
330
29
102
}
330
29
100
AcDbVisualStyle
  2
Gouraud
 70
     2
177
     3
291
     1
 70
    58
 90
        2
176
     1
 90
        2
176
     1
 90
        1
176
     1
 90
        2
176
     1
 40
0.6
176
     1
 40
30.0
176
     1
 62
     7
420
 16777215
176
     1
 90
        0
176
     1
 90
        0
176
     1
 62
     7
176
     1
 62
   257
176
     1
 90
        1
176
     1
 90
        1
176
     1
 40
1.0
176
     1
 90
        0
176
     1
 62
     7
176
     1
 40
1.0
176
     1
 90
        1
176
     1
 90
        6
176
     1
 90
        2
176
     1
 62
     7
176
     1
 90
        5
176
     1
 90
        0
176
     1
 90
        0
176
     1
290
     0
176
     1
 90
       13
176
     1
 40
0.0
176
     1
 90
        0
176
     1
290
     0
176
     1
290
     1
176
     1
290
     1
176
     1
290
     0
176
     1
290
     0
176
     1
290
     0
176
     1
290
     0
176
     1
290
     0
176
     1
290
     0
176
     1
 90
       50
176
     1
 40
0.0
176
     1
 40
1.0
176
     1
 90
        0
176
     1
 62
    18
420
        0
176
     1
 90
       50
176
     1
 90
        3
176
     1
 62
     5
420
      255
176
     1
290
     0
176
     1
 90
       50
176
     1
 90
       50
176
     1
 90
       50
176
     1
290
     0
176
     1
 90
       50
176
     1
 62
   256
176
     0
 40
1.0
176
     0
 90
        2
176
     1
  1
strokes_ogs.tif
176
     1
290
     0
176
     1
 40
1.0
176
     1
 40
1.0
176
     1
  0
VISUALSTYLE
  5
2D
102
{ACAD_REACTORS
330
29
102
}
330
29
100
AcDbVisualStyle
  2
GouraudWithEdges
 70
     3
177
     3
291
     1
 70
    58
 90
        2
176
     1
 90
        2
176
     1
 90
        1
176
     1
 90
        2
176
     1
 40
0.6
176
     1
 40
30.0
176
     1
 62
     7
420
 16777215
176
     1
 90
        1
176
     1
 90
        0
176
     1
 62
     7
176
     1
 62
   257
176
     1
 90
        1
176
     1
 90
        1
176
     1
 40
1.0
176
     1
 90
        0
176
     1
 62
   257
176
     1
 40
1.0
176
     1
 90
        1
176
     1
 90
        6
176
     1
 90
        2
176
     1
 62
     7
176
     1
 90
        5
176
     1
 90
        0
176
     1
 90
        0
176
     1
290
     0
176
     1
 90
       13
176
     1
 40
0.0
176
     1
 90
        0
176
     1
290
     0
176
     1
290
     1
176
     1
290
     1
176
     1
290
     0
176
     1
290
     0
176
     1
290
     0
176
     1
290
     0
176
     1
290
     0
176
     1
290
     0
176
     1
 90
       50
176
     1
 40
0.0
176
     1
 40
1.0
176
     1
 90
        0
176
     1
 62
    18
420
        0
176
     1
 90
       50
176
     1
 90
        3
176
     1
 62
     5
420
      255
176
     1
290
     0
176
     1
 90
       50
176
     1
 90
       50
176
     1
 90
       50
176
     1
290
     0
176
     1
 90
       50
176
     1
 62
   256
176
     0
 40
1.0
176
     0
 90
        2
176
     1
  1
strokes_ogs.tif
176
     1
290
     0
176
     1
 40
1.0
176
     1
 40
1.0
176
     1
  0
VISUALSTYLE
  5
31
102
{ACAD_REACTORS
330
29
102
}
330
29
100
AcDbVisualStyle
  2
Hidden
 70
     6
177
     3
291
     0
 70
    58
 90
        1
176
     1
 90
        2
176
     1
 90
        2
176
     1
 90
        0
176
     1
 40
0.6
176
     1
 40
30.0
176
     1
 62
     7
420
 16777215
176
     1
 90
        2
176
     1
 90
        2
176
     1
 62
     7
176
     1
 62
   257
176
     1
 90
        2
176
     1
 90
        1
176
     1
 40
40.0
176
     1
 90
        0
176
     1
 62
   257
176
     1
 40
1.0
176
     1
 90
        1
176
     1
 90
        6
176
     1
 90
        2
176
     1
 62
     7
176
     1
 90
        3
176
     1
 90
        0
176
     1
 90
        0
176
     1
290
     0
176
     1
 90
        1
176
     1
 40
0.0
176
     1
 90
        0
176
     1
290
     0
176
     1
290
     1
176
     1
290
     1
176
     1
290
     0
176
     1
290
     0
176
     1
290
     0
176
     1
290
     0
176
     1
290
     0
176
     1
290
     0
176
     1
 90
       50
176
     1
 40
0.0
176
     1
 40
1.0
176
     1
 90
        0
176
     1
 62
    18
420
        0
176
     1
 90
       50
176
     1
 90
        3
176
     1
 62
     5
420
      255
176
     1
290
     0
176
     1
 90
       50
176
     1
 90
       50
176
     1
 90
       50
176
     1
290
     0
176
     1
 90
       50
176
     1
 62
   256
176
     0
 40
1.0
176
     0
 90
        2
176
     1
  1
strokes_ogs.tif
176
     1
290
     0
176
     1
 40
1.0
176
     1
 40
1.0
176
     1
  0
VISUALSTYLE
  5
3F
102
{ACAD_REACTORS
330
29
102
}
330
29
100
AcDbVisualStyle
  2
JitterOff
 70
    20
177
     3
291
     1
 70
    58
 90
        2
176
     0
 90
        2
176
     0
 90
        0
176
     0
 90
        0
176
     0
 40
0.6
176
     0
 40
30.0
176
     0
 62
     7
420
 16777215
176
     0
 90
        1
176
     0
 90
        4
176
     0
 62
     7
176
     0
 62
   257
176
     0
 90
        1
176
     0
 90
        1
176
     0
 40
1.0
176
     0
 90
       10
176
     2
 62
     7
176
     0
 40
1.0
176
     0
 90
        1
176
     0
 90
        6
176
     0
 90
        2
176
     0
 62
     7
176
     0
 90
        5
176
     0
 90
        0
176
     0
 90
        0
176
     0
290
     0
176
     0
 90
        1
176
     0
 40
0.0
176
     0
 90
        0
176
     0
290
     0
176
     0
290
     1
176
     0
290
     1
176
     0
290
     0
176
     0
290
     0
176
     0
290
     0
176
     0
290
     0
176
     0
290
     0
176
     0
290
     0
176
     0
 90
       50
176
     0
 40
0.0
176
     0
 40
1.0
176
     0
 90
        0
176
     0
 62
    18
420
        0
176
     0
 90
       50
176
     0
 90
        3
176
     0
 62
     5
420
      255
176
     0
290
     0
176
     0
 90
       50
176
     0
 90
       50
176
     0
 90
       50
176
     0
290
     0
176
     0
 90
       50
176
     0
 62
   256
176
     0
 40
1.0
176
     0
 90
        2
176
     0
  1
strokes_ogs.tif
176
     0
290
     0
176
     0
 40
1.0
176
     0
 40
1.0
176
     0
  0
VISUALSTYLE
  5
37
102
{ACAD_REACTORS
330
29
102
}
330
29
100
AcDbVisualStyle
  2
Linepattern
 70
    14
177
     3
291
     1
 70
    58
 90
        2
176
     1
 90
        2
176
     1
 90
        0
176
     1
 90
        0
176
     1
 40
0.6
176
     1
 40
30.0
176
     1
 62
     7
420
 16777215
176
     1
 90
        1
176
     1
 90
        4
176
     1
 62
     7
176
     1
 62
   257
176
     1
 90
        7
176
     1
 90
        7
176
     1
 40
1.0
176
     1
 90
        8
176
     1
 62
     7
176
     1
 40
1.0
176
     1
 90
        1
176
     1
 90
        6
176
     1
 90
        2
176
     1
 62
     7
176
     1
 90
        5
176
     1
 90
        0
176
     1
 90
        0
176
     1
290
     0
176
     1
 90
        1
176
     1
 40
0.0
176
     1
 90
        0
176
     1
290
     0
176
     1
290
     1
176
     1
290
     1
176
     1
290
     0
176
     1
290
     0
176
     1
290
     0
176
     1
290
     0
176
     1
290
     0
176
     1
290
     0
176
     1
 90
       50
176
     1
 40
0.0
176
     1
 40
1.0
176
     1
 90
        0
176
     1
 62
    18
420
        0
176
     1
 90
       50
176
     1
 90
        3
176
     1
 62
     5
420
      255
176
     1
290
     0
176
     1
 90
       50
176
     1
 90
       50
176
     1
 90
       50
176
     1
290
     0
176
     1
 90
       50
176
     1
 62
   256
176
     0
 40
1.0
176
     0
 90
        2
176
     1
  1
strokes_ogs.tif
176
     1
290
     0
176
     1
 40
1.0
176
     1
 40
1.0
176
     1
  0
VISUALSTYLE
  5
40
102
{ACAD_REACTORS
330
29
102
}
330
29
100
AcDbVisualStyle
  2
OverhangOff
 70
    21
177
     3
291
     1
 70
    58
 90
        2
176
     0
 90
        2
176
     0
 90
        0
176
     0
 90
        0
176
     0
 40
0.6
176
     0
 40
30.0
176
     0
 62
     7
420
 16777215
176
     0
 90
        1
176
     0
 90
        4
176
     0
 62
     7
176
     0
 62
   257
176
     0
 90
        1
176
     0
 90
        1
176
     0
 40
1.0
176
     0
 90
        9
176
     2
 62
     7
176
     0
 40
1.0
176
     0
 90
        1
176
     0
 90
        6
176
     0
 90
        2
176
     0
 62
     7
176
     0
 90
        5
176
     0
 90
        0
176
     0
 90
        0
176
     0
290
     0
176
     0
 90
        1
176
     0
 40
0.0
176
     0
 90
        0
176
     0
290
     0
176
     0
290
     1
176
     0
290
     1
176
     0
290
     0
176
     0
290
     0
176
     0
290
     0
176
     0
290
     0
176
     0
290
     0
176
     0
290
     0
176
     0
 90
       50
176
     0
 40
0.0
176
     0
 40
1.0
176
     0
 90
        0
176
     0
 62
    18
420
        0
176
     0
 90
       50
176
     0
 90
        3
176
     0
 62
     5
420
      255
176
     0
290
     0
176
     0
 90
       50
176
     0
 90
       50
176
     0
 90
       50
176
     0
290
     0
176
     0
 90
       50
176
     0
 62
   256
176
     0
 40
1.0
176
     0
 90
        2
176
     0
  1
strokes_ogs.tif
176
     0
290
     0
176
     0
 40
1.0
176
     0
 40
1.0
176
     0
  0
VISUALSTYLE
  5
33
102
{ACAD_REACTORS
330
29
102
}
330
29
100
AcDbVisualStyle
  2
Realistic
 70
     8
177
     3
291
     0
 70
    58
 90
        2
176
     1
 90
        3
176
     1
 90
        0
176
     1
 90
        2
176
     1
 40
0.6
176
     1
 40
30.0
176
     1
 62
     7
420
 16777215
176
     1
 90
        0
176
     1
 90
        0
176
     1
 62
     7
176
     1
 62
   257
176
     1
 90
        1
176
     1
 90
        1
176
     1
 40
1.0
176
     1
 90
        8
176
     1
 62
   257
176
     1
 40
1.0
176
     1
 90
        1
176
     1
 90
        6
176
     1
 90
        2
176
     1
 62
     7
176
     1
 90
        3
176
     1
 90
        0
176
     1
 90
        0
176
     1
290
     0
176
     1
 90
       13
176
     1
 40
0.0
176
     1
 90
        0
176
     1
290
     0
176
     1
290
     1
176
     1
290
     1
176
     1
290
     0
176
     1
290
     0
176
     1
290
     0
176
     1
290
     0
176
     1
290
     0
176
     1
290
     0
176
     1
 90
       50
176
     1
 40
0.0
176
     1
 40
1.0
176
     1
 90
        0
176
     1
 62
    18
420
        0
176
     1
 90
       50
176
     1
 90
        3
176
     1
 62
     5
420
      255
176
     1
290
     0
176
     1
 90
       50
176
     1
 90
       50
176
     1
 90
       50
176
     1
290
     0
176
     1
 90
       50
176
     1
 62
   256
176
     0
 40
1.0
176
     0
 90
        2
176
     1
  1
strokes_ogs.tif
176
     1
290
     0
176
     1
 40
1.0
176
     1
 40
1.0
176
     1
  0
VISUALSTYLE
  5
3E
102
{ACAD_REACTORS
330
29
102
}
330
29
100
AcDbVisualStyle
  2
Shaded
 70
    27
177
     3
291
     0
 70
    58
 90
        2
176
     1
 90
        2
176
     1
 90
        1
176
     1
 90
        2
176
     1
 40
0.6
176
     1
 40
30.0
176
     1
 62
     7
420
 16777215
176
     1
 90
        0
176
     1
 90
        4
176
     1
 62
     7
176
     1
 62
   257
176
     1
 90
        1
176
     1
 90
        1
176
     1
 40
1.0
176
     1
 90
        8
176
     1
 62
   257
176
     1
 40
1.0
176
     1
 90
        1
176
     1
 90
        6
176
     1
 90
        2
176
     1
 62
     8
420
  7895160
176
     1
 90
        3
176
     1
 90
        0
176
     1
 90
        0
176
     1
290
     0
176
     1
 90
        5
176
     1
 40
0.0
176
     1
 90
        0
176
     1
290
     0
176
     1
290
     1
176
     1
290
     1
176
     1
290
     0
176
     1
290
     0
176
     1
290
     0
176
     1
290
     0
176
     1
290
     0
176
     1
290
     0
176
     1
 90
       50
176
     1
 40
0.0
176
     1
 40
1.0
176
     1
 90
        0
176
     1
 62
    18
420
        0
176
     1
 90
       50
176
     1
 90
        3
176
     1
 62
     5
420
      255
176
     1
290
     0
176
     1
 90
       50
176
     1
 90
       50
176
     1
 90
       50
176
     1
290
     0
176
     1
 90
       50
176
     1
 62
   256
176
     0
 40
1.0
176
     0
 90
        2
176
     1
  1
strokes_ogs.tif
176
     1
290
     0
176
     1
 40
1.0
176
     1
 40
1.0
176
     1
  0
VISUALSTYLE
  5
3D
102
{ACAD_REACTORS
330
29
102
}
330
29
100
AcDbVisualStyle
  2
Shaded with edges
 70
    26
177
     3
291
     0
 70
    58
 90
        2
176
     1
 90
        2
176
     1
 90
        1
176
     1
 90
        2
176
     1
 40
0.6
176
     1
 40
30.0
176
     1
 62
     7
420
 16777215
176
     1
 90
        1
176
     1
 90
        2
176
     1
 62
     7
176
     1
 62
   257
176
     1
 90
        2
176
     1
 90
        1
176
     1
 40
1.0
176
     1
 90
        8
176
     1
 62
   257
176
     1
 40
1.0
176
     1
 90
        1
176
     1
 90
        6
176
     1
 90
        2
176
     1
 62
     7
176
     1
 90
        3
176
     1
 90
        0
176
     1
 90
        0
176
     1
290
     0
176
     1
 90
        5
176
     1
 40
0.0
176
     1
 90
        0
176
     1
290
     0
176
     1
290
     1
176
     1
290
     1
176
     1
290
     0
176
     1
290
     0
176
     1
290
     0
176
     1
290
     0
176
     1
290
     0
176
     1
290
     0
176
     1
 90
       50
176
     1
 40
0.0
176
     1
 40
1.0
176
     1
 90
        0
176
     1
 62
    18
420
        0
176
     1
 90
       50
176
     1
 90
        3
176
     1
 62
     5
420
      255
176
     1
290
     0
176
     1
 90
       50
176
     1
 90
       50
176
     1
 90
       50
176
     1
290
     0
176
     1
 90
       50
176
     1
 62
   256
176
     0
 40
1.0
176
     0
 90
        2
176
     1
  1
strokes_ogs.tif
176
     1
290
     0
176
     1
 40
1.0
176
     1
 40
1.0
176
     1
  0
VISUALSTYLE
  5
3A
102
{ACAD_REACTORS
330
29
102
}
330
29
100
AcDbVisualStyle
  2
Shades of Gray
 70
    23
177
     3
291
     0
 70
    58
 90
        2
176
     1
 90
        2
176
     1
 90
        3
176
     1
 90
        0
176
     1
 40
0.6
176
     1
 40
30.0
176
     1
 62
     7
420
 16777215
176
     1
 90
        2
176
     1
 90
        2
176
     1
 62
     7
176
     1
 62
     7
176
     1
 90
        1
176
     1
 90
        1
176
     1
 40
40.0
176
     1
 90
        8
176
     1
 62
     7
176
     1
 40
1.0
176
     1
 90
        1
176
     1
 90
        6
176
     1
 90
        2
176
     1
 62
     7
176
     1
 90
        3
176
     1
 90
        0
176
     1
 90
        0
176
     1
290
     0
176
     1
 90
        1
176
     1
 40
0.0
176
     1
 90
        0
176
     1
290
     0
176
     1
290
     1
176
     1
290
     1
176
     1
290
     0
176
     1
290
     0
176
     1
290
     0
176
     1
290
     0
176
     1
290
     0
176
     1
290
     0
176
     1
 90
       50
176
     1
 40
0.0
176
     1
 40
1.0
176
     1
 90
        0
176
     1
 62
    18
420
        0
176
     1
 90
       50
176
     1
 90
        3
176
     1
 62
     5
420
      255
176
     1
290
     0
176
     1
 90
       50
176
     1
 90
       50
176
     1
 90
       50
176
     1
290
     0
176
     1
 90
       50
176
     1
 62
   256
176
     0
 40
1.0
176
     0
 90
        2
176
     1
  1
strokes_ogs.tif
176
     1
290
     0
176
     1
 40
1.0
176
     1
 40
1.0
176
     1
  0
VISUALSTYLE
  5
3B
102
{ACAD_REACTORS
330
29
102
}
330
29
100
AcDbVisualStyle
  2
Sketchy
 70
    24
177
     3
291
     0
 70
    58
 90
        1
176
     1
 90
        2
176
     1
 90
        2
176
     1
 90
        0
176
     1
 40
0.6
176
     1
 40
30.0
176
     1
 62
     7
420
 16777215
176
     1
 90
        2
176
     1
 90
        2
176
     1
 62
     7
176
     1
 62
     7
176
     1
 90
        1
176
     1
 90
        1
176
     1
 40
40.0
176
     1
 90
       11
176
     1
 62
     7
176
     1
 40
1.0
176
     1
 90
        1
176
     1
 90
        6
176
     1
 90
        2
176
     1
 62
     7
176
     1
 90
        6
176
     1
 90
        0
176
     1
 90
        0
176
     1
290
     0
176
     1
 90
        1
176
     1
 40
0.0
176
     1
 90
        0
176
     1
290
     0
176
     1
290
     1
176
     1
290
     1
176
     1
290
     0
176
     1
290
     0
176
     1
290
     0
176
     1
290
     0
176
     1
290
     0
176
     1
290
     0
176
     1
 90
       50
176
     1
 40
0.0
176
     1
 40
1.0
176
     1
 90
        0
176
     1
 62
    18
420
        0
176
     1
 90
       50
176
     1
 90
        3
176
     1
 62
     5
420
      255
176
     1
290
     0
176
     1
 90
       50
176
     1
 90
       50
176
     1
 90
       50
176
     1
290
     0
176
     1
 90
       50
176
     1
 62
   256
176
     0
 40
1.0
176
     0
 90
        2
176
     1
  1
strokes_ogs.tif
176
     1
290
     0
176
     1
 40
1.0
176
     1
 40
1.0
176
     1
  0
VISUALSTYLE
  5
36
102
{ACAD_REACTORS
330
29
102
}
330
29
100
AcDbVisualStyle
  2
Thicken
 70
    13
177
     3
291
     1
 70
    58
 90
        2
176
     1
 90
        2
176
     1
 90
        0
176
     1
 90
        0
176
     1
 40
0.6
176
     1
 40
30.0
176
     1
 62
     7
420
 16777215
176
     1
 90
        1
176
     1
 90
        4
176
     1
 62
     7
176
     1
 62
   257
176
     1
 90
        1
176
     1
 90
        1
176
     1
 40
1.0
176
     1
 90
       12
176
     1
 62
     7
176
     1
 40
1.0
176
     1
 90
        1
176
     1
 90
        6
176
     1
 90
        2
176
     1
 62
     7
176
     1
 90
        5
176
     1
 90
        0
176
     1
 90
        0
176
     1
290
     0
176
     1
 90
        1
176
     1
 40
0.0
176
     1
 90
        0
176
     1
290
     0
176
     1
290
     1
176
     1
290
     1
176
     1
290
     0
176
     1
290
     0
176
     1
290
     0
176
     1
290
     0
176
     1
290
     0
176
     1
290
     0
176
     1
 90
       50
176
     1
 40
0.0
176
     1
 40
1.0
176
     1
 90
        0
176
     1
 62
    18
420
        0
176
     1
 90
       50
176
     1
 90
        3
176
     1
 62
     5
420
      255
176
     1
290
     0
176
     1
 90
       50
176
     1
 90
       50
176
     1
 90
       50
176
     1
290
     0
176
     1
 90
       50
176
     1
 62
   256
176
     0
 40
1.0
176
     0
 90
        2
176
     1
  1
strokes_ogs.tif
176
     1
290
     0
176
     1
 40
1.0
176
     1
 40
1.0
176
     1
  0
VISUALSTYLE
  5
30
102
{ACAD_REACTORS
330
29
102
}
330
29
100
AcDbVisualStyle
  2
Wireframe
 70
     5
177
     3
291
     0
 70
    58
 90
        0
176
     1
 90
        2
176
     1
 90
        0
176
     1
 90
        0
176
     1
 40
0.6
176
     1
 40
30.0
176
     1
 62
     7
420
 16777215
176
     1
 90
        1
176
     1
 90
        4
176
     1
 62
     7
176
     1
 62
   257
176
     1
 90
        1
176
     1
 90
        1
176
     1
 40
1.0
176
     1
 90
        0
176
     1
 62
   257
176
     1
 40
1.0
176
     1
 90
        1
176
     1
 90
        6
176
     1
 90
        2
176
     1
 62
     7
176
     1
 90
        3
176
     1
 90
        0
176
     1
 90
        0
176
     1
290
     0
176
     1
 90
        1
176
     1
 40
0.0
176
     1
 90
        0
176
     1
290
     0
176
     1
290
     1
176
     1
290
     1
176
     1
290
     0
176
     1
290
     0
176
     1
290
     0
176
     1
290
     0
176
     1
290
     0
176
     1
290
     0
176
     1
 90
       50
176
     1
 40
0.0
176
     1
 40
1.0
176
     1
 90
        0
176
     1
 62
    18
420
        0
176
     1
 90
       50
176
     1
 90
        3
176
     1
 62
     5
420
      255
176
     1
290
     0
176
     1
 90
       50
176
     1
 90
       50
176
     1
 90
       50
176
     1
290
     0
176
     1
 90
       50
176
     1
 62
   256
176
     0
 40
1.0
176
     0
 90
        2
176
     1
  1
strokes_ogs.tif
176
     1
290
     0
176
     1
 40
1.0
176
     1
 40
1.0
176
     1
  0
VISUALSTYLE
  5
3C
102
{ACAD_REACTORS
330
29
102
}
330
29
100
AcDbVisualStyle
  2
X-Ray
 70
    25
177
     3
291
     0
 70
    58
 90
        2
176
     1
 90
        2
176
     1
 90
        1
176
     1
 90
        1
176
     1
 40
0.5
176
     1
 40
30.0
176
     1
 62
     7
420
 16777215
176
     1
 90
        1
176
     1
 90
        0
176
     1
 62
     7
176
     1
 62
   257
176
     1
 90
        1
176
     1
 90
        1
176
     1
 40
1.0
176
     1
 90
        8
176
     1
 62
     7
176
     1
 40
1.0
176
     1
 90
        1
176
     1
 90
        6
176
     1
 90
        2
176
     1
 62
     7
176
     1
 90
        3
176
     1
 90
        0
176
     1
 90
        0
176
     1
290
     0
176
     1
 90
       13
176
     1
 40
0.0
176
     1
 90
        0
176
     1
290
     0
176
     1
290
     1
176
     1
290
     1
176
     1
290
     0
176
     1
290
     0
176
     1
290
     0
176
     1
290
     0
176
     1
290
     0
176
     1
290
     0
176
     1
 90
       50
176
     1
 40
0.0
176
     1
 40
1.0
176
     1
 90
        0
176
     1
 62
    18
420
        0
176
     1
 90
       50
176
     1
 90
        3
176
     1
 62
     5
420
      255
176
     1
290
     0
176
     1
 90
       50
176
     1
 90
       50
176
     1
 90
       50
176
     1
290
     0
176
     1
 90
       50
176
     1
 62
   256
176
     0
 40
1.0
176
     0
 90
        2
176
     1
  1
strokes_ogs.tif
176
     1
290
     0
176
     1
 40
1.0
176
     1
 40
1.0
176
     1
  0
DICTIONARYVAR
  5
FF
102
{ACAD_REACTORS
330
FA
102
}
330
FA
100
DictionaryVariables
280
     0
  1
1:1
  0
DICTIONARYVAR
  5
FC
102
{ACAD_REACTORS
330
FA
102
}
330
FA
100
DictionaryVariables
280
     0
  1
STANDARD
  0
DICTIONARYVAR
  5
FB
102
{ACAD_REACTORS
330
FA
102
}
330
FA
100
DictionaryVariables
280
     0
  1
STANDARD
  0
DICTIONARYVAR
  5
FD
102
{ACAD_REACTORS
330
FA
102
}
330
FA
100
DictionaryVariables
280
     0
  1
Imperial24
  0
DICTIONARYVAR
  5
FE
102
{ACAD_REACTORS
330
FA
102
}
330
FA
100
DictionaryVariables
280
     0
  1
Imperial24
  0
DICTIONARY
  5
1A
330
19
100
AcDbDictionary
280
     1
281
     1
  3
BUMPTILE
360
1C
  3
DIFFUSETILE
360
1B
  3
OPACITYTILE
360
1F
  3
REFLECTIONTILE
360
1E
  3
REFRACTIONTILE
360
20
  3
SPECULARTILE
360
1D
  0
DICTIONARY
  5
12
330
11
100
AcDbDictionary
280
     1
281
     1
  3
BUMPTILE
360
14
  3
DIFFUSETILE
360
13
  3
OPACITYTILE
360
17
  3
REFLECTIONTILE
360
16
  3
REFRACTIONTILE
360
18
  3
SPECULARTILE
360
15
  0
DICTIONARY
  5
22
330
21
100
AcDbDictionary
280
     1
281
     1
  3
BUMPTILE
360
24
  3
DIFFUSETILE
360
23
  3
OPACITYTILE
360
27
  3
REFLECTIONTILE
360
26
  3
REFRACTIONTILE
360
28
  3
SPECULARTILE
360
25
  0
DICTIONARY
  5
100
330
65
100
AcDbDictionary
280
     1
281
     1
  3
ACAD_ROUNDTRIP_2008_TABLESTYLE_CELLSTYLEMAP
360
101
  0
XRECORD
  5
1C
102
{ACAD_REACTORS
330
1A
102
}
330
1A
100
AcDbXrecord
280
     1
270
     1
271
     1
  0
XRECORD
  5
1B
102
{ACAD_REACTORS
330
1A
102
}
330
1A
100
AcDbXrecord
280
     1
270
     1
271
     1
  0
XRECORD
  5
1F
102
{ACAD_REACTORS
330
1A
102
}
330
1A
100
AcDbXrecord
280
     1
270
     1
271
     1
  0
XRECORD
  5
1E
102
{ACAD_REACTORS
330
1A
102
}
330
1A
100
AcDbXrecord
280
     1
270
     1
271
     1
  0
XRECORD
  5
20
102
{ACAD_REACTORS
330
1A
102
}
330
1A
100
AcDbXrecord
280
     1
270
     1
271
     1
  0
XRECORD
  5
1D
102
{ACAD_REACTORS
330
1A
102
}
330
1A
100
AcDbXrecord
280
     1
270
     1
271
     1
  0
XRECORD
  5
14
102
{ACAD_REACTORS
330
12
102
}
330
12
100
AcDbXrecord
280
     1
270
     1
271
     1
  0
XRECORD
  5
13
102
{ACAD_REACTORS
330
12
102
}
330
12
100
AcDbXrecord
280
     1
270
     1
271
     1
  0
XRECORD
  5
17
102
{ACAD_REACTORS
330
12
102
}
330
12
100
AcDbXrecord
280
     1
270
     1
271
     1
  0
XRECORD
  5
16
102
{ACAD_REACTORS
330
12
102
}
330
12
100
AcDbXrecord
280
     1
270
     1
271
     1
  0
XRECORD
  5
18
102
{ACAD_REACTORS
330
12
102
}
330
12
100
AcDbXrecord
280
     1
270
     1
271
     1
  0
XRECORD
  5
15
102
{ACAD_REACTORS
330
12
102
}
330
12
100
AcDbXrecord
280
     1
270
     1
271
     1
  0
XRECORD
  5
24
102
{ACAD_REACTORS
330
22
102
}
330
22
100
AcDbXrecord
280
     1
270
     1
271
     1
  0
XRECORD
  5
23
102
{ACAD_REACTORS
330
22
102
}
330
22
100
AcDbXrecord
280
     1
270
     1
271
     1
  0
XRECORD
  5
27
102
{ACAD_REACTORS
330
22
102
}
330
22
100
AcDbXrecord
280
     1
270
     1
271
     1
  0
XRECORD
  5
26
102
{ACAD_REACTORS
330
22
102
}
330
22
100
AcDbXrecord
280
     1
270
     1
271
     1
  0
XRECORD
  5
28
102
{ACAD_REACTORS
330
22
102
}
330
22
100
AcDbXrecord
280
     1
270
     1
271
     1
  0
XRECORD
  5
25
102
{ACAD_REACTORS
330
22
102
}
330
22
100
AcDbXrecord
280
     1
270
     1
271
     1
  0
CELLSTYLEMAP
  5
101
102
{ACAD_REACTORS
330
100
102
}
330
100
100
AcDbCellStyleMap
 90
        3
300
CELLSTYLE
  1
TABLEFORMAT_BEGIN
 90
        5
170
     1
 91
        0
 92
    32768
 62
   257
 93
        1
300
CONTENTFORMAT
  1
CONTENTFORMAT_BEGIN
 90
        0
 91
        0
 92
      512
 93
        0
300

 40
0.0
140
1.0
 94
        5
 62
     0
340
55
144
0.25
309
CONTENTFORMAT_END
171
     0
 94
        0
309
TABLEFORMAT_END
  1
CELLSTYLE_BEGIN
 90
        1
 91
        1
300
_TITLE
309
CELLSTYLE_END
300
CELLSTYLE
  1
TABLEFORMAT_BEGIN
 90
        5
170
     1
 91
        0
 92
        0
 62
   257
 93
        1
300
CONTENTFORMAT
  1
CONTENTFORMAT_BEGIN
 90
        0
 91
        0
 92
      512
 93
        0
300

 40
0.0
140
1.0
 94
        5
 62
     0
340
55
144
0.18
309
CONTENTFORMAT_END
171
     0
 94
        0
309
TABLEFORMAT_END
  1
CELLSTYLE_BEGIN
 90
        2
 91
        1
300
_HEADER
309
CELLSTYLE_END
300
CELLSTYLE
  1
TABLEFORMAT_BEGIN
 90
        5
170
     1
 91
        0
 92
        0
 62
   257
 93
        1
300
CONTENTFORMAT
  1
CONTENTFORMAT_BEGIN
 90
        0
 91
        0
 92
      512
 93
        0
300

 40
0.0
140
1.0
 94
        2
 62
     0
340
55
144
0.18
309
CONTENTFORMAT_END
171
     0
 94
        0
309
TABLEFORMAT_END
  1
CELLSTYLE_BEGIN
 90
        3
 91
        2
300
_DATA
309
CELLSTYLE_END
  0
ENDSEC
  0
EOF
